  0
SECTION
  2
HEADER
  9
$ACADVER
  1
AC1009
  9
$INSBASE
 10
3581.5123541273510455
 20
134.0131948784959093
 30
0.0
  9
$EXTMIN
 10
3575.3478601201168203
 20
131.8731323061687988
 30
-0.0015258207003583
  9
$EXTMAX
 10
3581.6325723799868683
 20
135.0992033284090041
 30
0.0000000349246037
  9
$LIMMIN
 10
0.0
 20
0.0
  9
$LIMMAX
 10
11.6929133858000007
 20
8.2677165353999982
  9
$ORTHOMODE
 70
     1
  9
$REGENMODE
 70
     1
  9
$FILLMODE
 70
     1
  9
$QTEXTMODE
 70
     0
  9
$MIRRTEXT
 70
     0
  9
$DRAGMODE
 70
     2
  9
$LTSCALE
 40
0.6431102362
  9
$OSMODE
 70
  2039
  9
$ATTMODE
 70
     1
  9
$TEXTSIZE
 40
0.2
  9
$TRACEWID
 40
0.05
  9
$TEXTSTYLE
  7
STANDARD
  9
$CLAYER
  8
0
  9
$CELTYPE
  6
BYLAYER
  9
$CECOLOR
 62
   256
  9
$DIMSCALE
 40
1.0
  9
$DIMASZ
 40
0.1875
  9
$DIMEXO
 40
0.0625
  9
$DIMDLI
 40
0.4443307087
  9
$DIMRND
 40
0.0
  9
$DIMDLE
 40
0.0
  9
$DIMEXE
 40
0.125
  9
$DIMTP
 40
0.01
  9
$DIMTM
 40
0.01
  9
$DIMTXT
 40
2.0
  9
$DIMCEN
 40
0.1052362205
  9
$DIMTSZ
 40
0.0
  9
$DIMTOL
 70
     1
  9
$DIMLIM
 70
     0
  9
$DIMTIH
 70
     1
  9
$DIMTOH
 70
     1
  9
$DIMSE1
 70
     0
  9
$DIMSE2
 70
     0
  9
$DIMTAD
 70
     0
  9
$DIMZIN
 70
     0
  9
$DIMBLK
  1

  9
$DIMASO
 70
     1
  9
$DIMSHO
 70
     1
  9
$DIMPOST
  1
\X
  9
$DIMAPOST
  1

  9
$DIMALT
 70
     1
  9
$DIMALTD
 70
     2
  9
$DIMALTF
 40
25.3999999999999986
  9
$DIMLFAC
 40
1.0
  9
$DIMTOFL
 70
     0
  9
$DIMTVP
 40
0.0
  9
$DIMTIX
 70
     0
  9
$DIMSOXD
 70
     0
  9
$DIMSAH
 70
     0
  9
$DIMBLK1
  1

  9
$DIMBLK2
  1

  9
$DIMSTYLE
  2
STANDARD
  9
$DIMCLRD
 70
     0
  9
$DIMCLRE
 70
     0
  9
$DIMCLRT
 70
     0
  9
$DIMTFAC
 40
1.0
  9
$DIMGAP
 40
0.09
  9
$LUNITS
 70
     2
  9
$LUPREC
 70
     4
  9
$SKETCHINC
 40
0.1
  9
$FILLETRAD
 40
0.0
  9
$AUNITS
 70
     0
  9
$AUPREC
 70
     0
  9
$MENU
  1
.
  9
$ELEVATION
 40
0.0
  9
$PELEVATION
 40
0.0
  9
$THICKNESS
 40
0.0
  9
$LIMCHECK
 70
     0
  9
$BLIPMODE
 70
     0
  9
$CHAMFERA
 40
0.0
  9
$CHAMFERB
 40
0.0
  9
$SKPOLY
 70
     0
  9
$TDCREATE
 40
2458060.468368056230247
  9
$TDUPDATE
 40
2459270.4205324081704021
  9
$TDINDWG
 40
0.3700186343
  9
$TDUSRTIMER
 40
0.3700186343
  9
$USRTIMER
 70
     1
  9
$ANGBASE
 50
0.0
  9
$ANGDIR
 70
     0
  9
$PDMODE
 70
     0
  9
$PDSIZE
 40
0.3125
  9
$PLINEWID
 40
0.0
  9
$COORDS
 70
     1
  9
$SPLFRAME
 70
     0
  9
$SPLINETYPE
 70
     6
  9
$SPLINESEGS
 70
     8
  9
$ATTDIA
 70
     1
  9
$ATTREQ
 70
     1
  9
$HANDLING
 70
     1
  9
$HANDSEED
  5
1C50B
  9
$SURFTAB1
 70
     6
  9
$SURFTAB2
 70
     6
  9
$SURFTYPE
 70
     6
  9
$SURFU
 70
     6
  9
$SURFV
 70
     6
  9
$UCSNAME
  2

  9
$UCSORG
 10
0.0
 20
0.0
 30
0.0
  9
$UCSXDIR
 10
1.0
 20
0.0
 30
0.0
  9
$UCSYDIR
 10
0.0
 20
1.0
 30
0.0
  9
$PUCSNAME
  2

  9
$PUCSORG
 10
0.0
 20
0.0
 30
0.0
  9
$PUCSXDIR
 10
1.0
 20
0.0
 30
0.0
  9
$PUCSYDIR
 10
0.0
 20
1.0
 30
0.0
  9
$USERI1
 70
     0
  9
$USERI2
 70
     0
  9
$USERI3
 70
     0
  9
$USERI4
 70
     0
  9
$USERI5
 70
     0
  9
$USERR1
 40
0.0
  9
$USERR2
 40
0.0
  9
$USERR3
 40
0.0
  9
$USERR4
 40
0.0
  9
$USERR5
 40
0.0
  9
$WORLDVIEW
 70
     1
  9
$SHADEDGE
 70
     3
  9
$SHADEDIF
 70
    70
  9
$TILEMODE
 70
     1
  9
$MAXACTVP
 70
    64
  9
$PLIMCHECK
 70
     0
  9
$PEXTMIN
 10
1.0000000000000000E+20
 20
1.0000000000000000E+20
 30
1.0000000000000000E+20
  9
$PEXTMAX
 10
-1.0000000000000000E+20
 20
-1.0000000000000000E+20
 30
-1.0000000000000000E+20
  9
$PLIMMIN
 10
0.0
 20
0.0
  9
$PLIMMAX
 10
12.0
 20
9.0
  9
$UNITMODE
 70
     0
  9
$VISRETAIN
 70
     1
  9
$PLINEGEN
 70
     0
  9
$PSLTSCALE
 70
     1
  0
ENDSEC
  0
SECTION
  2
TABLES
  0
TABLE
  2
VPORT
 70
     1
  0
VPORT
  2
*ACTIVE
 70
     0
 10
0.0
 20
0.0
 11
1.0
 21
1.0
 12
-225.0538511327603999
 22
7.4909056205390101
 13
0.0
 23
0.0
 14
1.0
 24
1.0
 15
0.0
 25
0.0
 16
0.0
 26
0.0
 36
17.1152628219792007
 17
3803.5440673828129547
 27
125.9952621967499056
 37
0.0
 40
3.2529176604280572
 41
2.6486111111111108
 42
50.0
 43
0.0
 44
0.0
 50
0.0
 51
0.0
 71
     0
 72
   100
 73
     1
 74
     1
 75
     0
 76
     0
 77
     0
 78
     1
  0
ENDTAB
  0
TABLE
  2
LTYPE
 70
     2
  0
LTYPE
  2
CONTINUOUS
 70
     0
  3
Solid line
 72
    65
 73
     0
 40
0.0
  0
LTYPE
  2
PHANTOM2
 70
     0
  3
___ _ _ ___ _ _ ___ _ _ ___ _ _
 72
    65
 73
     6
 40
1.25
 49
0.625
 49
-0.125
 49
0.125
 49
-0.125
 49
0.125
 49
-0.125
  0
ENDTAB
  0
TABLE
  2
LAYER
 70
     2
  0
LAYER
  2
0
 70
     0
 62
   255
  6
CONTINUOUS
  0
LAYER
  2
DEFPOINTS
 70
     0
 62
     7
  6
CONTINUOUS
  0
ENDTAB
  0
TABLE
  2
STYLE
 70
     1
  0
STYLE
  2
STANDARD
 70
     0
 40
0.0
 41
0.8
 50
0.0
 71
     0
 42
0.2
  3
txt
  4

  0
ENDTAB
  0
TABLE
  2
VIEW
 70
     0
  0
ENDTAB
  0
TABLE
  2
UCS
 70
     0
  0
ENDTAB
  0
TABLE
  2
APPID
 70
     9
  0
APPID
  2
ACAD
 70
     0
  0
APPID
  2
ACAD_MLEADERVER
 70
     0
  0
APPID
  2
ACAD_EXEMPT_FROM_CAD_STANDARDS
 70
     0
  0
APPID
  2
ACAD_NAV_VCDISPLAY
 70
     0
  0
APPID
  2
ACAECLAYERSTANDARD
 70
     0
  0
APPID
  2
ACCMTRANSPARENCY
 70
     0
  0
APPID
  2
ACAD_DSTYLE_DIMJAG
 70
     0
  0
APPID
  2
ACAD_DSTYLE_DIMTALN
 70
     0
  0
APPID
  2
ACDBATTR
 70
     0
  0
ENDTAB
  0
TABLE
  2
DIMSTYLE
 70
     1
  0
DIMSTYLE
  2
STANDARD
 70
     0
  3

  4

  5

  6

  7

 40
1.0
 41
0.1875
 42
0.0625
 43
0.38
 44
0.125
 45
0.0
 46
0.0
 47
0.01
 48
0.01
140
0.15625
141
0.09
142
0.0
143
25.3999999999999986
144
1.0
145
0.0
146
1.0
147
0.09
 71
     1
 72
     0
 73
     1
 74
     1
 75
     0
 76
     0
 77
     0
 78
     4
170
     0
171
     2
172
     0
173
     0
174
     0
175
     0
176
     0
177
     0
178
     0
  0
ENDTAB
  0
ENDSEC
  0
SECTION
  2
BLOCKS
  0
BLOCK
  8
0
  2
$MODEL_SPACE
 70
     0
 10
0.0
 20
0.0
 30
0.0
  3
$MODEL_SPACE
  1

  0
ENDBLK
  5
21
  8
0
  0
BLOCK
 67
     1
  8
0
  2
$PAPER_SPACE
 70
     0
 10
0.0
 20
0.0
 30
0.0
  3
$PAPER_SPACE
  1

  0
ENDBLK
  5
1D
 67
     1
  8
0
  0
BLOCK
  8
0
  2
_FILLED
 70
     0
 10
0.0
 20
0.0
 30
0.0
  3
_FILLED
  1

  0
SOLID
  5
1BA72
  8
0
  6
BYBLOCK
 62
     0
 10
0.0
 20
0.0
 30
0.0
 11
-1.0
 21
0.1666666667
 31
0.0
 12
-1.0
 22
-0.1666666667
 32
0.0
 13
-1.0
 23
-0.1666666667
 33
0.0
  0
ENDBLK
  5
1BA73
  8
0
  6
BYBLOCK
 62
     0
  0
ENDSEC
  0
SECTION
  2
ENTITIES
  0
ATTDEF
  5
1B076
  8
DEFPOINTS
 10
3581.5125979582721811
 20
134.0169053902116048
 30
0.0
 40
0.001
  1
K-26318
  3

  2
MODELNUMBER
 70
     0
1001
ACDBATTR
1070
     0
1070
     1
  0
ATTDEF
  5
1B077
  8
DEFPOINTS
 10
3581.5125979582721811
 20
134.0152387235449112
 30
0.0
 40
0.001
  1

  3

  2
TRADENAME
 70
     0
1001
ACDBATTR
1070
     0
1070
     1
  0
ATTDEF
  5
1B078
  8
DEFPOINTS
 10
3581.5125979582721811
 20
134.0135720568783029
 30
0.0
 40
0.001
  1
SHOWER ARM
  3

  2
PRODUCT
 70
     0
1001
ACDBATTR
1070
     0
1070
     1
  0
LINE
  5
1C2E8
  8
0
 10
3581.2455008044521492
 20
135.0951951094959043
 30
0.0
 11
3581.1786541273509101
 21
135.0951951094959043
 31
0.0
  0
LINE
  5
1C2E9
  8
0
 10
3581.4454991283510026
 20
135.0951951094959043
 30
0.0
 11
3581.5123541273510455
 21
135.0951951094959043
 31
0.0
  0
LINE
  5
1C2EA
  8
0
 10
3578.3945047592042101
 20
134.4194451094959106
 30
0.0
 11
3581.1186642012357879
 21
134.4194451094959106
 31
0.0
  0
LINE
  5
1C2EB
  8
0
 10
3581.5123541273510455
 20
135.0951946474959016
 30
0.0
 11
3581.5123541273510455
 21
132.9311951094958886
 31
0.0
  0
LINE
  5
1C2EC
  8
0
 10
3581.5123541273510455
 20
132.9311951094958886
 30
0.0
 11
3581.1786541273509101
 21
132.9311951094958886
 31
0.0
  0
ARC
  5
1C2ED
  8
0
 10
3581.1786541273509101
 20
132.9911951094973119
 30
0.0
 40
0.0600000000014911
 50
179.9995958751925116
 51
270.0
  0
LINE
  5
1C2EE
  8
0
 10
3581.1186541273509647
 20
132.9911955326959117
 30
0.0
 11
3581.1186685443080933
 21
135.0351946730449981
 31
0.0
  0
ARC
  5
1C2EF
  8
0
 10
3581.17866940590784
 20
135.0351942498404014
 30
0.0
 40
0.0600008616006885
 50
90.014589736593507
 51
179.9995958751925116
  0
ARC
  5
1C2F0
  8
0
 10
3581.3454999664008938
 20
136.1510952163469028
 30
0.0
 40
1.060624753642307
 50
264.5899313881482158
 51
275.4100686118517842
  0
ARC
  5
1C2F1
  8
0
 10
3578.3945047592042101
 20
132.0911951098387931
 30
0.0
 40
2.3282499996570212
 50
89.9999999988535961
 51
135.0000000068961867
  0
LINE
  5
1C2F2
  8
0
 10
3576.7481833959509459
 20
133.7375164726958872
 30
0.0
 11
3575.7663160501260791
 21
132.7554735228202958
 31
0.0
  0
LINE
  5
1C2F3
  8
0
 10
3581.1186541273509647
 20
133.6069451094959106
 30
0.0
 11
3578.3945047592510491
 21
133.6069451094959106
 31
0.0
  0
ARC
  5
1C2F4
  8
0
 10
3578.3945047592510491
 20
132.0911951094959136
 30
0.0
 40
1.515750000000003
 50
90.0
 51
135.0000000026680027
  0
LINE
  5
1C2F5
  8
0
 10
3577.3227076556181601
 20
133.1629922130294119
 30
0.0
 11
3576.3375551555109269
 21
132.1916724009801101
 31
0.0
  0
LINE
  5
1C2F7
  8
0
 10
3575.446182261327067
 20
132.3992318286202874
 30
0.0
 11
3575.446182261327067
 21
132.4093420891202868
 31
0.0
  0
LINE
  5
1C2F8
  8
0
 10
3575.5191853686269496
 20
132.4882736830201964
 30
0.0
 11
3575.5234509213260026
 21
132.4738014531201884
 31
0.0
  0
LINE
  5
1C2F9
  8
0
 10
3575.5686115049270484
 20
132.5417136510201885
 30
0.0
 11
3575.5737637707261456
 21
132.5244618794203006
 31
0.0
  0
LINE
  5
1C2FA
  8
0
 10
3575.6180376412257829
 20
132.5951536189203068
 30
0.0
 11
3575.624155977026021
 21
132.5748351689202877
 31
0.0
  0
LINE
  5
1C2FB
  8
0
 10
3575.4697592323259414
 20
132.4348337151203054
 30
0.0
 11
3575.4730286503258867
 21
132.4239083693202872
 31
0.0
  0
LINE
  5
1C2FC
  8
0
 10
3575.667475531925902
 20
132.6486062957202989
 30
0.0
 11
3575.6745063035259591
 21
132.6253346044202885
 31
0.0
  0
LINE
  5
1C2FD
  8
0
 10
3575.7168899138259803
 20
132.7020335548203036
 30
0.0
 11
3575.725046724026015
 21
132.6753405839201889
 31
0.0
  0
LINE
  5
1C2FE
  8
0
 10
3575.7663160501260791
 20
132.7554735228202958
 30
0.0
 11
3575.7752656555280737
 21
132.7262609374195961
 31
0.0
  0
LINE
  5
1C2FF
  8
0
 10
3575.4613719747258074
 20
132.4122319983202942
 30
0.0
 11
3575.4515150084271227
 21
132.4151079016201891
 31
0.0
  0
LINE
  5
1C300
  8
0
 10
3575.5118371565258713
 20
132.4626490520201969
 30
0.0
 11
3575.4989744525259994
 21
132.4664214649201881
 31
0.0
  0
LINE
  5
1C301
  8
0
 10
3575.562169203726171
 20
132.5130335213202102
 30
0.0
 11
3575.5464326255259948
 21
132.5177336538201871
 31
0.0
  0
LINE
  5
1C302
  8
0
 10
3575.6125880868257809
 20
132.5634109901203033
 30
0.0
 11
3575.5938907985259902
 21
132.5690458428202874
 31
0.0
  0
LINE
  5
1C303
  8
0
 10
3575.6629737305261187
 20
132.6137997956203094
 30
0.0
 11
3575.6413489794258567
 21
132.6203580403202125
 31
0.0
  0
LINE
  5
1C304
  8
0
 10
3575.7135811447187734
 20
132.6641156318223977
 30
0.0
 11
3575.6888071446260255
 21
132.6716702208202889
 31
0.0
  0
LINE
  5
1C305
  8
0
 10
3575.446182261327067
 20
132.4093420891202868
 30
0.0
 11
3575.4515150084271227
 21
132.4151079016201891
 31
0.0
  0
LINE
  5
1C306
  8
0
 10
3575.4697592323259414
 20
132.4348337151203054
 30
0.0
 11
3575.4989744525259994
 21
132.4664214649201881
 31
0.0
  0
LINE
  5
1C307
  8
0
 10
3575.5191853686269496
 20
132.4882736830201964
 30
0.0
 11
3575.5464326255259948
 21
132.5177336538201871
 31
0.0
  0
LINE
  5
1C308
  8
0
 10
3575.5686115049270484
 20
132.5417136510201885
 30
0.0
 11
3575.5938907985259902
 21
132.5690458428202874
 31
0.0
  0
LINE
  5
1C309
  8
0
 10
3575.6180376412257829
 20
132.5951536189203068
 30
0.0
 11
3575.6413489794258567
 21
132.6203580403202125
 31
0.0
  0
LINE
  5
1C30A
  8
0
 10
3575.667475531925902
 20
132.6486062957202989
 30
0.0
 11
3575.6888071446260255
 21
132.6716702208202889
 31
0.0
  0
LINE
  5
1C30B
  8
0
 10
3575.7168899138259803
 20
132.7020335548203036
 30
0.0
 11
3575.7362653177260654
 21
132.7229824098203039
 31
0.0
  0
LINE
  5
1C30C
  8
0
 10
3575.7637937396261805
 20
132.7145593863203032
 30
0.0
 11
3575.7362653177260654
 21
132.7229824098203039
 31
0.0
  0
ARC
  5
1C30D
  8
0
 10
3575.7663677176469719
 20
132.7235100900356031
 30
0.0
 40
0.009313455848966
 50
253.9562094567012878
 51
17.1792871924514294
  0
ARC
  5
1C30E
  8
0
 10
3575.7159723176278021
 20
132.6731413582324137
 30
0.0
 40
0.0093371004656034
 50
255.1615964036749915
 51
13.6232353430304407
  0
ARC
  5
1C30F
  8
0
 10
3575.6657720996840908
 20
132.622534542089312
 30
0.0
 40
0.00917205897389
 50
252.2359905353141869
 51
17.7751162218026408
  0
ARC
  5
1C310
  8
0
 10
3575.6152216654641052
 20
132.5723130762773962
 30
0.0
 40
0.0092834731857502
 50
253.5197614838920117
 51
15.7639959317705003
  0
ARC
  5
1C311
  8
0
 10
3575.5648744098298266
 20
132.5218847475499047
 30
0.0
 40
0.0092553954982968
 50
253.0052411436095099
 51
16.1675048901669598
  0
ARC
  5
1C312
  8
0
 10
3575.514423700613861
 20
132.4715788130637009
 30
0.0
 40
0.0092968189511461
 50
253.8461108790945104
 51
13.8319720142526599
  0
ARC
  5
1C313
  8
0
 10
3575.4641665690401169
 20
132.4210988100672921
 30
0.0
 40
0.0092967794387213
 50
252.5064695700729089
 51
17.5902570209426408
  0
LINE
  5
1C314
  8
0
 10
3575.9705903233771096
 20
131.8748238525523107
 30
0.0
 11
3575.9807005838761143
 21
131.8748238525523107
 31
0.0
  0
LINE
  5
1C315
  8
0
 10
3576.0596321777761659
 20
131.9478268738702127
 30
0.0
 11
3576.0451599478760727
 21
131.9520924265702888
 31
0.0
  0
LINE
  5
1C316
  8
0
 10
3576.1130721457761865
 20
131.9972530101703114
 30
0.0
 11
3576.0958203741770376
 21
132.0024052759702897
 31
0.0
  0
LINE
  5
1C317
  8
0
 10
3576.1665121136761627
 20
132.0466791464702965
 30
0.0
 11
3576.1461936636769678
 21
132.0527974822703072
 31
0.0
  0
LINE
  5
1C318
  8
0
 10
3576.0061922098761897
 20
131.8984007375703129
 30
0.0
 11
3575.995266864075802
 21
131.9016701555702866
 31
0.0
  0
LINE
  5
1C319
  8
0
 10
3576.2199647904758422
 20
132.096117037170302
 30
0.0
 11
3576.1966930991761728
 21
132.1031478087703022
 31
0.0
  0
LINE
  5
1C31A
  8
0
 10
3576.2733920495761595
 20
132.145531419070295
 30
0.0
 11
3576.2466990786761016
 21
132.1536882292701875
 31
0.0
  0
LINE
  5
1C31B
  8
0
 10
3576.3375551565750357
 20
132.1916724006541131
 30
0.0
 11
3576.2976194321759067
 21
132.2039071607711946
 31
0.0
  0
LINE
  5
1C31C
  8
0
 10
3575.983590493076008
 20
131.8900134799702926
 30
0.0
 11
3575.9864663963758176
 21
131.8801565136701868
 31
0.0
  0
LINE
  5
1C31D
  8
0
 10
3576.034007546776138
 20
131.9404786617701859
 30
0.0
 11
3576.037779959675845
 21
131.927615957770314
 31
0.0
  0
LINE
  5
1C31E
  8
0
 10
3576.0843920160759808
 20
131.9908107089702867
 30
0.0
 11
3576.0890921485761282
 21
131.9750741307701958
 31
0.0
  0
LINE
  5
1C31F
  8
0
 10
3576.1347694848759602
 20
132.0412295920702945
 30
0.0
 11
3576.1404043375760011
 21
132.0225323037703049
 31
0.0
  0
LINE
  5
1C320
  8
0
 10
3576.1851582903759663
 20
132.0916152357702913
 30
0.0
 11
3576.1917165350760115
 21
132.0699904846703134
 31
0.0
  0
LINE
  5
1C321
  8
0
 10
3576.2354741265780831
 20
132.1422226499637134
 30
0.0
 11
3576.2430287155771111
 21
132.1174486498703118
 31
0.0
  0
LINE
  5
1C322
  8
0
 10
3575.9807005838761143
 20
131.8748238525523107
 30
0.0
 11
3575.9864663963758176
 21
131.8801565136701868
 31
0.0
  0
LINE
  5
1C323
  8
0
 10
3576.0061922098761897
 20
131.8984007375703129
 30
0.0
 11
3576.037779959675845
 21
131.927615957770314
 31
0.0
  0
LINE
  5
1C324
  8
0
 10
3576.0596321777761659
 20
131.9478268738702127
 30
0.0
 11
3576.0890921485761282
 21
131.9750741307701958
 31
0.0
  0
LINE
  5
1C325
  8
0
 10
3576.1130721457761865
 20
131.9972530101703114
 30
0.0
 11
3576.1404043375760011
 21
132.0225323037703049
 31
0.0
  0
LINE
  5
1C326
  8
0
 10
3576.1665121136761627
 20
132.0466791464702965
 30
0.0
 11
3576.1917165350760115
 21
132.0699904846703134
 31
0.0
  0
LINE
  5
1C327
  8
0
 10
3576.2199647904758422
 20
132.096117037170302
 30
0.0
 11
3576.2430287155771111
 21
132.1174486498703118
 31
0.0
  0
LINE
  5
1C328
  8
0
 10
3576.2733920495761595
 20
132.145531419070295
 30
0.0
 11
3576.2943409045760745
 21
132.1649068229702948
 31
0.0
  0
LINE
  5
1C329
  8
0
 10
3576.2859178810758749
 20
132.1924352448702109
 30
0.0
 11
3576.2943409045760745
 21
132.1649068229702948
 31
0.0
  0
ARC
  5
1C32A
  8
0
 10
3576.2948685847918568
 20
132.1950092228910023
 30
0.0
 40
0.009313455848966
 50
72.8207128075417529
 51
196.0437905432883952
  0
ARC
  5
1C32B
  8
0
 10
3576.2444998529881559
 20
132.1446138228720883
 30
0.0
 40
0.0093371004656034
 50
76.3767646569663015
 51
194.8384035963335066
  0
ARC
  5
1C32C
  8
0
 10
3576.1938930368451111
 20
132.0944136049276949
 30
0.0
 40
0.00917205897389
 50
72.2248837781884276
 51
197.7640094646826014
  0
ARC
  5
1C32D
  8
0
 10
3576.1436715710328826
 20
132.0438631707079935
 30
0.0
 40
0.0092834731857502
 50
74.2360040682337825
 51
196.4802385161005986
  0
ARC
  5
1C32E
  8
0
 10
3576.0932432423060163
 20
131.9935159150734876
 30
0.0
 40
0.0092553954982968
 50
73.8324951098247197
 51
196.9947588563962881
  0
ARC
  5
1C32F
  8
0
 10
3576.0429373078200115
 20
131.9430652058578914
 30
0.0
 40
0.0092968189511461
 50
76.1680279857418299
 51
196.1538891209042959
  0
ARC
  5
1C330
  8
0
 10
3575.9924573048228922
 20
131.8928080742832947
 30
0.0
 40
0.0092967794387213
 50
72.4097429790645464
 51
197.4935304299168877
  0
LINE
  5
1C331
  8
0
 10
3575.446182261327067
 20
132.3992318286202874
 30
0.0
 11
3575.9705903233771096
 21
131.8748238525523107
 31
0.0
  0
LINE
  5
1C332
  8
0
 10
3575.4613719747258074
 20
132.4122319983202942
 30
0.0
 11
3575.983590493076008
 21
131.8900134799702926
 31
0.0
  0
LINE
  5
1C333
  8
0
 10
3575.4730286503258867
 20
132.4239083693202872
 30
0.0
 11
3575.995266864075802
 21
131.9016701555702866
 31
0.0
  0
LINE
  5
1C334
  8
0
 10
3575.5118371565258713
 20
132.4626490520201969
 30
0.0
 11
3576.034007546776138
 21
131.9404786617701859
 31
0.0
  0
LINE
  5
1C335
  8
0
 10
3575.5234509213260026
 20
132.4738014531201884
 30
0.0
 11
3576.0451599478760727
 21
131.9520924265702888
 31
0.0
  0
LINE
  5
1C336
  8
0
 10
3575.562169203726171
 20
132.5130335213202102
 30
0.0
 11
3576.0843920160759808
 21
131.9908107089702867
 31
0.0
  0
LINE
  5
1C337
  8
0
 10
3575.5737637707261456
 20
132.524461879420187
 30
0.0
 11
3576.0958203741770376
 21
132.0024052759702897
 31
0.0
  0
LINE
  5
1C338
  8
0
 10
3575.6125880868257809
 20
132.5634109901203033
 30
0.0
 11
3576.1347694848759602
 21
132.0412295920702945
 31
0.0
  0
LINE
  5
1C339
  8
0
 10
3575.624155977026021
 20
132.5748351689202877
 30
0.0
 11
3576.1461936636769678
 21
132.0527974822703072
 31
0.0
  0
LINE
  5
1C33A
  8
0
 10
3575.6629737305261187
 20
132.6137997956203094
 30
0.0
 11
3576.1851582903759663
 21
132.0916152357702913
 31
0.0
  0
LINE
  5
1C33B
  8
0
 10
3575.6745063035259591
 20
132.6253346044202885
 30
0.0
 11
3576.1966930991761728
 21
132.1031478087703022
 31
0.0
  0
LINE
  5
1C33C
  8
0
 10
3575.7135811447187734
 20
132.6641156318223977
 30
0.0
 11
3576.2354741265780831
 21
132.1422226499637134
 31
0.0
  0
LINE
  5
1C33D
  8
0
 10
3575.725046724026015
 20
132.6753405839201889
 30
0.0
 11
3576.2466990786761016
 21
132.1536882292701875
 31
0.0
  0
LINE
  5
1C33E
  8
0
 10
3575.7637937396261805
 20
132.7145593863203032
 30
0.0
 11
3576.2859178810758749
 21
132.1924352448702109
 31
0.0
  0
LINE
  5
1C33F
  8
0
 10
3575.7752656555280737
 20
132.7262609374195108
 30
0.0
 11
3576.2976194321749972
 21
132.2039071607711946
 31
0.0
  0
ENDSEC
  0
EOF
