  0
SECTION
  2
HEADER
  9
$ACADVER
  1
AC1009
  9
$INSBASE
 10
3571.8339894180048759
 20
141.8806365276427073
 30
0.0
  9
$EXTMIN
 10
3570.7519939150101891
 20
135.8144646616175919
 30
0.0
  9
$EXTMAX
 10
3572.9159849198549637
 20
141.8858257849836093
 30
0.0
  9
$LIMMIN
 10
0.0
 20
0.0
  9
$LIMMAX
 10
11.6929133858000007
 20
8.2677165353999982
  9
$ORTHOMODE
 70
     1
  9
$REGENMODE
 70
     1
  9
$FILLMODE
 70
     1
  9
$QTEXTMODE
 70
     0
  9
$MIRRTEXT
 70
     0
  9
$DRAGMODE
 70
     2
  9
$LTSCALE
 40
0.6431102362
  9
$OSMODE
 70
  2039
  9
$ATTMODE
 70
     1
  9
$TEXTSIZE
 40
0.2
  9
$TRACEWID
 40
0.05
  9
$TEXTSTYLE
  7
STANDARD
  9
$CLAYER
  8
0
  9
$CELTYPE
  6
BYLAYER
  9
$CECOLOR
 62
   256
  9
$DIMSCALE
 40
1.0
  9
$DIMASZ
 40
0.1875
  9
$DIMEXO
 40
0.0625
  9
$DIMDLI
 40
0.4443307087
  9
$DIMRND
 40
0.0
  9
$DIMDLE
 40
0.0
  9
$DIMEXE
 40
0.125
  9
$DIMTP
 40
0.01
  9
$DIMTM
 40
0.01
  9
$DIMTXT
 40
2.0
  9
$DIMCEN
 40
0.1052362205
  9
$DIMTSZ
 40
0.0
  9
$DIMTOL
 70
     1
  9
$DIMLIM
 70
     0
  9
$DIMTIH
 70
     1
  9
$DIMTOH
 70
     1
  9
$DIMSE1
 70
     0
  9
$DIMSE2
 70
     0
  9
$DIMTAD
 70
     0
  9
$DIMZIN
 70
     0
  9
$DIMBLK
  1

  9
$DIMASO
 70
     1
  9
$DIMSHO
 70
     1
  9
$DIMPOST
  1
\X
  9
$DIMAPOST
  1

  9
$DIMALT
 70
     1
  9
$DIMALTD
 70
     2
  9
$DIMALTF
 40
25.3999999999999986
  9
$DIMLFAC
 40
1.0
  9
$DIMTOFL
 70
     0
  9
$DIMTVP
 40
0.0
  9
$DIMTIX
 70
     0
  9
$DIMSOXD
 70
     0
  9
$DIMSAH
 70
     0
  9
$DIMBLK1
  1

  9
$DIMBLK2
  1

  9
$DIMSTYLE
  2
STANDARD
  9
$DIMCLRD
 70
     0
  9
$DIMCLRE
 70
     0
  9
$DIMCLRT
 70
     0
  9
$DIMTFAC
 40
1.0
  9
$DIMGAP
 40
0.09
  9
$LUNITS
 70
     2
  9
$LUPREC
 70
     4
  9
$SKETCHINC
 40
0.1
  9
$FILLETRAD
 40
0.0
  9
$AUNITS
 70
     0
  9
$AUPREC
 70
     0
  9
$MENU
  1
.
  9
$ELEVATION
 40
0.0
  9
$PELEVATION
 40
0.0
  9
$THICKNESS
 40
0.0
  9
$LIMCHECK
 70
     0
  9
$BLIPMODE
 70
     0
  9
$CHAMFERA
 40
0.0
  9
$CHAMFERB
 40
0.0
  9
$SKPOLY
 70
     0
  9
$TDCREATE
 40
2458060.468368056230247
  9
$TDUPDATE
 40
2459270.4209490739740431
  9
$TDINDWG
 40
0.3715116898
  9
$TDUSRTIMER
 40
0.3715116898
  9
$USRTIMER
 70
     1
  9
$ANGBASE
 50
0.0
  9
$ANGDIR
 70
     0
  9
$PDMODE
 70
     0
  9
$PDSIZE
 40
0.3125
  9
$PLINEWID
 40
0.0
  9
$COORDS
 70
     1
  9
$SPLFRAME
 70
     0
  9
$SPLINETYPE
 70
     6
  9
$SPLINESEGS
 70
     8
  9
$ATTDIA
 70
     1
  9
$ATTREQ
 70
     1
  9
$HANDLING
 70
     1
  9
$HANDSEED
  5
1C603
  9
$SURFTAB1
 70
     6
  9
$SURFTAB2
 70
     6
  9
$SURFTYPE
 70
     6
  9
$SURFU
 70
     6
  9
$SURFV
 70
     6
  9
$UCSNAME
  2

  9
$UCSORG
 10
0.0
 20
0.0
 30
0.0
  9
$UCSXDIR
 10
1.0
 20
0.0
 30
0.0
  9
$UCSYDIR
 10
0.0
 20
1.0
 30
0.0
  9
$PUCSNAME
  2

  9
$PUCSORG
 10
0.0
 20
0.0
 30
0.0
  9
$PUCSXDIR
 10
1.0
 20
0.0
 30
0.0
  9
$PUCSYDIR
 10
0.0
 20
1.0
 30
0.0
  9
$USERI1
 70
     0
  9
$USERI2
 70
     0
  9
$USERI3
 70
     0
  9
$USERI4
 70
     0
  9
$USERI5
 70
     0
  9
$USERR1
 40
0.0
  9
$USERR2
 40
0.0
  9
$USERR3
 40
0.0
  9
$USERR4
 40
0.0
  9
$USERR5
 40
0.0
  9
$WORLDVIEW
 70
     1
  9
$SHADEDGE
 70
     3
  9
$SHADEDIF
 70
    70
  9
$TILEMODE
 70
     1
  9
$MAXACTVP
 70
    64
  9
$PLIMCHECK
 70
     0
  9
$PEXTMIN
 10
1.0000000000000000E+20
 20
1.0000000000000000E+20
 30
1.0000000000000000E+20
  9
$PEXTMAX
 10
-1.0000000000000000E+20
 20
-1.0000000000000000E+20
 30
-1.0000000000000000E+20
  9
$PLIMMIN
 10
0.0
 20
0.0
  9
$PLIMMAX
 10
12.0
 20
9.0
  9
$UNITMODE
 70
     0
  9
$VISRETAIN
 70
     1
  9
$PLINEGEN
 70
     0
  9
$PSLTSCALE
 70
     1
  0
ENDSEC
  0
SECTION
  2
TABLES
  0
TABLE
  2
VPORT
 70
     1
  0
VPORT
  2
*ACTIVE
 70
     0
 10
0.0
 20
0.0
 11
1.0
 21
1.0
 12
-231.7100779653798952
 22
12.8548830265507199
 13
0.0
 23
0.0
 14
1.0
 24
1.0
 15
0.0
 25
0.0
 16
0.0
 26
0.0
 36
17.1152628219792007
 17
3803.5440673828129547
 27
125.9952621967499056
 37
0.0
 40
6.1218856264730546
 41
2.6486111111111108
 42
50.0
 43
0.0
 44
0.0
 50
0.0
 51
0.0
 71
     0
 72
   100
 73
     1
 74
     1
 75
     0
 76
     0
 77
     0
 78
     1
  0
ENDTAB
  0
TABLE
  2
LTYPE
 70
     2
  0
LTYPE
  2
CONTINUOUS
 70
     0
  3
Solid line
 72
    65
 73
     0
 40
0.0
  0
LTYPE
  2
PHANTOM2
 70
     0
  3
___ _ _ ___ _ _ ___ _ _ ___ _ _
 72
    65
 73
     6
 40
1.25
 49
0.625
 49
-0.125
 49
0.125
 49
-0.125
 49
0.125
 49
-0.125
  0
ENDTAB
  0
TABLE
  2
LAYER
 70
     2
  0
LAYER
  2
0
 70
     0
 62
   255
  6
CONTINUOUS
  0
LAYER
  2
DEFPOINTS
 70
     0
 62
     7
  6
CONTINUOUS
  0
ENDTAB
  0
TABLE
  2
STYLE
 70
     1
  0
STYLE
  2
STANDARD
 70
     0
 40
0.0
 41
0.8
 50
0.0
 71
     0
 42
0.2
  3
txt
  4

  0
ENDTAB
  0
TABLE
  2
VIEW
 70
     0
  0
ENDTAB
  0
TABLE
  2
UCS
 70
     0
  0
ENDTAB
  0
TABLE
  2
APPID
 70
     9
  0
APPID
  2
ACAD
 70
     0
  0
APPID
  2
ACAD_MLEADERVER
 70
     0
  0
APPID
  2
ACAD_EXEMPT_FROM_CAD_STANDARDS
 70
     0
  0
APPID
  2
ACAD_NAV_VCDISPLAY
 70
     0
  0
APPID
  2
ACAECLAYERSTANDARD
 70
     0
  0
APPID
  2
ACCMTRANSPARENCY
 70
     0
  0
APPID
  2
ACAD_DSTYLE_DIMJAG
 70
     0
  0
APPID
  2
ACAD_DSTYLE_DIMTALN
 70
     0
  0
APPID
  2
ACDBATTR
 70
     0
  0
ENDTAB
  0
TABLE
  2
DIMSTYLE
 70
     1
  0
DIMSTYLE
  2
STANDARD
 70
     0
  3

  4

  5

  6

  7

 40
1.0
 41
0.1875
 42
0.0625
 43
0.38
 44
0.125
 45
0.0
 46
0.0
 47
0.01
 48
0.01
140
0.15625
141
0.09
142
0.0
143
25.3999999999999986
144
1.0
145
0.0
146
1.0
147
0.09
 71
     1
 72
     0
 73
     1
 74
     1
 75
     0
 76
     0
 77
     0
 78
     4
170
     0
171
     2
172
     0
173
     0
174
     0
175
     0
176
     0
177
     0
178
     0
  0
ENDTAB
  0
ENDSEC
  0
SECTION
  2
BLOCKS
  0
BLOCK
  8
0
  2
$MODEL_SPACE
 70
     0
 10
0.0
 20
0.0
 30
0.0
  3
$MODEL_SPACE
  1

  0
ENDBLK
  5
21
  8
0
  0
BLOCK
 67
     1
  8
0
  2
$PAPER_SPACE
 70
     0
 10
0.0
 20
0.0
 30
0.0
  3
$PAPER_SPACE
  1

  0
ENDBLK
  5
1D
 67
     1
  8
0
  0
BLOCK
  8
0
  2
_FILLED
 70
     0
 10
0.0
 20
0.0
 30
0.0
  3
_FILLED
  1

  0
SOLID
  5
1BA72
  8
0
  6
BYBLOCK
 62
     0
 10
0.0
 20
0.0
 30
0.0
 11
-1.0
 21
0.1666666667
 31
0.0
 12
-1.0
 22
-0.1666666667
 32
0.0
 13
-1.0
 23
-0.1666666667
 33
0.0
  0
ENDBLK
  5
1BA73
  8
0
  6
BYBLOCK
 62
     0
  0
ENDSEC
  0
SECTION
  2
ENTITIES
  0
ATTDEF
  5
1BD77
  8
DEFPOINTS
 10
3571.8342108314500365
 20
141.8848257849834908
 30
0.0
 40
0.001
  1
K-26318
  3

  2
MODELNUMBER
 70
     0
1001
ACDBATTR
1070
     0
1070
     1
  0
ATTDEF
  5
1BD78
  8
DEFPOINTS
 10
3571.8342108314500365
 20
141.883159118316911
 30
0.0
 40
0.001
  1

  3

  2
TRADENAME
 70
     0
1001
ACDBATTR
1070
     0
1070
     1
  0
ATTDEF
  5
1BD79
  8
DEFPOINTS
 10
3571.8342108314500365
 20
141.881492451650189
 30
0.0
 40
0.001
  1
SHOWER ARM
  3

  2
PRODUCT
 70
     0
1001
ACDBATTR
1070
     0
1070
     1
  0
LINE
  5
1C44E
  8
0
 10
3570.7519939161547882
 20
141.8806365276427073
 30
0.0
 11
3572.9159849198549637
 21
141.8806365276427073
 31
0.0
  0
LINE
  5
1C44F
  8
0
 10
3572.9159849198549637
 20
141.8806365276427073
 30
0.0
 11
3572.9159849198549637
 21
141.5469365276427141
 31
0.0
  0
ARC
  5
1C450
  8
0
 10
3572.8559849198541087
 20
141.5469365276427141
 30
0.0
 40
0.0600000000009313
 50
270.0003191383898979
 51
0.0
  0
LINE
  5
1C451
  8
0
 10
3572.8559852540552129
 20
141.4869365276427118
 30
0.0
 11
3570.8119939161870207
 21
141.4869251425791958
 31
0.0
  0
ARC
  5
1C452
  8
0
 10
3570.811993581986826
 20
141.5469248095550938
 30
0.0
 40
0.0599996669769158
 50
179.9888099885158113
 51
270.0003191383898979
  0
LINE
  5
1C453
  8
0
 10
3570.7519939161547882
 20
141.5469365276427141
 30
0.0
 11
3570.7519939161547882
 21
141.8806365276427073
 31
0.0
  0
LINE
  5
1C454
  8
0
 10
3571.4277455702790576
 20
141.4869285723162022
 30
0.0
 11
3571.4277455702790576
 21
136.1013213607006094
 31
0.0
  0
LINE
  5
1C455
  8
0
 10
3572.2402439161551229
 20
141.4869330979537949
 30
0.0
 11
3572.2402439161551229
 21
136.1342753680746114
 31
0.0
  0
ARC
  5
1C457
  8
0
 10
3571.8828320269221877
 20
136.4742336366510074
 30
0.0
 40
0.6615744106768326
 50
240.9898099049017048
 51
265.7661243139294243
  0
ARC
  5
1C458
  8
0
 10
3571.690262308254205
 20
136.1260396419538949
 30
0.0
 40
0.2636778927874573
 50
185.3790469813935999
 51
240.8913115986912032
  0
ARC
  5
1C459
  8
0
 10
3571.8828320269221877
 20
136.5389332713178021
 30
0.0
 40
0.6615744106768326
 50
240.9898099049017048
 51
265.7661243139294243
  0
ARC
  5
1C45A
  8
0
 10
3571.6891023783541641
 20
136.1894519419394101
 30
0.0
 40
0.2619891679197168
 50
183.9816721503075883
 51
240.9759864845831885
  0
ARC
  5
1C45B
  8
0
 10
3571.8828320269221877
 20
136.5893251671629116
 30
0.0
 40
0.6615744106768326
 50
240.9898099049017048
 51
265.7661243139294243
  0
ARC
  5
1C45C
  8
0
 10
3571.6891023783541641
 20
136.2398438377844911
 30
0.0
 40
0.2619891679197168
 50
183.9816721503075883
 51
240.9759864845831885
  0
ARC
  5
1C45D
  8
0
 10
3571.8828320269221877
 20
136.6397122996962139
 30
0.0
 40
0.6615744106768326
 50
240.9898099049017048
 51
265.7661243139294243
  0
ARC
  5
1C45E
  8
0
 10
3571.6891023783541641
 20
136.2902309703177934
 30
0.0
 40
0.2619891679197168
 50
183.9816721503075883
 51
240.9759864845831885
  0
ARC
  5
1C45F
  8
0
 10
3571.8814596330548738
 20
136.6900733090160998
 30
0.0
 40
0.6615744106768326
 50
240.9898099049017048
 51
265.8852969071476764
  0
ARC
  5
1C460
  8
0
 10
3571.6877299844882145
 20
136.3405919796377077
 30
0.0
 40
0.2619891679197168
 50
187.0925727919068891
 51
240.9759864845831885
  0
ARC
  5
1C461
  8
0
 10
3571.8830235890200129
 20
136.7404888833897019
 30
0.0
 40
0.6615744106768326
 50
240.9898099049017048
 51
265.7494884636952861
  0
ARC
  5
1C462
  8
0
 10
3571.6892939404519893
 20
136.3910075540113951
 30
0.0
 40
0.2619891679197168
 50
183.3241189481107938
 51
240.9759864845831885
  0
ARC
  5
1C463
  8
0
 10
3571.8828320269221877
 20
136.7908730638671955
 30
0.0
 40
0.6615744106768326
 50
240.9898099049017048
 51
265.7661243139294243
  0
ARC
  5
1C464
  8
0
 10
3571.6891023783541641
 20
136.4413917344888034
 30
0.0
 40
0.2619891679197168
 50
183.9816721503075883
 51
240.9759864845831885
  0
ARC
  5
1C465
  8
0
 10
3571.8828320269221877
 20
136.8437887979509924
 30
0.0
 40
0.6615744106768326
 50
240.9898099049017048
 51
265.7661243139294243
  0
ARC
  5
1C466
  8
0
 10
3571.6891023783541641
 20
136.494307468572714
 30
0.0
 40
0.2619891679197168
 50
183.9816721503075883
 51
240.9759864845831885
  0
ARC
  5
1C467
  8
0
 10
3571.7851468090880189
 20
136.4742336366510074
 30
0.0
 40
0.6615744106768326
 50
274.2338756860705757
 51
299.0101900950983236
  0
ARC
  5
1C468
  8
0
 10
3571.9478164297361218
 20
136.1417367474973901
 30
0.0
 40
0.2925226606537277
 50
302.7322162221125836
 51
358.5383972670827006
  0
ARC
  5
1C469
  8
0
 10
3571.7851468090880189
 20
136.5389332713178021
 30
0.0
 40
0.6615744106768326
 50
274.2338756860705757
 51
299.0101900950983236
  0
ARC
  5
1C46A
  8
0
 10
3571.9788764576560425
 20
136.1894519419394101
 30
0.0
 40
0.2619891679197168
 50
299.0240135154166978
 51
356.0520139725089734
  0
ARC
  5
1C46B
  8
0
 10
3571.7851468090880189
 20
136.5893251671629116
 30
0.0
 40
0.6615744106768326
 50
274.2338756860705757
 51
299.0101900950983236
  0
ARC
  5
1C46C
  8
0
 10
3571.9788764576560425
 20
136.2398438377844911
 30
0.0
 40
0.2619891679197168
 50
299.0240135154166978
 51
356.0520139725089734
  0
ARC
  5
1C46D
  8
0
 10
3571.7851468090880189
 20
136.6397122996962139
 30
0.0
 40
0.6615744106768326
 50
274.2338756860705757
 51
299.0101900950983236
  0
ARC
  5
1C46E
  8
0
 10
3571.9788764576560425
 20
136.2902309703177934
 30
0.0
 40
0.2619891679197168
 50
299.0240135154166978
 51
356.0520139725089734
  0
ARC
  5
1C46F
  8
0
 10
3571.7865192029539685
 20
136.6900733090160998
 30
0.0
 40
0.6615744106768326
 50
274.1147030928523236
 51
299.0101900950983236
  0
ARC
  5
1C470
  8
0
 10
3571.9802488515229015
 20
136.3405919796377077
 30
0.0
 40
0.2619891679197168
 50
299.0240135154166978
 51
352.9263162748644049
  0
ARC
  5
1C471
  8
0
 10
3571.7849552469901937
 20
136.7404888833897019
 30
0.0
 40
0.6615744106768326
 50
274.2505115363047139
 51
299.0101900950983236
  0
ARC
  5
1C472
  8
0
 10
3571.9786848955582172
 20
136.3910075540113951
 30
0.0
 40
0.2619891679197168
 50
299.0240135154166978
 51
356.7162959177098855
  0
ARC
  5
1C473
  8
0
 10
3571.7851468090880189
 20
136.7908730638671955
 30
0.0
 40
0.6615744106768326
 50
274.2338756860705757
 51
299.0101900950983236
  0
ARC
  5
1C474
  8
0
 10
3571.9788764576560425
 20
136.4413917344888034
 30
0.0
 40
0.2619891679197168
 50
299.0240135154166978
 51
356.0520139725089734
  0
ARC
  5
1C475
  8
0
 10
3571.7851468090880189
 20
136.8437887979509924
 30
0.0
 40
0.6615744106768326
 50
274.2338756860705757
 51
299.0101900950983236
  0
ARC
  5
1C476
  8
0
 10
3571.9788764576560425
 20
136.494307468572714
 30
0.0
 40
0.2619891679197168
 50
299.0240135154166978
 51
356.0520139725089734
  0
CIRCLE
  5
1C477
  8
0
 10
3571.8339894180048759
 20
141.7137865276426112
 30
0.0
 40
0.0989977513499998
  0
CIRCLE
  5
1C478
  8
0
 10
3571.8345435899550466
 20
141.7137865276426112
 30
0.0
 40
0.0672643591793191
  0
ENDSEC
  0
EOF
