  0
SECTION
  2
HEADER
  9
$ACADVER
  1
AC1009
  9
$INSBASE
 10
3571.8339672185397831
 20
134.0131251235121965
 30
0.0
  9
$EXTMIN
 10
3570.7519717166901501
 20
131.8747540975687116
 30
0.0
  9
$EXTMAX
 10
3572.9159717166890005
 20
135.0951253545121915
 30
0.0
  9
$LIMMIN
 10
0.0
 20
0.0
  9
$LIMMAX
 10
11.6929133858000007
 20
8.2677165353999982
  9
$ORTHOMODE
 70
     1
  9
$REGENMODE
 70
     1
  9
$FILLMODE
 70
     1
  9
$QTEXTMODE
 70
     0
  9
$MIRRTEXT
 70
     0
  9
$DRAGMODE
 70
     2
  9
$LTSCALE
 40
0.6431102362
  9
$OSMODE
 70
  2039
  9
$ATTMODE
 70
     1
  9
$TEXTSIZE
 40
0.2
  9
$TRACEWID
 40
0.05
  9
$TEXTSTYLE
  7
STANDARD
  9
$CLAYER
  8
0
  9
$CELTYPE
  6
BYLAYER
  9
$CECOLOR
 62
   256
  9
$DIMSCALE
 40
1.0
  9
$DIMASZ
 40
0.1875
  9
$DIMEXO
 40
0.0625
  9
$DIMDLI
 40
0.4443307087
  9
$DIMRND
 40
0.0
  9
$DIMDLE
 40
0.0
  9
$DIMEXE
 40
0.125
  9
$DIMTP
 40
0.01
  9
$DIMTM
 40
0.01
  9
$DIMTXT
 40
2.0
  9
$DIMCEN
 40
0.1052362205
  9
$DIMTSZ
 40
0.0
  9
$DIMTOL
 70
     1
  9
$DIMLIM
 70
     0
  9
$DIMTIH
 70
     1
  9
$DIMTOH
 70
     1
  9
$DIMSE1
 70
     0
  9
$DIMSE2
 70
     0
  9
$DIMTAD
 70
     0
  9
$DIMZIN
 70
     0
  9
$DIMBLK
  1

  9
$DIMASO
 70
     1
  9
$DIMSHO
 70
     1
  9
$DIMPOST
  1
\X
  9
$DIMAPOST
  1

  9
$DIMALT
 70
     1
  9
$DIMALTD
 70
     2
  9
$DIMALTF
 40
25.3999999999999986
  9
$DIMLFAC
 40
1.0
  9
$DIMTOFL
 70
     0
  9
$DIMTVP
 40
0.0
  9
$DIMTIX
 70
     0
  9
$DIMSOXD
 70
     0
  9
$DIMSAH
 70
     0
  9
$DIMBLK1
  1

  9
$DIMBLK2
  1

  9
$DIMSTYLE
  2
STANDARD
  9
$DIMCLRD
 70
     0
  9
$DIMCLRE
 70
     0
  9
$DIMCLRT
 70
     0
  9
$DIMTFAC
 40
1.0
  9
$DIMGAP
 40
0.09
  9
$LUNITS
 70
     2
  9
$LUPREC
 70
     4
  9
$SKETCHINC
 40
0.1
  9
$FILLETRAD
 40
0.0
  9
$AUNITS
 70
     0
  9
$AUPREC
 70
     0
  9
$MENU
  1
.
  9
$ELEVATION
 40
0.0
  9
$PELEVATION
 40
0.0
  9
$THICKNESS
 40
0.0
  9
$LIMCHECK
 70
     0
  9
$BLIPMODE
 70
     0
  9
$CHAMFERA
 40
0.0
  9
$CHAMFERB
 40
0.0
  9
$SKPOLY
 70
     0
  9
$TDCREATE
 40
2458060.468368056230247
  9
$TDUPDATE
 40
2459270.4212962961755693
  9
$TDINDWG
 40
0.3733288194
  9
$TDUSRTIMER
 40
0.3733288194
  9
$USRTIMER
 70
     1
  9
$ANGBASE
 50
0.0
  9
$ANGDIR
 70
     0
  9
$PDMODE
 70
     0
  9
$PDSIZE
 40
0.3125
  9
$PLINEWID
 40
0.0
  9
$COORDS
 70
     1
  9
$SPLFRAME
 70
     0
  9
$SPLINETYPE
 70
     6
  9
$SPLINESEGS
 70
     8
  9
$ATTDIA
 70
     1
  9
$ATTREQ
 70
     1
  9
$HANDLING
 70
     1
  9
$HANDSEED
  5
1C720
  9
$SURFTAB1
 70
     6
  9
$SURFTAB2
 70
     6
  9
$SURFTYPE
 70
     6
  9
$SURFU
 70
     6
  9
$SURFV
 70
     6
  9
$UCSNAME
  2

  9
$UCSORG
 10
0.0
 20
0.0
 30
0.0
  9
$UCSXDIR
 10
1.0
 20
0.0
 30
0.0
  9
$UCSYDIR
 10
0.0
 20
1.0
 30
0.0
  9
$PUCSNAME
  2

  9
$PUCSORG
 10
0.0
 20
0.0
 30
0.0
  9
$PUCSXDIR
 10
1.0
 20
0.0
 30
0.0
  9
$PUCSYDIR
 10
0.0
 20
1.0
 30
0.0
  9
$USERI1
 70
     0
  9
$USERI2
 70
     0
  9
$USERI3
 70
     0
  9
$USERI4
 70
     0
  9
$USERI5
 70
     0
  9
$USERR1
 40
0.0
  9
$USERR2
 40
0.0
  9
$USERR3
 40
0.0
  9
$USERR4
 40
0.0
  9
$USERR5
 40
0.0
  9
$WORLDVIEW
 70
     1
  9
$SHADEDGE
 70
     3
  9
$SHADEDIF
 70
    70
  9
$TILEMODE
 70
     1
  9
$MAXACTVP
 70
    64
  9
$PLIMCHECK
 70
     0
  9
$PEXTMIN
 10
1.0000000000000000E+20
 20
1.0000000000000000E+20
 30
1.0000000000000000E+20
  9
$PEXTMAX
 10
-1.0000000000000000E+20
 20
-1.0000000000000000E+20
 30
-1.0000000000000000E+20
  9
$PLIMMIN
 10
0.0
 20
0.0
  9
$PLIMMAX
 10
12.0
 20
9.0
  9
$UNITMODE
 70
     0
  9
$VISRETAIN
 70
     1
  9
$PLINEGEN
 70
     0
  9
$PSLTSCALE
 70
     1
  0
ENDSEC
  0
SECTION
  2
TABLES
  0
TABLE
  2
VPORT
 70
     1
  0
VPORT
  2
*ACTIVE
 70
     0
 10
0.0
 20
0.0
 11
1.0
 21
1.0
 12
-231.7100956661228963
 22
7.4896775292905451
 13
0.0
 23
0.0
 14
1.0
 24
1.0
 15
0.0
 25
0.0
 16
0.0
 26
0.0
 36
17.1152628219792007
 17
3803.5440673828129547
 27
125.9952621967499056
 37
0.0
 40
3.2471704629652862
 41
2.6486111111111099
 42
50.0
 43
0.0
 44
0.0
 50
0.0
 51
0.0
 71
     0
 72
   100
 73
     1
 74
     1
 75
     0
 76
     0
 77
     0
 78
     1
  0
ENDTAB
  0
TABLE
  2
LTYPE
 70
     2
  0
LTYPE
  2
CONTINUOUS
 70
     0
  3
Solid line
 72
    65
 73
     0
 40
0.0
  0
LTYPE
  2
PHANTOM2
 70
     0
  3
___ _ _ ___ _ _ ___ _ _ ___ _ _
 72
    65
 73
     6
 40
1.25
 49
0.625
 49
-0.125
 49
0.125
 49
-0.125
 49
0.125
 49
-0.125
  0
ENDTAB
  0
TABLE
  2
LAYER
 70
     2
  0
LAYER
  2
0
 70
     0
 62
   255
  6
CONTINUOUS
  0
LAYER
  2
DEFPOINTS
 70
     0
 62
     7
  6
CONTINUOUS
  0
ENDTAB
  0
TABLE
  2
STYLE
 70
     1
  0
STYLE
  2
STANDARD
 70
     0
 40
0.0
 41
0.8
 50
0.0
 71
     0
 42
0.2
  3
txt
  4

  0
ENDTAB
  0
TABLE
  2
VIEW
 70
     0
  0
ENDTAB
  0
TABLE
  2
UCS
 70
     0
  0
ENDTAB
  0
TABLE
  2
APPID
 70
     9
  0
APPID
  2
ACAD
 70
     0
  0
APPID
  2
ACAD_MLEADERVER
 70
     0
  0
APPID
  2
ACAD_EXEMPT_FROM_CAD_STANDARDS
 70
     0
  0
APPID
  2
ACAD_NAV_VCDISPLAY
 70
     0
  0
APPID
  2
ACAECLAYERSTANDARD
 70
     0
  0
APPID
  2
ACCMTRANSPARENCY
 70
     0
  0
APPID
  2
ACAD_DSTYLE_DIMJAG
 70
     0
  0
APPID
  2
ACAD_DSTYLE_DIMTALN
 70
     0
  0
APPID
  2
ACDBATTR
 70
     0
  0
ENDTAB
  0
TABLE
  2
DIMSTYLE
 70
     1
  0
DIMSTYLE
  2
STANDARD
 70
     0
  3

  4

  5

  6

  7

 40
1.0
 41
0.1875
 42
0.0625
 43
0.38
 44
0.125
 45
0.0
 46
0.0
 47
0.01
 48
0.01
140
0.15625
141
0.09
142
0.0
143
25.3999999999999986
144
1.0
145
0.0
146
1.0
147
0.09
 71
     1
 72
     0
 73
     1
 74
     1
 75
     0
 76
     0
 77
     0
 78
     4
170
     0
171
     2
172
     0
173
     0
174
     0
175
     0
176
     0
177
     0
178
     0
  0
ENDTAB
  0
ENDSEC
  0
SECTION
  2
BLOCKS
  0
BLOCK
  8
0
  2
$MODEL_SPACE
 70
     0
 10
0.0
 20
0.0
 30
0.0
  3
$MODEL_SPACE
  1

  0
ENDBLK
  5
21
  8
0
  0
BLOCK
 67
     1
  8
0
  2
$PAPER_SPACE
 70
     0
 10
0.0
 20
0.0
 30
0.0
  3
$PAPER_SPACE
  1

  0
ENDBLK
  5
1D
 67
     1
  8
0
  0
BLOCK
  8
0
  2
_FILLED
 70
     0
 10
0.0
 20
0.0
 30
0.0
  3
_FILLED
  1

  0
SOLID
  5
1BA72
  8
0
  6
BYBLOCK
 62
     0
 10
0.0
 20
0.0
 30
0.0
 11
-1.0
 21
0.1666666667
 31
0.0
 12
-1.0
 22
-0.1666666667
 32
0.0
 13
-1.0
 23
-0.1666666667
 33
0.0
  0
ENDBLK
  5
1BA73
  8
0
  6
BYBLOCK
 62
     0
  0
ENDSEC
  0
SECTION
  2
ENTITIES
  0
ATTDEF
  5
1BD74
  8
DEFPOINTS
 10
3571.8342108314500365
 20
134.0169053902116048
 30
0.0
 40
0.001
  1
K-26318
  3

  2
MODELNUMBER
 70
     0
1001
ACDBATTR
1070
     0
1070
     1
  0
ATTDEF
  5
1BD75
  8
DEFPOINTS
 10
3571.8342108314500365
 20
134.0152387235449112
 30
0.0
 40
0.001
  1

  3

  2
TRADENAME
 70
     0
1001
ACDBATTR
1070
     0
1070
     1
  0
ATTDEF
  5
1BD76
  8
DEFPOINTS
 10
3571.8342108314500365
 20
134.0135720568783029
 30
0.0
 40
0.001
  1
SHOWER ARM
  3

  2
PRODUCT
 70
     0
1001
ACDBATTR
1070
     0
1070
     1
  0
ARC
  5
1C54B
  8
0
 10
3571.83397171669003
 20
134.0131253545121979
 30
0.0
 40
1.0820000000000001
 50
292.0528767584801244
 51
247.947182128227098
  0
LINE
  5
1C54C
  8
0
 10
3571.42772171669003
 20
134.0131253545121979
 30
0.0
 11
3571.4277236116899985
 21
132.1693218662121865
 31
0.0
  0
LINE
  5
1C54D
  8
0
 10
3572.24022171669003
 20
134.0131253545121979
 30
0.0
 11
3572.24022171669003
 21
132.1922508170576123
 31
0.0
  0
ARC
  5
1C54E
  8
0
 10
3571.83397171669003
 20
134.0131253545121979
 30
0.0
 40
0.40625
 50
0.0
 51
180.0
  0
ARC
  5
1C54F
  8
0
 10
3571.83397171669003
 20
134.0131253545121979
 30
0.0
 40
0.4195000000000002
 50
345.5612574901114158
 51
194.4387425098886126
  0
LINE
  5
1C550
  8
0
 10
3571.7746371313351119
 20
134.4284079775302132
 30
0.0
 11
3571.7921957039898189
 21
134.4178462042121964
 31
0.0
  0
LINE
  5
1C551
  8
0
 10
3571.7921957039898189
 20
134.4178462042121964
 30
0.0
 11
3571.7986878328920284
 21
134.4178402048007968
 31
0.0
  0
LINE
  5
1C552
  8
0
 10
3571.8700035388637843
 20
134.4177743014907946
 30
0.0
 11
3571.8764956679901843
 21
134.4177683021121936
 31
0.0
  0
LINE
  5
1C553
  8
0
 10
3571.8764956679901843
 20
134.4177683021121936
 30
0.0
 11
3571.8940595357671555
 21
134.4282996600738898
 31
0.0
  0
ARC
  5
1C556
  8
0
 10
3571.8615214201399795
 20
131.7815154011290133
 30
0.0
 40
0.5980372482951851
 50
92.6403715988413268
 51
111.2489462614420006
  0
ARC
  5
1C557
  8
0
 10
3571.74716129249191
 20
132.0908651193836079
 30
0.0
 40
0.2683292941240037
 50
112.4297324245242038
 51
156.755256605788901
  0
ARC
  5
1C558
  8
0
 10
3571.6652667254520566
 20
132.1351791160836058
 30
0.0
 40
0.1757940116843127
 50
159.4929139449313027
 51
205.1736781825023002
  0
ARC
  5
1C559
  8
0
 10
3571.7739563139471102
 20
132.20780194908059
 30
0.0
 40
0.3056738035367272
 50
208.8298908495748947
 51
254.6752807880531009
  0
ARC
  5
1C55A
  8
0
 10
3571.8599102992170629
 20
132.5399302579494076
 30
0.0
 40
0.6487278505584766
 50
255.1063009523296898
 51
267.708488113322403
  0
ARC
  5
1C55B
  8
0
 10
3571.8342260756621727
 20
132.3599914380212113
 30
0.0
 40
0.4852374071193496
 50
253.760911204250192
 51
269.9699658443727799
  0
ARC
  5
1C55C
  8
0
 10
3571.8007722615730017
 20
132.2734848816677129
 30
0.0
 40
0.3929069511701054
 50
222.9874021206904047
 51
254.9170757558707976
  0
ARC
  5
1C55D
  8
0
 10
3571.7150325464049274
 20
132.2153255409328949
 30
0.0
 40
0.2909684883970901
 50
189.0967225250226136
 51
226.1232061372901967
  0
ARC
  5
1C55E
  8
0
 10
3571.8405329354768583
 20
131.9363670340719921
 30
0.0
 40
0.4883487832651611
 50
90.7698216283152277
 51
115.0137055590879953
  0
ARC
  5
1C55F
  8
0
 10
3571.7778875235549094
 20
132.0650147850764995
 30
0.0
 40
0.3452868117134752
 50
114.6199490293351033
 51
139.4220445821918872
  0
ARC
  5
1C560
  8
0
 10
3571.6929977987510938
 20
132.1274695632882867
 30
0.0
 40
0.2403116007742748
 50
137.5659589970867103
 51
191.3005206840014125
  0
ARC
  5
1C561
  8
0
 10
3571.84367936298122
 20
131.9670749707348136
 30
0.0
 40
0.508066898414704
 50
91.0948184412826549
 51
109.4290935311886983
  0
ARC
  5
1C562
  8
0
 10
3571.8066045686919097
 20
132.069324046778604
 30
0.0
 40
0.3993090837757062
 50
109.2925807636435991
 51
145.5312198636401888
  0
ARC
  5
1C563
  8
0
 10
3571.7475226180717982
 20
132.0850533327349865
 30
0.0
 40
0.3423103739958119
 50
142.1029003275421871
 51
159.1052378993549041
  0
ARC
  5
1C564
  8
0
 10
3571.84367936298122
 20
132.0174593860766095
 30
0.0
 40
0.508066898414704
 50
91.0948184412826549
 51
109.4290935311886983
  0
ARC
  5
1C565
  8
0
 10
3571.8066045686919097
 20
132.1197084621203999
 30
0.0
 40
0.3993090837757062
 50
109.2925807636435991
 51
145.5312198636401888
  0
ARC
  5
1C566
  8
0
 10
3571.7475226180717982
 20
132.1354377480768107
 30
0.0
 40
0.3423103739958119
 50
142.1029003275421871
 51
159.1052622016364069
  0
ARC
  5
1C567
  8
0
 10
3571.84367936298122
 20
132.0678487477337057
 30
0.0
 40
0.508066898414704
 50
91.0948184412826549
 51
109.4290935311886983
  0
ARC
  5
1C568
  8
0
 10
3571.8066045686919097
 20
132.1700978237774962
 30
0.0
 40
0.3993090837757062
 50
109.2925807636435991
 51
145.5312198636401888
  0
ARC
  5
1C569
  8
0
 10
3571.7475226180717982
 20
132.185827109733907
 30
0.0
 40
0.3423103739958119
 50
142.1029003275421871
 51
159.1052865063253137
  0
ARC
  5
1C56A
  8
0
 10
3571.84367936298122
 20
132.1182367360397905
 30
0.0
 40
0.508066898414704
 50
91.0948184412826549
 51
109.4290935311886983
  0
ARC
  5
1C56B
  8
0
 10
3571.8066045686919097
 20
132.2204858120836093
 30
0.0
 40
0.3993090837757062
 50
109.2925807636435991
 51
145.5312198636401888
  0
ARC
  5
1C56C
  8
0
 10
3571.7475226180717982
 20
132.2362150980399065
 30
0.0
 40
0.3423103739958119
 50
142.1029003275421871
 51
159.105310810387607
  0
ARC
  5
1C56D
  8
0
 10
3571.84367936298122
 20
132.1636264039840114
 30
0.0
 40
0.508066898414704
 50
91.0948184412826549
 51
109.4290935311886983
  0
ARC
  5
1C56E
  8
0
 10
3571.8066045686919097
 20
132.2658754800276881
 30
0.0
 40
0.3993090837757062
 50
109.2925807636435991
 51
145.5312198636401888
  0
ARC
  5
1C56F
  8
0
 10
3571.7475226180717982
 20
132.281604765984099
 30
0.0
 40
0.3423103739958119
 50
142.1029003275421871
 51
159.105332703592012
  0
ARC
  5
1C570
  8
0
 10
3571.84367936298122
 20
132.2149385929839127
 30
0.0
 40
0.508066898414704
 50
91.0948184412826549
 51
109.4290935311886983
  0
ARC
  5
1C571
  8
0
 10
3571.8066045686919097
 20
132.3171876690277884
 30
0.0
 40
0.3993090837757062
 50
109.2925807636435991
 51
145.5312198636401888
  0
ARC
  5
1C572
  8
0
 10
3571.7475226180717982
 20
132.332916954984114
 30
0.0
 40
0.3423103739958119
 50
142.1029003275421871
 51
159.1053574534757047
  0
ARC
  5
1C573
  8
0
 10
3571.84367936298122
 20
132.2715790411677119
 30
0.0
 40
0.508066898414704
 50
91.0948184412826549
 51
109.4290935311886983
  0
ARC
  5
1C574
  8
0
 10
3571.8066045686919097
 20
132.3738281172115023
 30
0.0
 40
0.3993090837757062
 50
109.2925807636435991
 51
145.5312198636401888
  0
ARC
  5
1C575
  8
0
 10
3571.7475226180717982
 20
132.3895574031679132
 30
0.0
 40
0.3423103739958119
 50
142.1029003275421871
 51
159.1053847734262092
  0
ARC
  5
1C576
  8
0
 10
3571.9207821409017924
 20
132.0908651193836079
 30
0.0
 40
0.2683292941240037
 50
23.2447433942111417
 51
67.5702675754757536
  0
ARC
  5
1C577
  8
0
 10
3572.0026767079421006
 20
132.1351791160836058
 30
0.0
 40
0.1757940116843127
 50
334.8263218174977283
 51
20.5070860550686689
  0
ARC
  5
1C578
  8
0
 10
3571.8939871194479565
 20
132.20780194908059
 30
0.0
 40
0.3056738035367272
 50
285.3247192119470128
 51
331.1701091504251053
  0
ARC
  5
1C579
  8
0
 10
3571.8080331341780038
 20
132.5399302579494076
 30
0.0
 40
0.6487278505584766
 50
272.2915118866774833
 51
284.8936990476702817
  0
ARC
  5
1C57A
  8
0
 10
3571.833717357732894
 20
132.3599914380212113
 30
0.0
 40
0.4852374071193496
 50
270.0300341556272201
 51
286.239088795749808
  0
ARC
  5
1C57B
  8
0
 10
3571.8671711718220649
 20
132.2734848816677129
 30
0.0
 40
0.3929069511701054
 50
285.082924244129174
 51
317.0125978793096237
  0
ARC
  5
1C57C
  8
0
 10
3571.9668447247317999
 20
132.2046935634022873
 30
0.0
 40
0.2736600110882486
 50
313.3167608123735022
 51
357.3939827154977138
  0
ARC
  5
1C57D
  8
0
 10
3571.8274104979168442
 20
131.9363670340719921
 30
0.0
 40
0.4883487832651611
 50
64.9862944409119478
 51
89.2301783716847865
  0
ARC
  5
1C57E
  8
0
 10
3571.8900559098401573
 20
132.0650147850764995
 30
0.0
 40
0.3452868117134752
 50
40.5779554178068267
 51
65.3800509706648398
  0
ARC
  5
1C57F
  8
0
 10
3571.8242640704138466
 20
131.9670749707348136
 30
0.0
 40
0.508066898414704
 50
70.5709064688113159
 51
88.9051815587173166
  0
ARC
  5
1C580
  8
0
 10
3571.861338864703157
 20
132.069324046778604
 30
0.0
 40
0.3993090837757062
 50
34.4687801363598112
 51
70.7074192363563725
  0
ARC
  5
1C581
  8
0
 10
3571.9204208153228137
 20
132.0850533327349865
 30
0.0
 40
0.3423103739958119
 50
20.7631822343457593
 51
37.8970996724577915
  0
ARC
  5
1C582
  8
0
 10
3571.8242640704138466
 20
132.0174593860766095
 30
0.0
 40
0.508066898414704
 50
70.5709064688113159
 51
88.9051815587173166
  0
ARC
  5
1C583
  8
0
 10
3571.861338864703157
 20
132.1197084621203999
 30
0.0
 40
0.3993090837757062
 50
34.4687801363598112
 51
70.7074192363563725
  0
ARC
  5
1C584
  8
0
 10
3571.9204208153228137
 20
132.1354377480768107
 30
0.0
 40
0.3423103739958119
 50
20.893890993900289
 51
37.8970996724577915
  0
ARC
  5
1C585
  8
0
 10
3571.8242640704138466
 20
132.0678487477337057
 30
0.0
 40
0.508066898414704
 50
70.5709064688113159
 51
88.9051815587173166
  0
ARC
  5
1C586
  8
0
 10
3571.861338864703157
 20
132.1700978237774962
 30
0.0
 40
0.3993090837757062
 50
34.4687801363598112
 51
70.7074192363563725
  0
ARC
  5
1C587
  8
0
 10
3571.9204208153228137
 20
132.185827109733907
 30
0.0
 40
0.3423103739958119
 50
20.893890993900289
 51
37.8970996724577915
  0
ARC
  5
1C588
  8
0
 10
3571.8242640704138466
 20
132.1182367360397905
 30
0.0
 40
0.508066898414704
 50
70.5709064688113159
 51
88.9051815587173166
  0
ARC
  5
1C589
  8
0
 10
3571.861338864703157
 20
132.2204858120836093
 30
0.0
 40
0.3993090837757062
 50
34.4687801363598112
 51
70.7074192363563725
  0
ARC
  5
1C58A
  8
0
 10
3571.9204208153228137
 20
132.2362150980399065
 30
0.0
 40
0.3423103739958119
 50
20.893890993900289
 51
37.8970996724577915
  0
ARC
  5
1C58B
  8
0
 10
3571.8242640704138466
 20
132.1636264039840114
 30
0.0
 40
0.508066898414704
 50
70.5709064688113159
 51
88.9051815587173166
  0
ARC
  5
1C58C
  8
0
 10
3571.861338864703157
 20
132.2658754800276881
 30
0.0
 40
0.3993090837757062
 50
34.4687801363598112
 51
70.7074192363563725
  0
ARC
  5
1C58D
  8
0
 10
3571.9204208153228137
 20
132.281604765984099
 30
0.0
 40
0.3423103739958119
 50
20.893890993900289
 51
37.8970996724577915
  0
ARC
  5
1C58E
  8
0
 10
3571.8242640704138466
 20
132.2149385929839127
 30
0.0
 40
0.508066898414704
 50
70.5709064688113159
 51
88.9051815587173166
  0
ARC
  5
1C58F
  8
0
 10
3571.861338864703157
 20
132.3171876690277884
 30
0.0
 40
0.3993090837757062
 50
34.4687801363598112
 51
70.7074192363563725
  0
ARC
  5
1C590
  8
0
 10
3571.9204208153228137
 20
132.332916954984114
 30
0.0
 40
0.3423103739958119
 50
20.893890993900289
 51
37.8970996724577915
  0
ARC
  5
1C591
  8
0
 10
3571.8242640704138466
 20
132.2715790411677119
 30
0.0
 40
0.508066898414704
 50
70.5709064688113159
 51
88.9051815587173166
  0
ARC
  5
1C592
  8
0
 10
3571.861338864703157
 20
132.3738281172115023
 30
0.0
 40
0.3993090837757062
 50
34.4687801363598112
 51
70.7074192363563725
  0
ARC
  5
1C593
  8
0
 10
3571.9204208153228137
 20
132.3895574031679132
 30
0.0
 40
0.3423103739958119
 50
20.893890993900289
 51
37.8970996724577915
  0
ARC
  5
1C594
  8
0
 10
3571.8064220132550872
 20
131.7815154011290133
 30
0.0
 40
0.5980372482951851
 50
68.7510537385579568
 51
87.3596284011586874
  0
ARC
  5
1C595
  8
0
 10
3571.9749456346489751
 20
132.1274695632882867
 30
0.0
 40
0.2403116007742748
 50
348.6994793195825082
 51
42.4340410029132826
  0
ENDSEC
  0
EOF
