  0
SECTION
  2
HEADER
  9
$ACADVER
  1
AC1009
  9
$INSBASE
 10
4832.9967055571742094
 20
248.3962725672988938
 30
0.0
  9
$EXTMIN
 10
4829.4140283918741261
 20
232.2939268831989068
 30
0.0
  9
$EXTMAX
 10
4833.1935642878743238
 20
264.2230607414988981
 30
0.0
  9
$LIMMIN
 10
0.0
 20
0.0
  9
$LIMMAX
 10
11.6929133858000007
 20
8.2677165353999982
  9
$ORTHOMODE
 70
     1
  9
$REGENMODE
 70
     1
  9
$FILLMODE
 70
     1
  9
$QTEXTMODE
 70
     0
  9
$MIRRTEXT
 70
     0
  9
$DRAGMODE
 70
     2
  9
$LTSCALE
 40
0.6431102362
  9
$OSMODE
 70
  4095
  9
$ATTMODE
 70
     1
  9
$TEXTSIZE
 40
0.2
  9
$TRACEWID
 40
0.05
  9
$TEXTSTYLE
  7
STANDARD
  9
$CLAYER
  8
0
  9
$CELTYPE
  6
BYLAYER
  9
$CECOLOR
 62
   256
  9
$DIMSCALE
 40
1.0
  9
$DIMASZ
 40
0.1875
  9
$DIMEXO
 40
0.0625
  9
$DIMDLI
 40
0.4443307087
  9
$DIMRND
 40
0.0
  9
$DIMDLE
 40
0.0
  9
$DIMEXE
 40
0.125
  9
$DIMTP
 40
0.01
  9
$DIMTM
 40
0.01
  9
$DIMTXT
 40
2.0
  9
$DIMCEN
 40
0.1052362205
  9
$DIMTSZ
 40
0.0
  9
$DIMTOL
 70
     1
  9
$DIMLIM
 70
     0
  9
$DIMTIH
 70
     1
  9
$DIMTOH
 70
     1
  9
$DIMSE1
 70
     0
  9
$DIMSE2
 70
     0
  9
$DIMTAD
 70
     0
  9
$DIMZIN
 70
     0
  9
$DIMBLK
  1

  9
$DIMASO
 70
     1
  9
$DIMSHO
 70
     1
  9
$DIMPOST
  1
\X
  9
$DIMAPOST
  1

  9
$DIMALT
 70
     1
  9
$DIMALTD
 70
     2
  9
$DIMALTF
 40
25.3999999999999986
  9
$DIMLFAC
 40
1.0
  9
$DIMTOFL
 70
     0
  9
$DIMTVP
 40
0.0
  9
$DIMTIX
 70
     0
  9
$DIMSOXD
 70
     0
  9
$DIMSAH
 70
     0
  9
$DIMBLK1
  1

  9
$DIMBLK2
  1

  9
$DIMSTYLE
  2
STANDARD
  9
$DIMCLRD
 70
     0
  9
$DIMCLRE
 70
     0
  9
$DIMCLRT
 70
     0
  9
$DIMTFAC
 40
1.0
  9
$DIMGAP
 40
0.09
  9
$LUNITS
 70
     2
  9
$LUPREC
 70
     4
  9
$SKETCHINC
 40
0.1
  9
$FILLETRAD
 40
0.0
  9
$AUNITS
 70
     0
  9
$AUPREC
 70
     0
  9
$MENU
  1
.
  9
$ELEVATION
 40
0.0
  9
$PELEVATION
 40
0.0
  9
$THICKNESS
 40
0.0
  9
$LIMCHECK
 70
     0
  9
$BLIPMODE
 70
     0
  9
$CHAMFERA
 40
0.0
  9
$CHAMFERB
 40
0.0
  9
$SKPOLY
 70
     0
  9
$TDCREATE
 40
2458060.468368056230247
  9
$TDUPDATE
 40
2459245.7677314821630716
  9
$TDINDWG
 40
0.3578774306
  9
$TDUSRTIMER
 40
0.3578774306
  9
$USRTIMER
 70
     1
  9
$ANGBASE
 50
0.0
  9
$ANGDIR
 70
     0
  9
$PDMODE
 70
     0
  9
$PDSIZE
 40
0.3125
  9
$PLINEWID
 40
0.0
  9
$COORDS
 70
     1
  9
$SPLFRAME
 70
     0
  9
$SPLINETYPE
 70
     6
  9
$SPLINESEGS
 70
     8
  9
$ATTDIA
 70
     1
  9
$ATTREQ
 70
     1
  9
$HANDLING
 70
     1
  9
$HANDSEED
  5
CE59
  9
$SURFTAB1
 70
     6
  9
$SURFTAB2
 70
     6
  9
$SURFTYPE
 70
     6
  9
$SURFU
 70
     6
  9
$SURFV
 70
     6
  9
$UCSNAME
  2

  9
$UCSORG
 10
0.0
 20
0.0
 30
0.0
  9
$UCSXDIR
 10
1.0
 20
0.0
 30
0.0
  9
$UCSYDIR
 10
0.0
 20
1.0
 30
0.0
  9
$PUCSNAME
  2

  9
$PUCSORG
 10
0.0
 20
0.0
 30
0.0
  9
$PUCSXDIR
 10
1.0
 20
0.0
 30
0.0
  9
$PUCSYDIR
 10
0.0
 20
1.0
 30
0.0
  9
$USERI1
 70
     0
  9
$USERI2
 70
     0
  9
$USERI3
 70
     0
  9
$USERI4
 70
     0
  9
$USERI5
 70
     0
  9
$USERR1
 40
0.0
  9
$USERR2
 40
0.0
  9
$USERR3
 40
0.0
  9
$USERR4
 40
0.0
  9
$USERR5
 40
0.0
  9
$WORLDVIEW
 70
     1
  9
$SHADEDGE
 70
     3
  9
$SHADEDIF
 70
    70
  9
$TILEMODE
 70
     1
  9
$MAXACTVP
 70
    64
  9
$PLIMCHECK
 70
     0
  9
$PEXTMIN
 10
1.0000000000000000E+20
 20
1.0000000000000000E+20
 30
1.0000000000000000E+20
  9
$PEXTMAX
 10
-1.0000000000000000E+20
 20
-1.0000000000000000E+20
 30
-1.0000000000000000E+20
  9
$PLIMMIN
 10
0.0
 20
0.0
  9
$PLIMMAX
 10
12.0
 20
9.0
  9
$UNITMODE
 70
     0
  9
$VISRETAIN
 70
     1
  9
$PLINEGEN
 70
     0
  9
$PSLTSCALE
 70
     1
  0
ENDSEC
  0
SECTION
  2
TABLES
  0
TABLE
  2
VPORT
 70
     1
  0
VPORT
  2
*ACTIVE
 70
     0
 10
0.0
 20
0.0
 11
1.0
 21
1.0
 12
0.0
 22
0.0
 13
0.0
 23
0.0
 14
1.0
 24
1.0
 15
0.0
 25
0.0
 16
0.0
 26
0.0
 36
91.1008418824728068
 17
4831.305419921875
 27
248.2584915161133097
 37
0.0
 40
32.1666762089118521
 41
2.1186252771618621
 42
50.0
 43
0.0
 44
0.0
 50
0.0
 51
0.0
 71
     0
 72
   100
 73
     1
 74
     1
 75
     0
 76
     0
 77
     0
 78
     0
  0
ENDTAB
  0
TABLE
  2
LTYPE
 70
     2
  0
LTYPE
  2
CONTINUOUS
 70
     0
  3
Solid line
 72
    65
 73
     0
 40
0.0
  0
LTYPE
  2
PHANTOM2
 70
     0
  3
___ _ _ ___ _ _ ___ _ _ ___ _ _
 72
    65
 73
     6
 40
1.25
 49
0.625
 49
-0.125
 49
0.125
 49
-0.125
 49
0.125
 49
-0.125
  0
ENDTAB
  0
TABLE
  2
LAYER
 70
     2
  0
LAYER
  2
0
 70
     0
 62
   255
  6
CONTINUOUS
  0
LAYER
  2
DEFPOINTS
 70
     0
 62
     7
  6
CONTINUOUS
  0
ENDTAB
  0
TABLE
  2
STYLE
 70
     1
  0
STYLE
  2
STANDARD
 70
     0
 40
0.0
 41
0.8
 50
0.0
 71
     0
 42
0.2
  3
txt
  4

  0
ENDTAB
  0
TABLE
  2
VIEW
 70
     0
  0
ENDTAB
  0
TABLE
  2
UCS
 70
     0
  0
ENDTAB
  0
TABLE
  2
APPID
 70
     9
  0
APPID
  2
ACAD
 70
     0
  0
APPID
  2
ACAD_MLEADERVER
 70
     0
  0
APPID
  2
ACAD_EXEMPT_FROM_CAD_STANDARDS
 70
     0
  0
APPID
  2
ACAD_NAV_VCDISPLAY
 70
     0
  0
APPID
  2
ACAECLAYERSTANDARD
 70
     0
  0
APPID
  2
ACCMTRANSPARENCY
 70
     0
  0
APPID
  2
ACAD_DSTYLE_DIMJAG
 70
     0
  0
APPID
  2
ACAD_DSTYLE_DIMTALN
 70
     0
  0
APPID
  2
ACDBATTR
 70
     0
  0
ENDTAB
  0
TABLE
  2
DIMSTYLE
 70
     1
  0
DIMSTYLE
  2
STANDARD
 70
     0
  3

  4

  5

  6

  7

 40
1.0
 41
0.1875
 42
0.0625
 43
0.38
 44
0.125
 45
0.0
 46
0.0
 47
0.01
 48
0.01
140
0.15625
141
0.09
142
0.0
143
25.3999999999999986
144
1.0
145
0.0
146
1.0
147
0.09
 71
     1
 72
     0
 73
     1
 74
     1
 75
     0
 76
     0
 77
     0
 78
     4
170
     0
171
     2
172
     0
173
     0
174
     0
175
     0
176
     0
177
     0
178
     0
  0
ENDTAB
  0
ENDSEC
  0
SECTION
  2
BLOCKS
  0
BLOCK
  8
0
  2
$MODEL_SPACE
 70
     0
 10
0.0
 20
0.0
 30
0.0
  3
$MODEL_SPACE
  1

  0
ENDBLK
  5
21
  8
0
  0
BLOCK
 67
     1
  8
0
  2
$PAPER_SPACE
 70
     0
 10
0.0
 20
0.0
 30
0.0
  3
$PAPER_SPACE
  1

  0
ENDBLK
  5
1D
 67
     1
  8
0
  0
ENDSEC
  0
SECTION
  2
ENTITIES
  0
ATTDEF
  5
3930
  8
DEFPOINTS
 10
4833.0083682944168686
 20
248.3973979879077945
 30
0.0
 40
0.001
  1
K-26314
  3

  2
MODELNUMBER
 70
     0
1001
ACDBATTR
1070
     0
1070
     1
  0
ATTDEF
  5
3931
  8
DEFPOINTS
 10
4833.0083682944168686
 20
248.3957313212411009
 30
0.0
 40
0.001
  1

  3

  2
TRADENAME
 70
     0
1001
ACDBATTR
1070
     0
1070
     1
  0
ATTDEF
  5
3932
  8
DEFPOINTS
 10
4833.0083682944168686
 20
248.3940646545744073
 30
0.0
 40
0.001
  1
SLIDEBAR
  3

  2
PRODUCT
 70
     0
1001
ACDBATTR
1070
     0
1070
     1
  0
LINE
  5
CD4E
  8
0
 10
4833.1935559508738152
 20
259.4317221587988911
 30
0.0
 11
4833.1935559508738152
 21
263.7624308202989027
 31
0.0
  0
LINE
  5
CD4F
  8
0
 10
4833.0085164533738862
 20
259.4317221587988911
 30
0.0
 11
4833.1935559508738152
 21
259.4317221587988911
 31
0.0
  0
LINE
  5
CD50
  8
0
 10
4833.1935559508738152
 20
263.7624308202989027
 30
0.0
 11
4833.0085164532738418
 21
263.7624308202989027
 31
0.0
  0
ARC
  5
CD51
  8
0
 10
4833.0091016505111838
 20
263.7500347864557853
 30
0.0
 40
0.0124098392755825
 50
92.7028368391942337
 51
177.2971791866636977
  0
ARC
  5
CD52
  8
0
 10
4833.0088789410956451
 20
259.4438955938389881
 30
0.0
 40
0.0121788307330479
 50
181.7229588234131086
 51
268.2944106254349208
  0
LINE
  5
CD53
  8
0
 10
4831.0961109120744368
 20
262.4927317503988888
 30
0.0
 11
4831.0961111281740159
 21
260.6998334633988748
 31
0.0
  0
LINE
  5
CD54
  8
0
 10
4831.3352875956670687
 20
259.9435176275989079
 30
0.0
 11
4832.9967056165050963
 21
259.9435176275989079
 31
0.0
  0
LINE
  5
CD55
  8
0
 10
4831.3352875956670687
 20
263.2506042054989166
 30
0.0
 11
4832.9967056165050963
 21
263.2506042054989166
 31
0.0
  0
ARC
  5
CD56
  8
0
 10
4830.5065480768753332
 20
245.2014625002489083
 30
0.0
 40
3.9790103488999988
 50
84.1949482559787157
 51
95.8050517440741061
  0
ARC
  5
CD57
  8
0
 10
4830.1817449272739395
 20
248.3962881402489131
 30
0.0
 40
0.7677165354000001
 50
95.8050517440741061
 51
264.1949482559259081
  0
ARC
  5
CD58
  8
0
 10
4830.8313512264739984
 20
248.3962881402489131
 30
0.0
 40
0.7677165354000001
 50
275.8050517440740919
 51
84.1949482559787157
  0
ARC
  5
CD59
  8
0
 10
4830.5065480768753332
 20
251.5911137802488895
 30
0.0
 40
3.9790103488000002
 50
264.1949482559259081
 51
275.8050517440740919
  0
ARC
  5
CD5A
  8
0
 10
4831.3358697627973015
 20
263.2374384794284197
 30
0.0
 40
0.0131785910297535
 50
92.5318774699148747
 51
135.8888530944076933
  0
ARC
  5
CD5B
  8
0
 10
4831.3358451911117299
 20
259.9566552023467807
 30
0.0
 40
0.0131494023794306
 50
226.8662581997475911
 51
267.5696653705342101
  0
LINE
  5
CD5C
  8
0
 10
4831.2841071319744515
 20
232.6482575918988971
 30
0.0
 11
4830.3785953209735453
 21
232.6482575918988971
 31
0.0
  0
LINE
  5
CD5D
  8
0
 10
4830.3392252422736419
 20
264.2112497178989088
 30
0.0
 11
4830.3392252422736419
 21
264.1561316075989225
 31
0.0
  0
LINE
  5
CD5E
  8
0
 10
4830.3392252422745514
 20
232.6876276705615965
 30
0.0
 11
4830.3392252422718229
 21
247.6156230652707109
 31
0.0
  0
LINE
  5
CD5F
  8
0
 10
4830.3392252422718229
 20
249.1769532153273019
 30
0.0
 11
4830.3392252422700039
 21
264.1325095603199884
 31
0.0
  0
LINE
  5
CD60
  8
0
 10
4831.3116661870726603
 20
264.1443205839988764
 30
0.0
 11
4830.351036265874427
 21
264.1443205839988764
 31
0.0
  0
LINE
  5
CD61
  8
0
 10
4830.351036265874427
 20
264.2230607414988981
 30
0.0
 11
4831.3116661870726603
 21
264.2230607414988981
 31
0.0
  0
ARC
  5
CD62
  8
0
 10
4830.3803181152015895
 20
232.6893504648265036
 30
0.0
 40
0.0411289706338111
 50
182.4006855701738914
 51
267.5993144297929121
  0
ARC
  5
CD63
  8
0
 10
4830.3517285048910708
 20
264.2105574788819808
 30
0.0
 40
0.0125224107472828
 50
93.1689267575392392
 51
176.8310732424419029
  0
ARC
  5
CD64
  8
0
 10
4830.3518251950226841
 20
264.1569205367487143
 30
0.0
 40
0.0126246274598018
 50
183.5828211928512133
 51
266.4171788072566187
  0
ARC
  5
CD65
  8
0
 10
4830.3515994535573554
 20
264.1319463727160155
 30
0.0
 40
0.0123870208379698
 50
92.6059054331035156
 51
177.3940945669062899
  0
LINE
  5
CD66
  8
0
 10
4831.3234772106734454
 20
264.2112497178989088
 30
0.0
 11
4831.3234772106734454
 21
264.1561316075989225
 31
0.0
  0
LINE
  5
CD67
  8
0
 10
4831.3234772106734454
 20
232.687627670597692
 30
0.0
 11
4831.3234772106743549
 21
233.5493565842913029
 31
0.0
  0
LINE
  5
CD68
  8
0
 10
4831.3234772106743549
 20
236.8420494470778124
 30
0.0
 11
4831.3234772106752644
 21
247.807050756505987
 31
0.0
  0
LINE
  5
CD69
  8
0
 10
4831.3234772106761739
 20
248.9855255239916971
 30
0.0
 11
4831.3234772106770833
 21
259.9509218120920764
 31
0.0
  0
LINE
  5
CD6A
  8
0
 10
4831.3234772106770833
 20
263.243632771126272
 30
0.0
 11
4831.3234772106770833
 21
264.1325095603214095
 31
0.0
  0
ARC
  5
CD6B
  8
0
 10
4831.2823843377473167
 20
232.6893504648265036
 30
0.0
 40
0.0411289706338111
 50
272.4006855702070879
 51
357.5993144298242896
  0
ARC
  5
CD6C
  8
0
 10
4831.310973948056926
 20
264.2105574788819808
 30
0.0
 40
0.0125224107472828
 50
3.1689267575581122
 51
86.831073242460775
  0
ARC
  5
CD6D
  8
0
 10
4831.3108772579253127
 20
264.1569205367487143
 30
0.0
 40
0.0126246274598018
 50
273.5828211927433813
 51
356.4171788071486731
  0
ARC
  5
CD6E
  8
0
 10
4831.3111029993897318
 20
264.1319463727160155
 30
0.0
 40
0.0123870208379698
 50
2.6059054330936671
 51
87.3940945668964844
  0
ARC
  5
CD6F
  8
0
 10
4836.4638395504871369
 20
262.4010987919654099
 30
0.0
 40
5.3685107185060739
 50
175.6845165957512052
 51
179.0219938042338015
  0
ARC
  5
CD70
  8
0
 10
4831.8731636803249785
 20
262.7057822001212912
 30
0.0
 40
0.7690503570275934
 50
135.3122281176596005
 51
172.5821899072375061
  0
ARC
  5
CD71
  8
0
 10
4833.0917909930512906
 20
260.6925151981329236
 30
0.0
 40
1.995693283067888
 50
179.7898942405603009
 51
194.392314141214996
  0
ARC
  5
CD72
  8
0
 10
4832.2149920960318923
 20
260.7271243154626745
 30
0.0
 40
1.182069844403477
 50
206.6746171512388912
 51
221.2933516016101976
  0
LINE
  5
CD74
  8
0
 10
4832.9967056165050963
 20
263.7506199802261904
 30
0.0
 11
4832.9967056165050963
 21
259.4435294157074168
 31
0.0
  0
LINE
  5
CD75
  8
0
 10
4833.1935642878743238
 20
233.0301473553489018
 30
0.0
 11
4833.1935642878743238
 21
237.3608560168489134
 31
0.0
  0
LINE
  5
CD76
  8
0
 10
4833.0085247903753043
 20
233.0301473553489018
 30
0.0
 11
4833.1935642878743238
 21
233.0301473553489018
 31
0.0
  0
LINE
  5
CD77
  8
0
 10
4833.1935642878743238
 20
237.3608560168489134
 30
0.0
 11
4833.0085247902743504
 21
237.3608560168489134
 31
0.0
  0
ARC
  5
CD78
  8
0
 10
4833.0091099875116925
 20
237.3484599830057959
 30
0.0
 40
0.0124098392755825
 50
92.7028368391942337
 51
177.2971791866636977
  0
ARC
  5
CD79
  8
0
 10
4833.0088872780961538
 20
233.0423207903889988
 30
0.0
 40
0.0121788307330479
 50
181.7229588234131086
 51
268.2944106254349208
  0
LINE
  5
CD7A
  8
0
 10
4831.0961192490749454
 20
236.0911569469488995
 30
0.0
 11
4831.096119465173615
 21
234.2982586599489139
 31
0.0
  0
LINE
  5
CD7B
  8
0
 10
4831.3352959326666678
 20
233.5419428241488902
 30
0.0
 11
4832.9967139535046954
 21
233.5419428241488902
 31
0.0
  0
LINE
  5
CD7C
  8
0
 10
4831.3352959326666678
 20
236.8490294020488989
 30
0.0
 11
4832.9967139535046954
 21
236.8490294020488989
 31
0.0
  0
ARC
  5
CD7D
  8
0
 10
4831.3358780997969006
 20
236.8358636759784019
 30
0.0
 40
0.0131785910297535
 50
92.5318774699148747
 51
135.8888530944076933
  0
ARC
  5
CD7E
  8
0
 10
4831.3358535281131481
 20
233.5550803988967914
 30
0.0
 40
0.0131494023794306
 50
226.8662581997475911
 51
267.5696653705342101
  0
ARC
  5
CD7F
  8
0
 10
4836.4638478874876455
 20
235.9995239885153921
 30
0.0
 40
5.3685107185060739
 50
175.6845165957512052
 51
179.0219938042338015
  0
ARC
  5
CD80
  8
0
 10
4831.8731720173245776
 20
236.3042073966713019
 30
0.0
 40
0.7690503570275934
 50
135.3122281176596005
 51
172.5821899072375061
  0
ARC
  5
CD81
  8
0
 10
4833.0917993300508897
 20
234.2909403946829059
 30
0.0
 40
1.995693283067888
 50
179.7898942405603009
 51
194.392314141214996
  0
ARC
  5
CD82
  8
0
 10
4832.2150004330305819
 20
234.3255495120127136
 30
0.0
 40
1.182069844403477
 50
206.6746171512388912
 51
221.2933516016101976
  0
LINE
  5
CD83
  8
0
 10
4832.9967139535046954
 20
237.3490451767762011
 30
0.0
 11
4832.9967139535046954
 21
233.041954612257399
 31
0.0
  0
LINE
  5
CD84
  8
0
 10
4830.4769837536741761
 20
232.2939268831989068
 30
0.0
 11
4831.1856451709736575
 21
232.2939268831989068
 31
0.0
  0
LINE
  5
CD85
  8
0
 10
4830.4179286354737997
 20
232.3529820013989138
 30
0.0
 11
4831.2447002890739896
 21
232.3529820013989138
 31
0.0
  0
LINE
  5
CD86
  8
0
 10
4831.2447002890739896
 20
232.5773914501988884
 30
0.0
 11
4830.4179286354737997
 21
232.5773914501988884
 31
0.0
  0
LINE
  5
CD87
  8
0
 10
4830.4179286354737997
 20
232.3529820013989138
 30
0.0
 11
4830.4769837536741761
 21
232.2939268831989068
 31
0.0
  0
LINE
  5
CD88
  8
0
 10
4830.4179286354737997
 20
232.5773914501988884
 30
0.0
 11
4830.4179286354737997
 21
232.3529820013989138
 31
0.0
  0
LINE
  5
CD89
  8
0
 10
4830.4769837536741761
 20
232.6482575918988971
 30
0.0
 11
4830.4769837536741761
 21
232.5773914501988884
 31
0.0
  0
LINE
  5
CD8A
  8
0
 10
4831.1856451709736575
 20
232.6482575918988971
 30
0.0
 11
4831.1856451709736575
 21
232.5773914501988884
 31
0.0
  0
LINE
  5
CD8B
  8
0
 10
4831.2447002890739896
 20
232.5773914501988884
 30
0.0
 11
4831.2447002890739896
 21
232.3529820013989138
 31
0.0
  0
LINE
  5
CD8C
  8
0
 10
4831.2447002890739896
 20
232.3529820013989138
 30
0.0
 11
4831.1856451709736575
 21
232.2939268831989068
 31
0.0
  0
ENDSEC
  0
EOF
