  0
SECTION
  2
HEADER
  9
$ACADVER
  1
AC1009
  9
$INSBASE
 10
4765.2149664384587595
 20
238.1510432471513923
 30
0.0
  9
$EXTMIN
 10
4764.2897695880583342
 20
237.2258463968013018
 30
0.0
  9
$EXTMAX
 10
4766.1401632888582753
 20
239.0762400975015112
 30
0.0
  9
$LIMMIN
 10
0.0
 20
0.0
  9
$LIMMAX
 10
11.6929133858000007
 20
8.2677165353999982
  9
$ORTHOMODE
 70
     1
  9
$REGENMODE
 70
     1
  9
$FILLMODE
 70
     1
  9
$QTEXTMODE
 70
     0
  9
$MIRRTEXT
 70
     0
  9
$DRAGMODE
 70
     2
  9
$LTSCALE
 40
0.6431102362
  9
$OSMODE
 70
  4095
  9
$ATTMODE
 70
     1
  9
$TEXTSIZE
 40
0.2
  9
$TRACEWID
 40
0.05
  9
$TEXTSTYLE
  7
STANDARD
  9
$CLAYER
  8
0
  9
$CELTYPE
  6
BYLAYER
  9
$CECOLOR
 62
   256
  9
$DIMSCALE
 40
1.0
  9
$DIMASZ
 40
0.1875
  9
$DIMEXO
 40
0.0625
  9
$DIMDLI
 40
0.4443307087
  9
$DIMRND
 40
0.0
  9
$DIMDLE
 40
0.0
  9
$DIMEXE
 40
0.125
  9
$DIMTP
 40
0.01
  9
$DIMTM
 40
0.01
  9
$DIMTXT
 40
2.0
  9
$DIMCEN
 40
0.1052362205
  9
$DIMTSZ
 40
0.0
  9
$DIMTOL
 70
     1
  9
$DIMLIM
 70
     0
  9
$DIMTIH
 70
     1
  9
$DIMTOH
 70
     1
  9
$DIMSE1
 70
     0
  9
$DIMSE2
 70
     0
  9
$DIMTAD
 70
     0
  9
$DIMZIN
 70
     0
  9
$DIMBLK
  1

  9
$DIMASO
 70
     1
  9
$DIMSHO
 70
     1
  9
$DIMPOST
  1
\X
  9
$DIMAPOST
  1

  9
$DIMALT
 70
     1
  9
$DIMALTD
 70
     2
  9
$DIMALTF
 40
25.3999999999999986
  9
$DIMLFAC
 40
1.0
  9
$DIMTOFL
 70
     0
  9
$DIMTVP
 40
0.0
  9
$DIMTIX
 70
     0
  9
$DIMSOXD
 70
     0
  9
$DIMSAH
 70
     0
  9
$DIMBLK1
  1

  9
$DIMBLK2
  1

  9
$DIMSTYLE
  2
STANDARD
  9
$DIMCLRD
 70
     0
  9
$DIMCLRE
 70
     0
  9
$DIMCLRT
 70
     0
  9
$DIMTFAC
 40
1.0
  9
$DIMGAP
 40
0.09
  9
$LUNITS
 70
     2
  9
$LUPREC
 70
     4
  9
$SKETCHINC
 40
0.1
  9
$FILLETRAD
 40
0.0
  9
$AUNITS
 70
     0
  9
$AUPREC
 70
     0
  9
$MENU
  1
.
  9
$ELEVATION
 40
0.0
  9
$PELEVATION
 40
0.0
  9
$THICKNESS
 40
0.0
  9
$LIMCHECK
 70
     0
  9
$BLIPMODE
 70
     0
  9
$CHAMFERA
 40
0.0
  9
$CHAMFERB
 40
0.0
  9
$SKPOLY
 70
     0
  9
$TDCREATE
 40
2458060.468368056230247
  9
$TDUPDATE
 40
2459245.7034722222015262
  9
$TDINDWG
 40
0.3626112269
  9
$TDUSRTIMER
 40
0.3626112269
  9
$USRTIMER
 70
     1
  9
$ANGBASE
 50
0.0
  9
$ANGDIR
 70
     0
  9
$PDMODE
 70
     0
  9
$PDSIZE
 40
0.3125
  9
$PLINEWID
 40
0.0
  9
$COORDS
 70
     1
  9
$SPLFRAME
 70
     0
  9
$SPLINETYPE
 70
     6
  9
$SPLINESEGS
 70
     8
  9
$ATTDIA
 70
     1
  9
$ATTREQ
 70
     1
  9
$HANDLING
 70
     1
  9
$HANDSEED
  5
CB25
  9
$SURFTAB1
 70
     6
  9
$SURFTAB2
 70
     6
  9
$SURFTYPE
 70
     6
  9
$SURFU
 70
     6
  9
$SURFV
 70
     6
  9
$UCSNAME
  2

  9
$UCSORG
 10
0.0
 20
0.0
 30
0.0
  9
$UCSXDIR
 10
1.0
 20
0.0
 30
0.0
  9
$UCSYDIR
 10
0.0
 20
1.0
 30
0.0
  9
$PUCSNAME
  2

  9
$PUCSORG
 10
0.0
 20
0.0
 30
0.0
  9
$PUCSXDIR
 10
1.0
 20
0.0
 30
0.0
  9
$PUCSYDIR
 10
0.0
 20
1.0
 30
0.0
  9
$USERI1
 70
     0
  9
$USERI2
 70
     0
  9
$USERI3
 70
     0
  9
$USERI4
 70
     0
  9
$USERI5
 70
     0
  9
$USERR1
 40
0.0
  9
$USERR2
 40
0.0
  9
$USERR3
 40
0.0
  9
$USERR4
 40
0.0
  9
$USERR5
 40
0.0
  9
$WORLDVIEW
 70
     1
  9
$SHADEDGE
 70
     3
  9
$SHADEDIF
 70
    70
  9
$TILEMODE
 70
     1
  9
$MAXACTVP
 70
    64
  9
$PLIMCHECK
 70
     0
  9
$PEXTMIN
 10
1.0000000000000000E+20
 20
1.0000000000000000E+20
 30
1.0000000000000000E+20
  9
$PEXTMAX
 10
-1.0000000000000000E+20
 20
-1.0000000000000000E+20
 30
-1.0000000000000000E+20
  9
$PLIMMIN
 10
0.0
 20
0.0
  9
$PLIMMAX
 10
12.0
 20
9.0
  9
$UNITMODE
 70
     0
  9
$VISRETAIN
 70
     1
  9
$PLINEGEN
 70
     0
  9
$PSLTSCALE
 70
     1
  0
ENDSEC
  0
SECTION
  2
TABLES
  0
TABLE
  2
VPORT
 70
     1
  0
VPORT
  2
*ACTIVE
 70
     0
 10
0.0
 20
0.0
 11
1.0
 21
1.0
 12
0.0
 22
0.0
 13
0.0
 23
0.0
 14
1.0
 24
1.0
 15
0.0
 25
0.0
 16
0.0
 26
0.0
 36
7.415161564861446
 17
4765.21484375
 27
238.1510391235352131
 37
0.0
 40
2.6170205117561651
 41
2.1186252771618621
 42
50.0
 43
0.0
 44
0.0
 50
0.0
 51
0.0
 71
     0
 72
   100
 73
     1
 74
     1
 75
     0
 76
     0
 77
     0
 78
     0
  0
ENDTAB
  0
TABLE
  2
LTYPE
 70
     2
  0
LTYPE
  2
CONTINUOUS
 70
     0
  3
Solid line
 72
    65
 73
     0
 40
0.0
  0
LTYPE
  2
PHANTOM2
 70
     0
  3
___ _ _ ___ _ _ ___ _ _ ___ _ _
 72
    65
 73
     6
 40
1.25
 49
0.625
 49
-0.125
 49
0.125
 49
-0.125
 49
0.125
 49
-0.125
  0
ENDTAB
  0
TABLE
  2
LAYER
 70
     2
  0
LAYER
  2
0
 70
     0
 62
   255
  6
CONTINUOUS
  0
LAYER
  2
DEFPOINTS
 70
     0
 62
     7
  6
CONTINUOUS
  0
ENDTAB
  0
TABLE
  2
STYLE
 70
     1
  0
STYLE
  2
STANDARD
 70
     0
 40
0.0
 41
0.8
 50
0.0
 71
     0
 42
0.2
  3
txt
  4

  0
ENDTAB
  0
TABLE
  2
VIEW
 70
     0
  0
ENDTAB
  0
TABLE
  2
UCS
 70
     0
  0
ENDTAB
  0
TABLE
  2
APPID
 70
     9
  0
APPID
  2
ACAD
 70
     0
  0
APPID
  2
ACAD_MLEADERVER
 70
     0
  0
APPID
  2
ACAD_EXEMPT_FROM_CAD_STANDARDS
 70
     0
  0
APPID
  2
ACAD_NAV_VCDISPLAY
 70
     0
  0
APPID
  2
ACAECLAYERSTANDARD
 70
     0
  0
APPID
  2
ACCMTRANSPARENCY
 70
     0
  0
APPID
  2
ACAD_DSTYLE_DIMJAG
 70
     0
  0
APPID
  2
ACAD_DSTYLE_DIMTALN
 70
     0
  0
APPID
  2
ACDBATTR
 70
     0
  0
ENDTAB
  0
TABLE
  2
DIMSTYLE
 70
     1
  0
DIMSTYLE
  2
STANDARD
 70
     0
  3

  4

  5

  6

  7

 40
1.0
 41
0.1875
 42
0.0625
 43
0.38
 44
0.125
 45
0.0
 46
0.0
 47
0.01
 48
0.01
140
0.15625
141
0.09
142
0.0
143
25.3999999999999986
144
1.0
145
0.0
146
1.0
147
0.09
 71
     1
 72
     0
 73
     1
 74
     1
 75
     0
 76
     0
 77
     0
 78
     4
170
     0
171
     2
172
     0
173
     0
174
     0
175
     0
176
     0
177
     0
178
     0
  0
ENDTAB
  0
ENDSEC
  0
SECTION
  2
BLOCKS
  0
BLOCK
  8
0
  2
$MODEL_SPACE
 70
     0
 10
0.0
 20
0.0
 30
0.0
  3
$MODEL_SPACE
  1

  0
ENDBLK
  5
21
  8
0
  0
BLOCK
 67
     1
  8
0
  2
$PAPER_SPACE
 70
     0
 10
0.0
 20
0.0
 30
0.0
  3
$PAPER_SPACE
  1

  0
ENDBLK
  5
1D
 67
     1
  8
0
  0
ENDSEC
  0
SECTION
  2
ENTITIES
  0
ATTDEF
  5
3930
  8
DEFPOINTS
 10
4765.209755413300627
 20
238.1491057686149873
 30
0.0
 40
0.001
  1
K-26309
  3

  2
MODELNUMBER
 70
     0
1001
ACDBATTR
1070
     0
1070
     1
  0
ATTDEF
  5
3931
  8
DEFPOINTS
 10
4765.209755413300627
 20
238.1474391019484074
 30
0.0
 40
0.001
  1

  3

  2
TRADENAME
 70
     0
1001
ACDBATTR
1070
     0
1070
     1
  0
ATTDEF
  5
3932
  8
DEFPOINTS
 10
4765.209755413300627
 20
238.1457724352817138
 30
0.0
 40
0.001
  1
HANDSHOWER HOLDER
  3

  2
PRODUCT
 70
     0
1001
ACDBATTR
1070
     0
1070
     1
  0
LINE
  5
C9E5
  8
0
 10
4764.2897695880583342
 20
237.2652164755014041
 30
0.0
 11
4764.2897695880583342
 21
239.0368700188012951
 31
0.0
  0
LINE
  5
C9E6
  8
0
 10
4764.6032668095358531
 20
238.7113930682675118
 30
0.0
 11
4764.5988003851571193
 21
238.700225470433594
 31
0.0
  0
LINE
  5
C9E7
  8
0
 10
4764.6032708844131776
 20
238.2994025484096881
 30
0.0
 11
4764.6029021951590039
 21
237.9738778928013971
 31
0.0
  0
LINE
  5
C9E8
  8
0
 10
4764.6059292028594427
 20
237.9787753709013884
 30
0.0
 11
4764.6059292028594427
 21
239.0319725406014015
 31
0.0
  0
LINE
  5
C9E9
  8
0
 10
4764.5987992648297222
 20
238.3106802124347894
 30
0.0
 11
4764.6032708844131776
 21
238.2994025484096881
 31
0.0
  0
LINE
  5
C9EA
  8
0
 10
4764.891362273759114
 20
239.0337763224013941
 30
0.0
 11
4764.891362273759114
 21
237.9769715892014119
 31
0.0
  0
LINE
  5
C9EB
  8
0
 10
4764.3291396667591471
 20
237.9345078141012948
 30
0.0
 11
4766.1007932101583719
 21
237.9345078141012948
 31
0.0
  0
LINE
  5
C9EC
  8
0
 10
4764.6449557172591085
 20
237.9394067913013942
 30
0.0
 11
4765.2063228989482013
 21
237.9345078141012948
 31
0.0
  0
LINE
  5
C9ED
  8
0
 10
4764.6059292028594427
 20
238.3106729070838981
 30
0.0
 11
4764.5987992648297222
 21
238.3106802124347894
 31
0.0
  0
LINE
  5
C9EE
  8
0
 10
4764.598796961964581
 20
238.6999759679999897
 30
0.0
 11
4764.6059292028594427
 21
238.700071868280105
 31
0.0
  0
LINE
  5
C9EF
  8
0
 10
4764.6449557172591085
 20
239.0713411203014118
 30
0.0
 11
4765.2063229000532374
 21
239.0762400975013975
 31
0.0
  0
LINE
  5
C9F0
  8
0
 10
4764.3291396667591471
 20
239.0762400975013975
 30
0.0
 11
4766.1007932101583719
 21
239.0762400975013975
 31
0.0
  0
ARC
  5
C9F1
  8
0
 10
4764.5594834565754354
 20
237.9762292694840085
 30
0.0
 40
0.0434823623155464
 50
286.3616051610387103
 51
356.9001291332141932
  0
ARC
  5
C9F2
  8
0
 10
4764.8505180694037335
 20
237.9784585207949021
 30
0.0
 40
0.040871261123058
 50
271.589338976999727
 51
357.9150706389656875
  0
ARC
  5
C9F3
  8
0
 10
4764.6472398719652119
 20
237.9806990999391871
 30
0.0
 40
0.0413554363458765
 50
182.666187407459006
 51
266.8338127354198264
  0
ARC
  5
C9F4
  8
0
 10
4764.3316551205998621
 20
237.2677319293433982
 30
0.0
 40
0.0419609978951844
 50
183.4367951025145089
 51
266.5632048974587178
  0
ARC
  5
C9F5
  8
0
 10
4764.3299807905950729
 20
237.9747190166376072
 30
0.0
 40
0.0402199987409273
 50
181.198318273906807
 51
268.8016817260848939
  0
ARC
  5
C9F6
  8
0
 10
4714.1973695406513798
 20
238.6261453221482896
 30
0.0
 40
50.4059693554211989
 50
0.0968999992752475
 51
0.4668701228753508
  0
ARC
  5
C9F7
  8
0
 10
4764.850714344996959
 20
239.0324873919246897
 30
0.0
 40
0.0406683592835617
 50
1.816219268058592
 51
88.6784657138791772
  0
ARC
  5
C9F8
  8
0
 10
4764.6477155155744185
 20
239.0295773008253946
 30
0.0
 40
0.0418549053752103
 50
93.7806703810403519
 51
176.7193296216346141
  0
ARC
  5
C9F9
  8
0
 10
4764.33150764923721
 20
239.0345020363224933
 30
0.0
 40
0.0418051802052265
 50
93.2471587928748562
 51
176.7528412071199
  0
ARC
  5
C9FA
  8
0
 10
4764.5603475352572787
 20
239.0361755466470868
 30
0.0
 40
0.0413238062117266
 50
0.9626708334617317
 51
75.8191115901022528
  0
ARC
  5
C9FB
  8
0
 10
4778.7888622001610202
 20
238.505412031004397
 30
0.0
 40
14.1913990356774899
 50
179.2134434071109013
 51
180.786227029096807
  0
LINE
  5
C9FC
  8
0
 10
4766.1401632888582753
 20
237.2652164755014041
 30
0.0
 11
4766.1401632888582753
 21
239.0368700188012951
 31
0.0
  0
LINE
  5
C9FD
  8
0
 10
4765.8266660673789374
 20
238.7113930682675118
 30
0.0
 11
4765.8311324917613092
 21
238.700225470433594
 31
0.0
  0
LINE
  5
C9FE
  8
0
 10
4765.8266619925043415
 20
238.2994025484096881
 30
0.0
 11
4765.8270306817576056
 21
237.9738778928013971
 31
0.0
  0
LINE
  5
C9FF
  8
0
 10
4765.8240036740589858
 20
237.9787753709013884
 30
0.0
 11
4765.8240036740589858
 21
239.0319725406014015
 31
0.0
  0
LINE
  5
CA00
  8
0
 10
4765.8311336120868873
 20
238.3106802124347894
 30
0.0
 11
4765.8266619925043415
 21
238.2994025484096881
 31
0.0
  0
LINE
  5
CA01
  8
0
 10
4765.538570603158405
 20
239.0337763224013941
 30
0.0
 11
4765.538570603158405
 21
237.9769715892014119
 31
0.0
  0
LINE
  5
CA02
  8
0
 10
4765.7849771596584105
 20
237.9394067913013942
 30
0.0
 11
4765.2236099779693177
 21
237.9345078141012948
 31
0.0
  0
LINE
  5
CA03
  8
0
 10
4765.8240036740589858
 20
238.3106729070838981
 30
0.0
 11
4765.8311336120868873
 21
238.3106802124347894
 31
0.0
  0
LINE
  5
CA04
  8
0
 10
4765.8311359149520285
 20
238.6999759679999897
 30
0.0
 11
4765.8240036740589858
 21
238.700071868280105
 31
0.0
  0
LINE
  5
CA05
  8
0
 10
4765.7849771596584105
 20
239.0713411203014118
 30
0.0
 11
4765.2236099768642816
 21
239.0762400975013975
 31
0.0
  0
ARC
  5
CA06
  8
0
 10
4765.8704494203429931
 20
237.9762292694840085
 30
0.0
 40
0.0434823623155464
 50
183.0998708667858068
 51
253.6383948389612897
  0
ARC
  5
CA07
  8
0
 10
4765.5794148075119665
 20
237.9784585207949021
 30
0.0
 40
0.040871261123058
 50
182.0849293610326924
 51
268.410661023000273
  0
ARC
  5
CA08
  8
0
 10
4765.7826930049532166
 20
237.9806990999391871
 30
0.0
 40
0.0413554363458765
 50
273.1661872645801736
 51
357.3338125925408804
  0
ARC
  5
CA09
  8
0
 10
4766.0982777563167474
 20
237.2677319293433982
 30
0.0
 40
0.0419609978951844
 50
273.4367951025412822
 51
356.5632048974854911
  0
ARC
  5
CA0A
  8
0
 10
4766.0999520863233556
 20
237.9747190166376072
 30
0.0
 40
0.0402199987409273
 50
271.1983182739151061
 51
358.8016817260930793
  0
ARC
  5
CA0B
  8
0
 10
4816.2325633362652297
 20
238.6261453221482896
 30
0.0
 40
50.4059693554211989
 50
179.533129877124594
 51
179.9031000007246917
  0
ARC
  5
CA0C
  8
0
 10
4765.5792185319205601
 20
239.0324873919246897
 30
0.0
 40
0.0406683592835617
 50
91.321534286120837
 51
178.1837807319413969
  0
ARC
  5
CA0D
  8
0
 10
4765.7822173613431005
 20
239.0295773008253946
 30
0.0
 40
0.0418549053752103
 50
3.2806703783654019
 51
86.2193296189596339
  0
ARC
  5
CA0E
  8
0
 10
4766.098425227680309
 20
239.0345020363224933
 30
0.0
 40
0.0418051802052265
 50
3.2471587928800978
 51
86.7528412071251438
  0
ARC
  5
CA0F
  8
0
 10
4765.8695853416593309
 20
239.0361755466470868
 30
0.0
 40
0.0413238062117266
 50
104.1808884098977046
 51
179.0373291665383135
  0
ARC
  5
CA10
  8
0
 10
4751.6410706767574084
 20
238.505412031004397
 30
0.0
 40
14.1913990356774899
 50
359.2137729709032214
 51
0.7865565928890506
  0
LINE
  5
CA11
  8
0
 10
4764.3291396667591471
 20
237.2258463968013871
 30
0.0
 11
4766.1007932101583719
 21
237.2258463968013871
 31
0.0
  0
ENDSEC
  0
EOF
