  0
SECTION
  2
HEADER
  9
$ACADVER
  1
AC1009
  9
$INSBASE
 10
3577.6925934022538058
 20
134.0096897060194863
 30
0.0
  9
$EXTMIN
 10
3576.6095934022550864
 20
119.4199979594844052
 30
0.0
  9
$EXTMAX
 10
3578.7565934022550209
 20
134.0159251217469887
 30
0.0
  9
$LIMMIN
 10
0.0
 20
0.0
  9
$LIMMAX
 10
11.6929133858000007
 20
8.2677165353999982
  9
$ORTHOMODE
 70
     1
  9
$REGENMODE
 70
     1
  9
$FILLMODE
 70
     1
  9
$QTEXTMODE
 70
     0
  9
$MIRRTEXT
 70
     0
  9
$DRAGMODE
 70
     2
  9
$LTSCALE
 40
0.6431102362
  9
$OSMODE
 70
  4095
  9
$ATTMODE
 70
     1
  9
$TEXTSIZE
 40
0.2
  9
$TRACEWID
 40
0.05
  9
$TEXTSTYLE
  7
STANDARD
  9
$CLAYER
  8
0
  9
$CELTYPE
  6
BYLAYER
  9
$CECOLOR
 62
   256
  9
$DIMSCALE
 40
1.0
  9
$DIMASZ
 40
0.1875
  9
$DIMEXO
 40
0.0625
  9
$DIMDLI
 40
0.4443307087
  9
$DIMRND
 40
0.0
  9
$DIMDLE
 40
0.0
  9
$DIMEXE
 40
0.125
  9
$DIMTP
 40
0.01
  9
$DIMTM
 40
0.01
  9
$DIMTXT
 40
2.0
  9
$DIMCEN
 40
0.1052362205
  9
$DIMTSZ
 40
0.0
  9
$DIMTOL
 70
     1
  9
$DIMLIM
 70
     0
  9
$DIMTIH
 70
     1
  9
$DIMTOH
 70
     1
  9
$DIMSE1
 70
     0
  9
$DIMSE2
 70
     0
  9
$DIMTAD
 70
     0
  9
$DIMZIN
 70
     0
  9
$DIMBLK
  1

  9
$DIMASO
 70
     1
  9
$DIMSHO
 70
     1
  9
$DIMPOST
  1
\X
  9
$DIMAPOST
  1

  9
$DIMALT
 70
     1
  9
$DIMALTD
 70
     2
  9
$DIMALTF
 40
25.3999999999999986
  9
$DIMLFAC
 40
1.0
  9
$DIMTOFL
 70
     0
  9
$DIMTVP
 40
0.0
  9
$DIMTIX
 70
     0
  9
$DIMSOXD
 70
     0
  9
$DIMSAH
 70
     0
  9
$DIMBLK1
  1

  9
$DIMBLK2
  1

  9
$DIMSTYLE
  2
STANDARD
  9
$DIMCLRD
 70
     0
  9
$DIMCLRE
 70
     0
  9
$DIMCLRT
 70
     0
  9
$DIMTFAC
 40
1.0
  9
$DIMGAP
 40
0.09
  9
$LUNITS
 70
     2
  9
$LUPREC
 70
     4
  9
$SKETCHINC
 40
0.1
  9
$FILLETRAD
 40
0.0
  9
$AUNITS
 70
     0
  9
$AUPREC
 70
     0
  9
$MENU
  1
.
  9
$ELEVATION
 40
0.0
  9
$PELEVATION
 40
0.0
  9
$THICKNESS
 40
0.0
  9
$LIMCHECK
 70
     0
  9
$BLIPMODE
 70
     0
  9
$CHAMFERA
 40
0.0
  9
$CHAMFERB
 40
0.0
  9
$SKPOLY
 70
     0
  9
$TDCREATE
 40
2458060.468368056230247
  9
$TDUPDATE
 40
2459426.5834606480784714
  9
$TDINDWG
 40
0.3607015046
  9
$TDUSRTIMER
 40
0.3607015046
  9
$USRTIMER
 70
     1
  9
$ANGBASE
 50
0.0
  9
$ANGDIR
 70
     0
  9
$PDMODE
 70
     0
  9
$PDSIZE
 40
0.3125
  9
$PLINEWID
 40
0.0
  9
$COORDS
 70
     1
  9
$SPLFRAME
 70
     0
  9
$SPLINETYPE
 70
     6
  9
$SPLINESEGS
 70
     8
  9
$ATTDIA
 70
     1
  9
$ATTREQ
 70
     1
  9
$HANDLING
 70
     1
  9
$HANDSEED
  5
17851
  9
$SURFTAB1
 70
     6
  9
$SURFTAB2
 70
     6
  9
$SURFTYPE
 70
     6
  9
$SURFU
 70
     6
  9
$SURFV
 70
     6
  9
$UCSNAME
  2

  9
$UCSORG
 10
0.0
 20
0.0
 30
0.0
  9
$UCSXDIR
 10
1.0
 20
0.0
 30
0.0
  9
$UCSYDIR
 10
0.0
 20
1.0
 30
0.0
  9
$PUCSNAME
  2

  9
$PUCSORG
 10
0.0
 20
0.0
 30
0.0
  9
$PUCSXDIR
 10
1.0
 20
0.0
 30
0.0
  9
$PUCSYDIR
 10
0.0
 20
1.0
 30
0.0
  9
$USERI1
 70
     0
  9
$USERI2
 70
     0
  9
$USERI3
 70
     0
  9
$USERI4
 70
     0
  9
$USERI5
 70
     0
  9
$USERR1
 40
0.0
  9
$USERR2
 40
0.0
  9
$USERR3
 40
0.0
  9
$USERR4
 40
0.0
  9
$USERR5
 40
0.0
  9
$WORLDVIEW
 70
     1
  9
$SHADEDGE
 70
     3
  9
$SHADEDIF
 70
    70
  9
$TILEMODE
 70
     1
  9
$MAXACTVP
 70
    64
  9
$PLIMCHECK
 70
     0
  9
$PEXTMIN
 10
1.0000000000000000E+20
 20
1.0000000000000000E+20
 30
1.0000000000000000E+20
  9
$PEXTMAX
 10
-1.0000000000000000E+20
 20
-1.0000000000000000E+20
 30
-1.0000000000000000E+20
  9
$PLIMMIN
 10
0.0
 20
0.0
  9
$PLIMMAX
 10
12.0
 20
9.0
  9
$UNITMODE
 70
     0
  9
$VISRETAIN
 70
     1
  9
$PLINEGEN
 70
     0
  9
$PSLTSCALE
 70
     1
  0
ENDSEC
  0
SECTION
  2
TABLES
  0
TABLE
  2
VPORT
 70
     1
  0
VPORT
  2
*ACTIVE
 70
     0
 10
0.0
 20
0.0
 11
1.0
 21
1.0
 12
-225.8609739805584127
 22
0.7226993438658056
 13
0.0
 23
0.0
 14
1.0
 24
1.0
 15
0.0
 25
0.0
 16
0.0
 26
0.0
 36
17.1152628219792007
 17
3803.5440673828129547
 27
125.9952621967499056
 37
0.0
 40
14.7110067456706997
 41
2.5092105263157891
 42
50.0
 43
0.0
 44
0.0
 50
0.0
 51
0.0
 71
     0
 72
   100
 73
     1
 74
     1
 75
     0
 76
     0
 77
     0
 78
     0
  0
ENDTAB
  0
TABLE
  2
LTYPE
 70
     2
  0
LTYPE
  2
CONTINUOUS
 70
     0
  3
Solid line
 72
    65
 73
     0
 40
0.0
  0
LTYPE
  2
PHANTOM2
 70
     0
  3
___ _ _ ___ _ _ ___ _ _ ___ _ _
 72
    65
 73
     6
 40
1.25
 49
0.625
 49
-0.125
 49
0.125
 49
-0.125
 49
0.125
 49
-0.125
  0
ENDTAB
  0
TABLE
  2
LAYER
 70
     2
  0
LAYER
  2
0
 70
     0
 62
   255
  6
CONTINUOUS
  0
LAYER
  2
DEFPOINTS
 70
     0
 62
     7
  6
CONTINUOUS
  0
ENDTAB
  0
TABLE
  2
STYLE
 70
     1
  0
STYLE
  2
STANDARD
 70
     0
 40
0.0
 41
0.8
 50
0.0
 71
     0
 42
0.2
  3
txt
  4

  0
ENDTAB
  0
TABLE
  2
VIEW
 70
     0
  0
ENDTAB
  0
TABLE
  2
UCS
 70
     0
  0
ENDTAB
  0
TABLE
  2
APPID
 70
     9
  0
APPID
  2
ACAD
 70
     0
  0
APPID
  2
ACAD_MLEADERVER
 70
     0
  0
APPID
  2
ACAD_EXEMPT_FROM_CAD_STANDARDS
 70
     0
  0
APPID
  2
ACAD_NAV_VCDISPLAY
 70
     0
  0
APPID
  2
ACAECLAYERSTANDARD
 70
     0
  0
APPID
  2
ACCMTRANSPARENCY
 70
     0
  0
APPID
  2
ACAD_DSTYLE_DIMJAG
 70
     0
  0
APPID
  2
ACAD_DSTYLE_DIMTALN
 70
     0
  0
APPID
  2
ACDBATTR
 70
     0
  0
ENDTAB
  0
TABLE
  2
DIMSTYLE
 70
     1
  0
DIMSTYLE
  2
STANDARD
 70
     0
  3

  4

  5

  6

  7

 40
1.0
 41
0.1875
 42
0.0625
 43
0.38
 44
0.125
 45
0.0
 46
0.0
 47
0.01
 48
0.01
140
0.15625
141
0.09
142
0.0
143
25.3999999999999986
144
1.0
145
0.0
146
1.0
147
0.09
 71
     1
 72
     0
 73
     1
 74
     1
 75
     0
 76
     0
 77
     0
 78
     4
170
     0
171
     2
172
     0
173
     0
174
     0
175
     0
176
     0
177
     0
178
     0
  0
ENDTAB
  0
ENDSEC
  0
SECTION
  2
BLOCKS
  0
BLOCK
  8
0
  2
$MODEL_SPACE
 70
     0
 10
0.0
 20
0.0
 30
0.0
  3
$MODEL_SPACE
  1

  0
ENDBLK
  5
21
  8
0
  0
BLOCK
 67
     1
  8
0
  2
$PAPER_SPACE
 70
     0
 10
0.0
 20
0.0
 30
0.0
  3
$PAPER_SPACE
  1

  0
ENDBLK
  5
1D
 67
     1
  8
0
  0
BLOCK
  8
0
  2
_FILLED
 70
     0
 10
0.0
 20
0.0
 30
0.0
  3
_FILLED
  1

  0
SOLID
  5
124E8
  8
0
  6
BYBLOCK
 62
     0
 10
0.0
 20
0.0
 30
0.0
 11
-1.0
 21
0.1666666667
 31
0.0
 12
-1.0
 22
-0.1666666667
 32
0.0
 13
-1.0
 23
-0.1666666667
 33
0.0
  0
ENDBLK
  5
124E9
  8
0
  6
BYBLOCK
 62
     0
  0
ENDSEC
  0
SECTION
  2
ENTITIES
  0
ATTDEF
  5
1650A
  8
DEFPOINTS
 10
3577.6945941372769084
 20
134.0149251217468986
 30
0.0
 40
0.001
  1
K-26305
  3

  2
MODELNUMBER
 70
     0
1001
ACDBATTR
1070
     0
1070
     1
  0
ATTDEF
  5
1650B
  8
DEFPOINTS
 10
3577.6945941372769084
 20
134.0132584550802051
 30
0.0
 40
0.001
  1

  3

  2
TRADENAME
 70
     0
1001
ACDBATTR
1070
     0
1070
     1
  0
ATTDEF
  5
1650C
  8
DEFPOINTS
 10
3577.6945941372769084
 20
134.0115917884135968
 30
0.0
 40
0.001
  1
SHOWER ARM
  3

  2
PRODUCT
 70
     0
1001
ACDBATTR
1070
     0
1070
     1
  0
LINE
  5
17616
  8
0
 10
3576.6095934022550864
 20
134.0096897060194863
 30
0.0
 11
3578.7565934022550209
 21
134.0096897060194863
 31
0.0
  0
LINE
  5
17617
  8
0
 10
3576.646514767906865
 20
133.5566897060195117
 30
0.0
 11
3578.7196720365031979
 21
133.5566897060195117
 31
0.0
  0
LINE
  5
17618
  8
0
 10
3577.2008099377549115
 20
120.4856830389195039
 30
0.0
 11
3578.165376866853876
 21
120.4856829089482062
 31
0.0
  0
ARC
  5
17619
  8
0
 10
3578.1550934975111886
 20
120.5054230374129958
 30
0.0
 40
0.0199999047435125
 50
279.2470556463093203
 51
0.0001221446907341
  0
ARC
  5
1761A
  8
0
 10
3577.2110934975107739
 20
120.5054233551271068
 30
0.0
 40
0.0200000952576235
 50
180.0004549480561025
 51
260.7552564691980024
  0
LINE
  5
1761B
  8
0
 10
3577.191093402253955
 20
120.5054231963194979
 30
0.0
 11
3577.191093402253955
 21
130.2254149860087011
 31
0.0
  0
LINE
  5
1761C
  8
0
 10
3578.1750934022547881
 20
120.5054230374129958
 30
0.0
 11
3578.1750934022547881
 21
130.2250212218989986
 31
0.0
  0
ARC
  5
1761D
  8
0
 10
3531.8085620523179387
 20
131.1584488277584057
 30
0.0
 40
45.3921216058228509
 50
358.8222038415694897
 51
0.1277938693910089
  0
LINE
  5
1761E
  8
0
 10
3577.200570750046154
 20
131.259692411483087
 30
0.0
 11
3577.2005934022549809
 21
133.5566897060195117
 31
0.0
  0
LINE
  5
1761F
  8
0
 10
3578.1655934022551264
 20
133.5566897060195117
 30
0.0
 11
3578.1655933761539927
 21
131.2596924114195076
 31
0.0
  0
ARC
  5
17620
  8
0
 10
3634.5145646685969041
 20
131.2596917711452136
 30
0.0
 40
56.3489712924425987
 50
179.9999993489676058
 51
181.0521148131371945
  0
ARC
  5
17621
  8
0
 10
3578.7196696063551826
 20
133.5862172650195987
 30
0.0
 40
0.0295275590999982
 50
270.0047155014412965
 51
359.0000000000031264
  0
LINE
  5
17622
  8
0
 10
3578.7491926682641861
 20
133.5857019380570136
 30
0.0
 11
3578.7565934022550209
 21
134.0096897060194863
 31
0.0
  0
ARC
  5
17623
  8
0
 10
3576.6465171980539708
 20
133.5862172650195987
 30
0.0
 40
0.029527559099995
 50
180.999999878672412
 51
269.9952844985585898
  0
LINE
  5
17624
  8
0
 10
3576.6169941361440578
 20
133.5857019381195983
 30
0.0
 11
3576.6095934022550864
 21
134.0096897060194863
 31
0.0
  0
ARC
  5
17625
  8
0
 10
3577.6830645882168938
 20
130.1523878661778895
 30
0.0
 40
0.4925610071722272
 50
89.9982468912673141
 51
116.6945076706875
  0
ARC
  5
17626
  8
0
 10
3577.6827866617909422
 20
130.1529405904080079
 30
0.0
 40
0.491942341533338
 50
116.6945075164695993
 51
139.0865555347920122
  0
ARC
  5
17627
  8
0
 10
3577.6821019600070031
 20
130.1535339789766965
 30
0.0
 40
0.4910362915749796
 50
139.0865555347920122
 51
162.3503881906343906
  0
ARC
  5
17628
  8
0
 10
3577.687040990503192
 20
130.1519625179161892
 30
0.0
 40
0.4962192938036191
 50
162.3503881906343906
 51
178.1038622506922877
  0
ARC
  5
17629
  8
0
 10
3577.6831084694940728
 20
130.152387855460006
 30
0.0
 40
0.4925610185020761
 50
63.3054924835303865
 51
90.0033512577844306
  0
ARC
  5
1762A
  8
0
 10
3577.6833863998249399
 20
130.1529405904080079
 30
0.0
 40
0.491942341533338
 50
40.9134444652079523
 51
63.3054924835303865
  0
ARC
  5
1762B
  8
0
 10
3577.6840711016097885
 20
130.1535339789766965
 30
0.0
 40
0.4910362915749796
 50
17.6496118093655987
 51
40.9134444652079523
  0
ARC
  5
1762C
  8
0
 10
3577.6786438508661377
 20
130.1518434349032987
 30
0.0
 40
0.4967206393799533
 50
1.8930253100803971
 51
17.6456267162994287
  0
ARC
  5
1762E
  8
0
 10
3578.1551923052738857
 20
119.8968926293306936
 30
0.0
 40
0.019894779642486
 50
269.696164570219878
 51
0.3038431647161581
  0
LINE
  5
1762F
  8
0
 10
3578.1550868051717771
 20
119.8769981294185953
 30
0.0
 11
3577.211100078950949
 21
119.8769980022204038
 31
0.0
  0
ARC
  5
17630
  8
0
 10
3577.2110864481360295
 20
119.8969971240014019
 30
0.0
 40
0.0199991264261169
 50
179.9974917181930039
 51
270.0390511203924007
  0
LINE
  5
17631
  8
0
 10
3577.1910933653571192
 20
120.4459979995196051
 30
0.0
 11
3577.191093439152155
 21
119.8969979995195985
 31
0.0
  0
LINE
  5
17632
  8
0
 10
3578.1750933653570428
 20
120.4459981321195983
 30
0.0
 11
3578.1750934398610298
 21
119.8969981321196059
 31
0.0
  0
LINE
  5
17633
  8
0
 10
3577.3107883700531602
 20
119.7979979968196034
 30
0.0
 11
3577.2762241599539266
 21
119.7778318004195057
 31
0.0
  0
LINE
  5
17634
  8
0
 10
3577.2762238997552231
 20
119.7778230884194954
 30
0.0
 11
3577.2762238997552231
 21
119.7715715172633963
 31
0.0
  0
LINE
  5
17635
  8
0
 10
3577.2762238997552231
 20
119.7715715172633963
 30
0.0
 11
3577.3291364391971001
 21
119.7407755136947003
 31
0.0
  0
LINE
  5
17636
  8
0
 10
3577.3291364391971001
 20
119.7407755136947003
 30
0.0
 11
3577.3291364397541656
 21
119.736410677119494
 31
0.0
  0
LINE
  5
17637
  8
0
 10
3577.3291364397541656
 20
119.736410677119494
 30
0.0
 11
3577.2784428511549777
 21
119.7068204964194962
 31
0.0
  0
LINE
  5
17638
  8
0
 10
3577.2784428511549777
 20
119.7068204964194962
 30
0.0
 11
3577.2786401813541488
 21
119.7005062743194941
 31
0.0
  0
LINE
  5
17639
  8
0
 10
3577.2786401813541488
 20
119.7005062743194941
 30
0.0
 11
3577.3314321678899432
 21
119.6697264047559059
 31
0.0
  0
LINE
  5
1763A
  8
0
 10
3577.3314321678899432
 20
119.6697264047559059
 30
0.0
 11
3577.3314321684551942
 21
119.6654571774194977
 31
0.0
  0
LINE
  5
1763B
  8
0
 10
3577.3314321684551942
 20
119.6654571774194977
 30
0.0
 11
3577.2806617836549776
 21
119.6358185124196041
 31
0.0
  0
LINE
  5
1763C
  8
0
 10
3577.2806617836549776
 20
119.6358185124196041
 30
0.0
 11
3577.2808596431550541
 21
119.6295035428195064
 31
0.0
  0
LINE
  5
1763D
  8
0
 10
3577.2808596431550541
 20
119.6295035428195064
 30
0.0
 11
3577.3338238097990143
 21
119.5986031169049966
 31
0.0
  0
LINE
  5
1763E
  8
0
 10
3577.3338238097990143
 20
119.5986031169049966
 30
0.0
 11
3577.333823810353806
 21
119.5945600506195063
 31
0.0
  0
LINE
  5
1763F
  8
0
 10
3577.333823810353806
 20
119.5945600506195063
 30
0.0
 11
3577.2828807174541907
 21
119.5648319645194988
 31
0.0
  0
LINE
  5
17640
  8
0
 10
3577.2828807174541907
 20
119.5648319645194988
 30
0.0
 11
3577.2830779023538526
 21
119.558506910319494
 31
0.0
  0
LINE
  5
17641
  8
0
 10
3577.2830779023538526
 20
119.558506910319494
 30
0.0
 11
3577.3357706669971776
 21
119.5277587709479974
 31
0.0
  0
LINE
  5
17642
  8
0
 10
3577.3357706669971776
 20
119.5277587709479974
 30
0.0
 11
3577.3357706675537884
 21
119.5234148514013981
 31
0.0
  0
LINE
  5
17643
  8
0
 10
3577.3357706675537884
 20
119.5234148514013981
 30
0.0
 11
3577.2850990931551678
 21
119.4938310918195015
 31
0.0
  0
LINE
  5
17644
  8
0
 10
3577.3225093528189973
 20
119.4431601484304935
 30
0.0
 11
3577.3458518010538683
 21
119.4199979594844052
 31
0.0
  0
LINE
  5
17645
  8
0
 10
3577.3458518010538683
 20
119.4199979594844052
 30
0.0
 11
3578.0192256204550176
 21
119.4199980502844056
 31
0.0
  0
LINE
  5
17646
  8
0
 10
3578.0192256204550176
 20
119.4199980502844056
 30
0.0
 11
3578.0670382138550849
 21
119.4658020899195066
 31
0.0
  0
LINE
  5
17647
  8
0
 10
3578.0670382138550849
 20
119.4658020899195066
 30
0.0
 11
3578.028195357819186
 21
119.4878899297039965
 31
0.0
  0
LINE
  5
17648
  8
0
 10
3578.028195357819186
 20
119.4878899297039965
 30
0.0
 11
3578.0281953572548446
 21
119.4922808635194968
 31
0.0
  0
LINE
  5
17649
  8
0
 10
3578.0281953572548446
 20
119.4922808635194968
 30
0.0
 11
3578.0808901046548272
 21
119.5230084165195024
 31
0.0
  0
LINE
  5
1764A
  8
0
 10
3578.0808901046548272
 20
119.5230084165195024
 30
0.0
 11
3578.0810874336548295
 21
119.5293226575195007
 31
0.0
  0
LINE
  5
1764B
  8
0
 10
3578.0810874336548295
 20
119.5293226575195007
 30
0.0
 11
3578.0304025080149586
 21
119.5589070208274052
 31
0.0
  0
LINE
  5
1764C
  8
0
 10
3578.0304025080149586
 20
119.5589070208274052
 30
0.0
 11
3578.0304025074538004
 21
119.5632766013577992
 31
0.0
  0
LINE
  5
1764D
  8
0
 10
3578.0304025074538004
 20
119.5632766013577992
 30
0.0
 11
3578.0831092014541355
 21
119.5940162744195021
 31
0.0
  0
LINE
  5
1764E
  8
0
 10
3578.0831092014541355
 20
119.5940162744195021
 30
0.0
 11
3578.0833061370549331
 21
119.6003179263195051
 31
0.0
  0
LINE
  5
1764F
  8
0
 10
3578.0833061370549331
 20
119.6003179263195051
 30
0.0
 11
3578.0325564052182017
 21
119.6299480058303999
 31
0.0
  0
LINE
  5
17650
  8
0
 10
3578.0325564052182017
 20
119.6299480058303999
 30
0.0
 11
3578.0325564046538602
 21
119.634235371427593
 31
0.0
  0
LINE
  5
17651
  8
0
 10
3578.0325564046538602
 20
119.634235371427593
 30
0.0
 11
3578.0853276661550808
 21
119.6650039037194944
 31
0.0
  0
LINE
  5
17652
  8
0
 10
3578.0853276661550808
 20
119.6650039037194944
 30
0.0
 11
3578.0855250382542181
 21
119.6713195216195942
 31
0.0
  0
LINE
  5
17653
  8
0
 10
3578.0855250382542181
 20
119.6713195216195942
 30
0.0
 11
3578.0345844729117744
 21
119.701062783247707
 31
0.0
  0
LINE
  5
17654
  8
0
 10
3578.0345844729117744
 20
119.701062783247707
 30
0.0
 11
3578.0345844723537994
 21
119.7051314477781006
 31
0.0
  0
LINE
  5
17655
  8
0
 10
3578.0345844723537994
 20
119.7051314477781006
 30
0.0
 11
3578.0875460041538645
 21
119.7360037349195068
 31
0.0
  0
LINE
  5
17656
  8
0
 10
3578.0875460041538645
 20
119.7360037349195068
 30
0.0
 11
3578.0877437643548546
 21
119.742332033019494
 31
0.0
  0
LINE
  5
17657
  8
0
 10
3578.0877437643548546
 20
119.742332033019494
 30
0.0
 11
3578.0369040738542026
 21
119.7719946685194969
 31
0.0
  0
LINE
  5
17658
  8
0
 10
3578.0369040738542026
 20
119.7719946685194969
 30
0.0
 11
3578.0369040732539361
 21
119.7761908155195982
 31
0.0
  0
LINE
  5
17659
  8
0
 10
3578.0369040732539361
 20
119.7761908155195982
 30
0.0
 11
3578.0743155882928477
 21
119.7979979969194062
 31
0.0
  0
ARC
  5
1765A
  8
0
 10
3575.3138222626021161
 20
197.1516795102681101
 30
0.0
 40
77.3987382182315145
 50
271.4528580732865066
 51
271.7684909589034987
  0
ARC
  5
1765B
  8
0
 10
3575.1122684163301528
 20
203.679571038649101
 30
0.0
 40
83.929740573096737
 50
271.7684909589034987
 51
271.9412329605739842
  0
ARC
  5
1765C
  8
0
 10
3578.4161314260149993
 20
95.5233520221684245
 30
0.0
 40
24.2418060108832201
 50
91.6223058884206836
 51
92.5699864956864076
  0
ARC
  5
1765D
  8
0
 10
3577.6164039256927936
 20
123.7601753395499031
 30
0.0
 40
4.0063400368097133
 50
271.6223058884207262
 51
276.0178848570158152
  0
ARC
  5
1765E
  8
0
 10
3577.2041160530980051
 20
128.5088629117443872
 30
0.0
 40
8.8016655947913822
 50
270.4885406597309725
 51
273.967841568408403
  0
ARC
  5
1765F
  8
0
 10
3578.336623579165007
 20
112.1815633306810014
 30
0.0
 40
7.5648638145363547
 50
91.885339511213644
 51
93.967841568408403
  0
ARC
  5
17660
  8
0
 10
3576.9903515166129182
 20
132.2114506024674085
 30
0.0
 40
12.5463612996812408
 50
271.5578134008325719
 51
273.76326122859831
  0
ARC
  5
17661
  8
0
 10
3578.8638391479598795
 20
103.7285675389442048
 30
0.0
 40
15.9980704430448792
 50
92.9712392802585867
 51
93.76326122859831
  0
ARC
  5
17662
  8
0
 10
3577.2735726827031613
 20
127.517266886471802
 30
0.0
 40
7.8814515622570296
 50
270.0515356361294153
 51
273.3422023128749174
  0
ARC
  5
17663
  8
0
 10
3575.3296669272940562
 20
160.8040728004959874
 30
0.0
 40
41.2249699360553166
 50
273.3422023128749174
 51
273.8330380795887891
  0
ARC
  5
17664
  8
0
 10
3577.1257246778718581
 20
130.711173338556307
 30
0.0
 40
11.1145185311753796
 50
271.0728218846516029
 51
273.4688407146023792
  0
ARC
  5
17665
  8
0
 10
3577.2426812556382174
 20
128.7817308025364866
 30
0.0
 40
9.1815344803138395
 50
273.4688407146023792
 51
274.9351796918955984
  0
ARC
  5
17666
  8
0
 10
3577.39549435133722
 20
124.3160764341421043
 30
0.0
 40
4.7525788621184279
 50
268.6422340235660045
 51
273.2808008224528749
  0
ARC
  5
17667
  8
0
 10
3576.7087935071558604
 20
136.2954837196907931
 30
0.0
 40
16.751652033095251
 50
273.2808008224528749
 51
274.7065454029649914
  0
ARC
  5
17668
  8
0
 10
3576.9928996697481125
 20
138.490393393986011
 30
0.0
 40
18.9657341636857204
 50
271.0358750759522763
 51
272.3390431309736073
  0
ARC
  5
17669
  8
0
 10
3577.6484537207370522
 20
122.4412613970073949
 30
0.0
 40
2.9032191373826608
 50
272.3390431309736073
 51
277.559773475403972
  0
LINE
  5
1766A
  8
0
 10
3577.3107883700558887
 20
119.7979979968216071
 30
0.0
 11
3578.0743155881250459
 21
119.7979979968216071
 31
0.0
  0
ARC
  5
1766B
  8
0
 10
3578.0532200594911956
 20
119.8180504626648002
 30
0.0
 40
0.020126725613083
 50
180.1493496886662058
 51
265.0766411780248859
  0
LINE
  5
1766C
  8
0
 10
3578.0330934022540532
 20
119.8179979995195055
 30
0.0
 11
3578.0329917432609363
 21
119.8569978670251004
 31
0.0
  0
ARC
  5
1766D
  8
0
 10
3578.0529403956238639
 20
119.8570498661738952
 30
0.0
 40
0.0199487201344676
 50
89.5605372144298855
 51
180.1493496886629089
  0
LINE
  5
1766E
  8
0
 10
3577.3225165264220777
 20
119.4431530302245932
 30
0.0
 11
3577.3380003973538805
 21
119.4524209566196049
 31
0.0
  0
LINE
  5
1766F
  8
0
 10
3577.3380003973538805
 20
119.4524209566196049
 30
0.0
 11
3577.3380003973538805
 21
119.4567268242543037
 31
0.0
  0
LINE
  5
17670
  8
0
 10
3577.3380003973538805
 20
119.4567268242543037
 30
0.0
 11
3577.2853516737991413
 21
119.4876992888555947
 31
0.0
  0
LINE
  5
17671
  8
0
 10
3577.2853516737991413
 20
119.4876992888555947
 30
0.0
 11
3577.2850990931551678
 21
119.4938310918195015
 31
0.0
  0
ARC
  5
17672
  8
0
 10
3577.5331010472341404
 20
117.0154460939127006
 30
0.0
 40
2.490762191863916
 50
91.0343724243143271
 51
95.7143347422856863
  0
ARC
  5
17673
  8
0
 10
3577.2846849073030171
 20
130.7741752780144111
 30
0.0
 40
11.2702094068288705
 50
271.0343724243143129
 51
272.3294202881245951
  0
ARC
  5
17674
  8
0
 10
3578.2783019826570126
 20
106.3480573912047049
 30
0.0
 40
13.1761095371912909
 50
91.3652679291129886
 51
92.3294202881246378
  0
ARC
  5
17675
  8
0
 10
3577.9319539373118459
 20
120.7158466426233048
 30
0.0
 40
1.195859509707464
 50
271.5531014874561038
 51
277.1639054731599003
  0
ARC
  5
17676
  8
0
 10
3577.8796880908798812
 20
120.6044197858415998
 30
0.0
 40
1.122010423619018
 50
271.2606050907467079
 51
277.6058843005210974
  0
ARC
  5
17677
  8
0
 10
3576.8302918674571629
 20
146.2722347579992004
 30
0.0
 40
26.8110768806571009
 50
271.7045189455105856
 51
272.295944532182375
  0
ARC
  5
17678
  8
0
 10
3578.1818174677700881
 20
102.368482091579196
 30
0.0
 40
17.1135095059382287
 50
91.855145425224535
 51
92.5636152063441671
  0
ARC
  5
17679
  8
0
 10
3577.44636534816118
 20
118.7945738750342031
 30
0.0
 40
0.670961616431459
 50
92.5636152063441671
 51
99.2943746512366943
  0
ARC
  5
1767A
  8
0
 10
3577.4768761323289255
 20
117.7019858955402043
 30
0.0
 40
1.7479959607621749
 50
90.3155026844088411
 51
95.0661953496829568
  0
ARC
  5
1767B
  8
0
 10
3577.4154076778891067
 20
128.8646402550403138
 30
0.0
 40
9.4148276390515182
 50
270.3155026844087843
 51
272.0418419611747254
  0
ARC
  5
1767C
  8
0
 10
3577.6736422606431915
 20
126.8920145169462046
 30
0.0
 40
7.4366249997783429
 50
270.5948732392370744
 51
273.0323505134101083
  0
ARC
  5
1767D
  8
0
 10
3577.313071855950966
 20
119.8569459975636988
 30
0.0
 40
0.0200520135318402
 50
0.1485866521543307
 51
89.9384344871963464
  0
LINE
  5
1767E
  8
0
 10
3577.3331238020541605
 20
119.8569979989195957
 30
0.0
 11
3577.3330933961810842
 21
119.8179824129975941
 31
0.0
  0
ARC
  5
1767F
  8
0
 10
3577.3129771012750098
 20
119.818012500476101
 30
0.0
 40
0.0201163174066571
 50
275.7670000052535784
 51
359.9143040876141981
  0
LINE
  5
17680
  8
0
 10
3578.165376866853876
 20
120.4856829089482062
 30
0.0
 11
3578.165376866853876
 21
120.4659979995196011
 31
0.0
  0
LINE
  5
17681
  8
0
 10
3578.165376866853876
 20
120.4659979995196011
 30
0.0
 11
3577.2008099377549115
 21
120.4659979995196011
 31
0.0
  0
LINE
  5
17682
  8
0
 10
3577.2008099377549115
 20
120.4659979995196011
 30
0.0
 11
3577.2008099377549115
 21
120.4856830389195039
 31
0.0
  0
ARC
  5
17683
  8
0
 10
3577.2111211988981267
 20
120.4459867933752975
 30
0.0
 40
0.0200278366762319
 50
92.3350906116913137
 51
179.9679413801981127
  0
ARC
  5
17684
  8
0
 10
3578.155071618319198
 20
120.445989028471601
 30
0.0
 40
0.0200217491068247
 50
0.0260517011722698
 51
87.9528853554307517
  0
ENDSEC
  0
EOF
