  0
SECTION
  2
HEADER
  9
$ACADVER
  1
AC1009
  9
$INSBASE
 10
3558.1836530611899434
 20
138.6571665128807069
 30
0.0
  9
$EXTMIN
 10
3546.4450181067340964
 20
137.5749737442793048
 30
-0.0015258207003583
  9
$EXTMAX
 10
3569.8671948536721175
 20
139.7391413670507063
 30
0.0000000349246037
  9
$LIMMIN
 10
0.0
 20
0.0
  9
$LIMMAX
 10
11.6929133858000007
 20
8.2677165353999982
  9
$ORTHOMODE
 70
     1
  9
$REGENMODE
 70
     1
  9
$FILLMODE
 70
     1
  9
$QTEXTMODE
 70
     0
  9
$MIRRTEXT
 70
     0
  9
$DRAGMODE
 70
     2
  9
$LTSCALE
 40
0.6431102362
  9
$OSMODE
 70
  4095
  9
$ATTMODE
 70
     1
  9
$TEXTSIZE
 40
0.2
  9
$TRACEWID
 40
0.05
  9
$TEXTSTYLE
  7
STANDARD
  9
$CLAYER
  8
0
  9
$CELTYPE
  6
BYLAYER
  9
$CECOLOR
 62
   256
  9
$DIMSCALE
 40
1.0
  9
$DIMASZ
 40
0.1875
  9
$DIMEXO
 40
0.0625
  9
$DIMDLI
 40
0.4443307087
  9
$DIMRND
 40
0.0
  9
$DIMDLE
 40
0.0
  9
$DIMEXE
 40
0.125
  9
$DIMTP
 40
0.01
  9
$DIMTM
 40
0.01
  9
$DIMTXT
 40
2.0
  9
$DIMCEN
 40
0.1052362205
  9
$DIMTSZ
 40
0.0
  9
$DIMTOL
 70
     1
  9
$DIMLIM
 70
     0
  9
$DIMTIH
 70
     1
  9
$DIMTOH
 70
     1
  9
$DIMSE1
 70
     0
  9
$DIMSE2
 70
     0
  9
$DIMTAD
 70
     0
  9
$DIMZIN
 70
     0
  9
$DIMBLK
  1

  9
$DIMASO
 70
     1
  9
$DIMSHO
 70
     1
  9
$DIMPOST
  1
\X
  9
$DIMAPOST
  1

  9
$DIMALT
 70
     1
  9
$DIMALTD
 70
     2
  9
$DIMALTF
 40
25.3999999999999986
  9
$DIMLFAC
 40
1.0
  9
$DIMTOFL
 70
     0
  9
$DIMTVP
 40
0.0
  9
$DIMTIX
 70
     0
  9
$DIMSOXD
 70
     0
  9
$DIMSAH
 70
     0
  9
$DIMBLK1
  1

  9
$DIMBLK2
  1

  9
$DIMSTYLE
  2
STANDARD
  9
$DIMCLRD
 70
     0
  9
$DIMCLRE
 70
     0
  9
$DIMCLRT
 70
     0
  9
$DIMTFAC
 40
1.0
  9
$DIMGAP
 40
0.09
  9
$LUNITS
 70
     2
  9
$LUPREC
 70
     4
  9
$SKETCHINC
 40
0.1
  9
$FILLETRAD
 40
0.0
  9
$AUNITS
 70
     0
  9
$AUPREC
 70
     0
  9
$MENU
  1
.
  9
$ELEVATION
 40
0.0
  9
$PELEVATION
 40
0.0
  9
$THICKNESS
 40
0.0
  9
$LIMCHECK
 70
     0
  9
$BLIPMODE
 70
     0
  9
$CHAMFERA
 40
0.0
  9
$CHAMFERB
 40
0.0
  9
$SKPOLY
 70
     0
  9
$TDCREATE
 40
2458060.468368056230247
  9
$TDUPDATE
 40
2459426.5838310178369284
  9
$TDINDWG
 40
0.3616621528
  9
$TDUSRTIMER
 40
0.3616621528
  9
$USRTIMER
 70
     1
  9
$ANGBASE
 50
0.0
  9
$ANGDIR
 70
     0
  9
$PDMODE
 70
     0
  9
$PDSIZE
 40
0.3125
  9
$PLINEWID
 40
0.0
  9
$COORDS
 70
     1
  9
$SPLFRAME
 70
     0
  9
$SPLINETYPE
 70
     6
  9
$SPLINESEGS
 70
     8
  9
$ATTDIA
 70
     1
  9
$ATTREQ
 70
     1
  9
$HANDLING
 70
     1
  9
$HANDSEED
  5
17A82
  9
$SURFTAB1
 70
     6
  9
$SURFTAB2
 70
     6
  9
$SURFTYPE
 70
     6
  9
$SURFU
 70
     6
  9
$SURFV
 70
     6
  9
$UCSNAME
  2

  9
$UCSORG
 10
0.0
 20
0.0
 30
0.0
  9
$UCSXDIR
 10
1.0
 20
0.0
 30
0.0
  9
$UCSYDIR
 10
0.0
 20
1.0
 30
0.0
  9
$PUCSNAME
  2

  9
$PUCSORG
 10
0.0
 20
0.0
 30
0.0
  9
$PUCSXDIR
 10
1.0
 20
0.0
 30
0.0
  9
$PUCSYDIR
 10
0.0
 20
1.0
 30
0.0
  9
$USERI1
 70
     0
  9
$USERI2
 70
     0
  9
$USERI3
 70
     0
  9
$USERI4
 70
     0
  9
$USERI5
 70
     0
  9
$USERR1
 40
0.0
  9
$USERR2
 40
0.0
  9
$USERR3
 40
0.0
  9
$USERR4
 40
0.0
  9
$USERR5
 40
0.0
  9
$WORLDVIEW
 70
     1
  9
$SHADEDGE
 70
     3
  9
$SHADEDIF
 70
    70
  9
$TILEMODE
 70
     1
  9
$MAXACTVP
 70
    64
  9
$PLIMCHECK
 70
     0
  9
$PEXTMIN
 10
1.0000000000000000E+20
 20
1.0000000000000000E+20
 30
1.0000000000000000E+20
  9
$PEXTMAX
 10
-1.0000000000000000E+20
 20
-1.0000000000000000E+20
 30
-1.0000000000000000E+20
  9
$PLIMMIN
 10
0.0
 20
0.0
  9
$PLIMMAX
 10
12.0
 20
9.0
  9
$UNITMODE
 70
     0
  9
$VISRETAIN
 70
     1
  9
$PLINEGEN
 70
     0
  9
$PSLTSCALE
 70
     1
  0
ENDSEC
  0
SECTION
  2
TABLES
  0
TABLE
  2
VPORT
 70
     1
  0
VPORT
  2
*ACTIVE
 70
     0
 10
0.0
 20
0.0
 11
1.0
 21
1.0
 12
-245.3879609026099047
 22
12.6617953589151409
 13
0.0
 23
0.0
 14
1.0
 24
1.0
 15
0.0
 25
0.0
 16
0.0
 26
0.0
 36
17.1152628219792007
 17
3803.5440673828129547
 27
125.9952621967499056
 37
0.0
 40
9.3638110195534416
 41
2.5092105263157891
 42
50.0
 43
0.0
 44
0.0
 50
0.0
 51
0.0
 71
     0
 72
   100
 73
     1
 74
     1
 75
     0
 76
     0
 77
     0
 78
     0
  0
ENDTAB
  0
TABLE
  2
LTYPE
 70
     2
  0
LTYPE
  2
CONTINUOUS
 70
     0
  3
Solid line
 72
    65
 73
     0
 40
0.0
  0
LTYPE
  2
PHANTOM2
 70
     0
  3
___ _ _ ___ _ _ ___ _ _ ___ _ _
 72
    65
 73
     6
 40
1.25
 49
0.625
 49
-0.125
 49
0.125
 49
-0.125
 49
0.125
 49
-0.125
  0
ENDTAB
  0
TABLE
  2
LAYER
 70
     2
  0
LAYER
  2
0
 70
     0
 62
   255
  6
CONTINUOUS
  0
LAYER
  2
DEFPOINTS
 70
     0
 62
     7
  6
CONTINUOUS
  0
ENDTAB
  0
TABLE
  2
STYLE
 70
     1
  0
STYLE
  2
STANDARD
 70
     0
 40
0.0
 41
0.8
 50
0.0
 71
     0
 42
0.2
  3
txt
  4

  0
ENDTAB
  0
TABLE
  2
VIEW
 70
     0
  0
ENDTAB
  0
TABLE
  2
UCS
 70
     0
  0
ENDTAB
  0
TABLE
  2
APPID
 70
     9
  0
APPID
  2
ACAD
 70
     0
  0
APPID
  2
ACAD_MLEADERVER
 70
     0
  0
APPID
  2
ACAD_EXEMPT_FROM_CAD_STANDARDS
 70
     0
  0
APPID
  2
ACAD_NAV_VCDISPLAY
 70
     0
  0
APPID
  2
ACAECLAYERSTANDARD
 70
     0
  0
APPID
  2
ACCMTRANSPARENCY
 70
     0
  0
APPID
  2
ACAD_DSTYLE_DIMJAG
 70
     0
  0
APPID
  2
ACAD_DSTYLE_DIMTALN
 70
     0
  0
APPID
  2
ACDBATTR
 70
     0
  0
ENDTAB
  0
TABLE
  2
DIMSTYLE
 70
     1
  0
DIMSTYLE
  2
STANDARD
 70
     0
  3

  4

  5

  6

  7

 40
1.0
 41
0.1875
 42
0.0625
 43
0.38
 44
0.125
 45
0.0
 46
0.0
 47
0.01
 48
0.01
140
0.15625
141
0.09
142
0.0
143
25.3999999999999986
144
1.0
145
0.0
146
1.0
147
0.09
 71
     1
 72
     0
 73
     1
 74
     1
 75
     0
 76
     0
 77
     0
 78
     4
170
     0
171
     2
172
     0
173
     0
174
     0
175
     0
176
     0
177
     0
178
     0
  0
ENDTAB
  0
ENDSEC
  0
SECTION
  2
BLOCKS
  0
BLOCK
  8
0
  2
$MODEL_SPACE
 70
     0
 10
0.0
 20
0.0
 30
0.0
  3
$MODEL_SPACE
  1

  0
ENDBLK
  5
21
  8
0
  0
BLOCK
 67
     1
  8
0
  2
$PAPER_SPACE
 70
     0
 10
0.0
 20
0.0
 30
0.0
  3
$PAPER_SPACE
  1

  0
ENDBLK
  5
1D
 67
     1
  8
0
  0
BLOCK
  8
0
  2
_FILLED
 70
     0
 10
0.0
 20
0.0
 30
0.0
  3
_FILLED
  1

  0
SOLID
  5
124E8
  8
0
  6
BYBLOCK
 62
     0
 10
0.0
 20
0.0
 30
0.0
 11
-1.0
 21
0.1666666667
 31
0.0
 12
-1.0
 22
-0.1666666667
 32
0.0
 13
-1.0
 23
-0.1666666667
 33
0.0
  0
ENDBLK
  5
124E9
  8
0
  6
BYBLOCK
 62
     0
  0
ENDSEC
  0
SECTION
  2
ENTITIES
  0
ATTDEF
  5
16FAB
  8
DEFPOINTS
 10
3558.1840164776840538
 20
138.6612506939675882
 30
0.0
 40
0.001
  1
K-26305
  3

  2
MODELNUMBER
 70
     0
1001
ACDBATTR
1070
     0
1070
     1
  0
ATTDEF
  5
16FAC
  8
DEFPOINTS
 10
3558.1840164776840538
 20
138.6595840273010083
 30
0.0
 40
0.001
  1

  3

  2
TRADENAME
 70
     0
1001
ACDBATTR
1070
     0
1070
     1
  0
ATTDEF
  5
16FAD
  8
DEFPOINTS
 10
3558.1840164776840538
 20
138.6579173606342863
 30
0.0
 40
0.001
  1
SHOWER ARM
  3

  2
PRODUCT
 70
     0
1001
ACDBATTR
1070
     0
1070
     1
  0
ARC
  5
17877
  8
0
 10
3557.5931530611901508
 20
138.6571665128836059
 30
0.0
 40
1.0439999999999801
 50
142.4892467821273101
 51
180.0
  0
ARC
  5
17878
  8
0
 10
3557.5931530611901508
 20
138.6571665128834923
 30
0.0
 40
1.0440000000001961
 50
95.7199710773953569
 51
142.4892467821273101
  0
ARC
  5
17879
  8
0
 10
3558.1836530611899434
 20
133.5162085996672943
 30
0.0
 40
6.21866807201725
 50
83.5873573127254446
 51
96.4126426872745554
  0
ARC
  5
1787A
  8
0
 10
3558.7741530611901908
 20
138.6571665128836059
 30
0.0
 40
1.0439999999999801
 50
0.0
 51
37.510753217872697
  0
ARC
  5
1787B
  8
0
 10
3558.7741530611901908
 20
138.6571665128834923
 30
0.0
 40
1.0440000000001961
 50
37.510753217872697
 51
84.2800289226046289
  0
LINE
  5
1787C
  8
0
 10
3556.672364094788918
 20
139.1491665132836033
 30
0.0
 11
3556.2036221919897798
 21
139.1491665131835873
 31
0.0
  0
ARC
  5
1787D
  8
0
 10
3556.203622191994782
 20
139.1273076216361915
 30
0.0
 40
0.0218588915474065
 50
90.0000000122198429
 51
140.7125207138371934
  0
ARC
  5
1787E
  8
0
 10
3556.2260567573798653
 20
139.1123782034617875
 30
0.0
 40
0.0487483719714847
 50
143.8296189946576931
 51
170.3171043597903918
  0
ARC
  5
1787F
  8
0
 10
3556.8135251542789774
 20
139.0030610865964036
 30
0.0
 40
0.6462961161666281
 50
169.5235997639960033
 51
176.4422670765366092
  0
ARC
  5
17880
  8
0
 10
3564.7946570170129235
 20
138.6025215536351993
 30
0.0
 40
8.6374296619444042
 50
177.0757434050790096
 51
179.637514104844314
  0
LINE
  5
17881
  8
0
 10
3547.0691507033370726
 20
139.1491665128835962
 30
0.0
 11
3556.1058539055388792
 21
139.1491665128835962
 31
0.0
  0
ARC
  5
17882
  8
0
 10
3556.1049497628150675
 20
139.1272831723798049
 30
0.0
 40
0.0219020105394768
 50
66.2747829552441772
 51
87.6340853824539039
  0
ARC
  5
17883
  8
0
 10
3556.1045199573850368
 20
139.1263052179675128
 30
0.0
 40
0.0229702462529441
 50
33.1677251193148734
 51
66.2747829552448451
  0
LINE
  5
17884
  8
0
 10
3556.1447133140900405
 20
139.1394493119836113
 30
0.0
 11
3556.1250586555888731
 21
139.139449977383606
 31
0.0
  0
ARC
  5
17885
  8
0
 10
3556.1250586014148212
 20
139.1378497790990991
 30
0.0
 40
0.0016001982854274
 50
89.9980602760145416
 51
121.1679137215635933
  0
ARC
  5
17886
  8
0
 10
3556.1261741999119295
 20
139.1360053767899956
 30
0.0
 40
0.0037557445925213
 50
121.1679137215660944
 51
130.2460337604076983
  0
ARC
  5
17887
  8
0
 10
3556.1271088519520163
 20
139.1349011662175883
 30
0.0
 40
0.0052024150542657
 50
130.2460337603814935
 51
157.5557998711821028
  0
ARC
  5
17888
  8
0
 10
3556.189381460093955
 20
139.1091780308341015
 30
0.0
 40
0.0725786528443303
 50
157.5557998711821028
 51
167.1493308964921027
  0
ARC
  5
17889
  8
0
 10
3556.7119970833450679
 20
139.0165555523138892
 30
0.0
 40
0.603262236559802
 50
169.6130965796818089
 51
176.0509702231121878
  0
ARC
  5
1788A
  8
0
 10
3561.1055569200170794
 20
138.7180952209548934
 30
0.0
 40
5.0069474885780147
 50
176.1062232856372987
 51
179.7618465864013046
  0
ARC
  5
1788B
  8
0
 10
3564.6422996208980294
 20
138.6574035279668067
 30
0.0
 40
8.5440356843118082
 50
179.4534354653725927
 51
180.0015894086180879
  0
ARC
  5
1788C
  8
0
 10
3547.1040153729659323
 20
138.6554371870803948
 30
0.0
 40
0.4949587784314558
 50
94.0392334351110151
 51
179.7998151041452957
  0
LINE
  5
1788D
  8
0
 10
3556.1684745945899522
 20
139.0431665128836016
 30
0.0
 11
3556.1404779804897771
 21
139.0431665128836016
 31
0.0
  0
ARC
  5
1788E
  8
0
 10
3556.1292154931938967
 20
139.038773887287789
 30
0.0
 40
0.0202404726264973
 50
12.5341741529750692
 51
32.441328323410751
  0
ARC
  5
1788F
  8
0
 10
3556.1442213110208286
 20
139.0483120589840098
 30
0.0
 40
0.0024598289952711
 50
32.4413283234384693
 51
66.415527645011295
  0
ARC
  5
17890
  8
0
 10
3556.1447037531020214
 20
139.0493094367141964
 30
0.0
 40
0.0013534218413712
 50
68.2401257959760983
 51
129.3834176039044905
  0
ARC
  5
17891
  8
0
 10
3556.14774298910379
 20
139.0459041367597877
 30
0.0
 40
0.0059168528837839
 50
131.2080157548375041
 51
146.5833855047607983
  0
ARC
  5
17892
  8
0
 10
3556.1649204063601246
 20
139.0370857932117872
 30
0.0
 40
0.0251987123906183
 50
151.3625172489558963
 51
165.9808866231485922
  0
ARC
  5
17893
  8
0
 10
3556.4421676458691763
 20
138.975934558161299
 30
0.0
 40
0.3091009911013308
 50
167.4328153520247895
 51
175.3209385506540059
  0
ARC
  5
17894
  8
0
 10
3558.4891894413408409
 20
138.7951378801157887
 30
0.0
 40
2.3640858704373868
 50
175.0007855532105907
 51
178.3712070674170889
  0
ARC
  5
17895
  8
0
 10
3553.5407346691381463
 20
138.8001322976085987
 30
0.0
 40
2.5860722713387738
 50
356.8309028623920085
 51
1.3782570853038201
  0
ARC
  5
17896
  8
0
 10
3561.6292770209920491
 20
138.6861471629786138
 30
0.0
 40
5.5116282852665206
 50
175.9343541940303908
 51
180.3012678837280021
  0
ARC
  5
17897
  8
0
 10
3556.494478902406172
 20
139.0511195889519058
 30
0.0
 40
0.3638757086217164
 50
168.6632670311566073
 51
175.9343541940303908
  0
ARC
  5
17898
  8
0
 10
3556.2261250118658609
 20
139.1049209246357918
 30
0.0
 40
0.0901817293506839
 50
160.2321070746830003
 51
168.6632670311566073
  0
ARC
  5
17899
  8
0
 10
3556.1504264773211617
 20
139.1321261659417132
 30
0.0
 40
0.0097429744697644
 50
136.4660714128160919
 51
160.2321070746876046
  0
ARC
  5
1789A
  8
0
 10
3556.1447933843628562
 20
139.1374781147804924
 30
0.0
 40
0.0019728333740964
 50
92.3336494928488776
 51
136.4660714128364134
  0
ARC
  5
1789B
  8
0
 10
3557.5931530611901508
 20
138.6571665128836059
 30
0.0
 40
0.9649999999999812
 50
149.3465235100476036
 51
180.0
  0
ARC
  5
1789C
  8
0
 10
3557.5931530611901508
 20
138.6571665128834923
 30
0.0
 40
0.9650000000001593
 50
95.7199710774214765
 51
149.3465235100476036
  0
ARC
  5
1789D
  8
0
 10
3558.1836530611899434
 20
132.761912275722409
 30
0.0
 40
6.8897542371618226
 50
84.2800289225785662
 51
95.7199710774214765
  0
ARC
  5
1789E
  8
0
 10
3558.7741530611901908
 20
138.6571665128834923
 30
0.0
 40
0.965000000000158
 50
30.6534764899523609
 51
84.2800289225785662
  0
ARC
  5
1789F
  8
0
 10
3558.7741530611901908
 20
138.6571665128836059
 30
0.0
 40
0.9649999999999778
 50
0.0
 51
30.6534764899523609
  0
ARC
  5
178A0
  8
0
 10
3557.5931530611901508
 20
138.6571665128836059
 30
0.0
 40
1.0439999999999801
 50
180.0
 51
217.5107532178726899
  0
ARC
  5
178A1
  8
0
 10
3557.5931530611901508
 20
138.6571665128836912
 30
0.0
 40
1.0440000000001961
 50
217.5107532178726899
 51
264.2800289226046857
  0
ARC
  5
178A2
  8
0
 10
3558.1836530611899434
 20
143.7981244251895987
 30
0.0
 40
6.2186680711126847
 50
263.5873573117816022
 51
276.4126426882182841
  0
ARC
  5
178A3
  8
0
 10
3558.7741530611901908
 20
138.6571665128836059
 30
0.0
 40
1.0439999999999801
 50
322.4892467821272817
 51
0.0
  0
ARC
  5
178A4
  8
0
 10
3558.7741530611901908
 20
138.6571665128836912
 30
0.0
 40
1.0440000000001961
 50
275.7199710773953143
 51
322.4892467821272817
  0
LINE
  5
178A5
  8
0
 10
3556.672364094788918
 20
138.1651665124836086
 30
0.0
 11
3556.2036221919897798
 21
138.1651665125835962
 31
0.0
  0
ARC
  5
178A6
  8
0
 10
3556.203622191994782
 20
138.187025404130992
 30
0.0
 40
0.0218588915474065
 50
219.2874792861628066
 51
269.999999987780086
  0
ARC
  5
178A7
  8
0
 10
3556.2260567573798653
 20
138.2019548223053107
 30
0.0
 40
0.0487483719714847
 50
189.6828956402096082
 51
216.1703810053423069
  0
ARC
  5
178A8
  8
0
 10
3556.8135251542789774
 20
138.3112719391706946
 30
0.0
 40
0.6462961161666281
 50
183.5577329234633908
 51
190.4764002360039967
  0
ARC
  5
178A9
  8
0
 10
3564.7946570170129235
 20
138.7118114721318989
 30
0.0
 40
8.6374296619444042
 50
180.3624858951540091
 51
182.9242565949209904
  0
LINE
  5
178AA
  8
0
 10
3547.0691507033370726
 20
138.1651665128835873
 30
0.0
 11
3556.6723534087141161
 21
138.1651665128835873
 31
0.0
  0
ARC
  5
178AB
  8
0
 10
3556.1049497628150675
 20
138.187049853387407
 30
0.0
 40
0.0219020105394768
 50
272.3659146175460819
 51
293.7252170447558228
  0
ARC
  5
178AC
  8
0
 10
3556.1045199573850368
 20
138.1880278077996991
 30
0.0
 40
0.0229702462529441
 50
293.7252170447551975
 51
326.8322748806851905
  0
LINE
  5
178AD
  8
0
 10
3556.1447133140900405
 20
138.1748837137836006
 30
0.0
 11
3556.1250586555888731
 21
138.1748830483836059
 31
0.0
  0
ARC
  5
178AE
  8
0
 10
3556.1250586014148212
 20
138.1764832466681128
 30
0.0
 40
0.0016001982854274
 50
238.832086278436492
 51
270.0019397239854015
  0
ARC
  5
178AF
  8
0
 10
3556.1261741999119295
 20
138.1783276489771026
 30
0.0
 40
0.0037557445925213
 50
229.7539662395923017
 51
238.8320862784339056
  0
ARC
  5
178B0
  8
0
 10
3556.1271088519520163
 20
138.1794318595495952
 30
0.0
 40
0.0052024150542657
 50
202.4442001288178119
 51
229.7539662396185065
  0
ARC
  5
178B1
  8
0
 10
3556.189381460093955
 20
138.2051549949331104
 30
0.0
 40
0.0725786528443303
 50
192.8506691035078973
 51
202.4442001288178119
  0
ARC
  5
178B2
  8
0
 10
3556.7119970833450679
 20
138.297777473453209
 30
0.0
 40
0.603262236559802
 50
183.9490297768876985
 51
190.3869034203181059
  0
ARC
  5
178B3
  8
0
 10
3561.1055569200170794
 20
138.5962378048122901
 30
0.0
 40
5.0069474885780147
 50
180.2381534135986954
 51
183.8937767143627013
  0
ARC
  5
178B4
  8
0
 10
3564.6422996208980294
 20
138.6569294978004052
 30
0.0
 40
8.5440356843118082
 50
179.9984105913817984
 51
180.5465645346272936
  0
ARC
  5
178B5
  8
0
 10
3547.1040153729659323
 20
138.6588958386867034
 30
0.0
 40
0.4949587784314592
 50
180.200184895856296
 51
265.9607665648890134
  0
LINE
  5
178B6
  8
0
 10
3556.1684745945899522
 20
138.2711665128836103
 30
0.0
 11
3556.1404779804897771
 21
138.2711665128836103
 31
0.0
  0
ARC
  5
178B7
  8
0
 10
3556.1292154931938967
 20
138.2755591384793092
 30
0.0
 40
0.0202404726264973
 50
327.5586716765878919
 51
347.4658258470249166
  0
ARC
  5
178B8
  8
0
 10
3556.1442213110208286
 20
138.2660209667830884
 30
0.0
 40
0.0024598289952711
 50
293.5844723549886908
 51
327.5586716765615165
  0
ARC
  5
178B9
  8
0
 10
3556.1447037531020214
 20
138.2650235890529018
 30
0.0
 40
0.0013534218413712
 50
230.6165823960955095
 51
291.7598742040239017
  0
ARC
  5
178BA
  8
0
 10
3556.14774298910379
 20
138.2684288890073958
 30
0.0
 40
0.0059168528837839
 50
213.4166144952392017
 51
228.7919842451624959
  0
ARC
  5
178BB
  8
0
 10
3556.1649204063601246
 20
138.277247232555311
 30
0.0
 40
0.0251987123906183
 50
194.0191133768512941
 51
208.63748275104399
  0
ARC
  5
178BC
  8
0
 10
3556.4421676458691763
 20
138.3383984676059129
 30
0.0
 40
0.3091009911013308
 50
184.6790614493444025
 51
192.5671846479750968
  0
ARC
  5
178BD
  8
0
 10
3558.4891894413408409
 20
138.5191951456513948
 30
0.0
 40
2.3640858704373868
 50
181.6287929325829111
 51
184.9992144467894093
  0
ARC
  5
178BE
  8
0
 10
3553.5407346691381463
 20
138.5142007281586132
 30
0.0
 40
2.5860722713387738
 50
358.621742914696199
 51
3.1690971376079902
  0
ARC
  5
178BF
  8
0
 10
3561.6292770209920491
 20
138.6281858627885128
 30
0.0
 40
5.5116282852665206
 50
179.6987321162719979
 51
184.0656458059694955
  0
ARC
  5
178C0
  8
0
 10
3556.494478902406172
 20
138.2632134368153061
 30
0.0
 40
0.3638757086217164
 50
184.0656458059694955
 51
191.3367329688433074
  0
ARC
  5
178C1
  8
0
 10
3556.2261250118658609
 20
138.2094121011313916
 30
0.0
 40
0.0901817293506839
 50
191.3367329688433074
 51
199.7678929253169997
  0
ARC
  5
178C2
  8
0
 10
3556.1504264773211617
 20
138.1822068598254134
 30
0.0
 40
0.0097429744697644
 50
199.7678929253123101
 51
223.5339285871839081
  0
ARC
  5
178C3
  8
0
 10
3556.1447933416111482
 20
138.1768548509022025
 30
0.0
 40
0.0019727609953294
 50
223.5335187137536082
 51
267.6750869626063718
  0
ARC
  5
178C4
  8
0
 10
3557.5931530611901508
 20
138.6571665128836059
 30
0.0
 40
0.9649999999999812
 50
180.0
 51
210.6534764899523964
  0
ARC
  5
178C5
  8
0
 10
3557.5931530611901508
 20
138.6571665128836912
 30
0.0
 40
0.9650000000001593
 50
210.6534764899523964
 51
264.2800289225784809
  0
ARC
  5
178C6
  8
0
 10
3558.1836530611899434
 20
144.5524207500446892
 30
0.0
 40
6.8897542371618226
 50
264.2800289225784809
 51
275.7199710774214054
  0
ARC
  5
178C7
  8
0
 10
3558.7741530611901908
 20
138.6571665128836912
 30
0.0
 40
0.965000000000158
 50
275.7199710774214054
 51
329.3465235100475752
  0
ARC
  5
178C8
  8
0
 10
3558.7741530611901908
 20
138.6571665128836059
 30
0.0
 40
0.9649999999999778
 50
329.3465235100475752
 51
0.0
  0
ARC
  5
178C9
  8
0
 10
3558.7741530611901908
 20
138.6571665128836059
 30
0.0
 40
1.0439999999999801
 50
0.0
 51
37.510753217872697
  0
ARC
  5
178CA
  8
0
 10
3558.7741530611901908
 20
138.6571665128836059
 30
0.0
 40
0.9649999999999812
 50
0.0
 51
30.6534764899523609
  0
ARC
  5
178CB
  8
0
 10
3558.7741530611901908
 20
138.6571665128836059
 30
0.0
 40
1.0439999999999801
 50
322.4892467821272817
 51
0.0
  0
ARC
  5
178CC
  8
0
 10
3558.7741530611901908
 20
138.6571665128836059
 30
0.0
 40
0.9649999999999812
 50
329.3465235100475752
 51
0.0
  0
LINE
  5
178CD
  8
0
 10
3559.6932725684960133
 20
139.1491665132836033
 30
0.0
 11
3560.1620144712960609
 21
139.1491665131835873
 31
0.0
  0
LINE
  5
178CE
  8
0
 10
3569.2981550781228179
 20
139.1491665128835962
 30
0.0
 11
3560.2597827577469616
 21
139.1491665128835962
 31
0.0
  0
LINE
  5
178CF
  8
0
 10
3560.1637114992131501
 20
139.1491665128835962
 30
0.0
 11
3559.6932832545730889
 21
139.1491665128835962
 31
0.0
  0
ARC
  5
178D0
  8
0
 10
3569.2632904084948677
 20
138.6554371870803948
 30
0.0
 40
0.4949587784314558
 50
0.2001848958547189
 51
85.9607665648889991
  0
LINE
  5
178D1
  8
0
 10
3559.6932725684960133
 20
138.1651665124836086
 30
0.0
 11
3560.1620144712960609
 21
138.1651665125835962
 31
0.0
  0
LINE
  5
178D2
  8
0
 10
3569.2981550781228179
 20
138.1651665128835873
 30
0.0
 11
3560.2597827577469616
 21
138.1651665128835873
 31
0.0
  0
LINE
  5
178D3
  8
0
 10
3560.1620180927998263
 20
138.1651665128835873
 30
0.0
 11
3559.6932832545730889
 21
138.1651665128835873
 31
0.0
  0
ARC
  5
178D4
  8
0
 10
3569.2632904084948677
 20
138.6588958386867034
 30
0.0
 40
0.4949587784314592
 50
274.0392334351109866
 51
359.799815104143704
  0
ARC
  5
178D5
  8
0
 10
3556.144616819517978
 20
139.1374560872297934
 30
0.0
 40
0.0019955590999278
 50
45.6733713206725298
 51
87.2284015664216668
  0
ARC
  5
178D6
  8
0
 10
3556.1408550997239217
 20
139.1336048921791928
 30
0.0
 40
0.0073790745990265
 50
28.65392157116014
 51
45.6733713206668384
  0
ARC
  5
178D7
  8
0
 10
3556.1208192580238574
 20
139.1226565230358858
 30
0.0
 40
0.0302111077876147
 50
9.2519060966766205
 51
28.6539215711615789
  0
ARC
  5
178D8
  8
0
 10
3555.7933315266031968
 20
139.0517961397571014
 30
0.0
 40
0.3652404746849443
 50
5.44718309355979
 51
11.9646909804380801
  0
ARC
  5
178D9
  8
0
 10
3554.8214887516010094
 20
138.9454968612627113
 30
0.0
 40
1.3428538304962121
 50
4.170971112236864
 51
6.0259317931351761
  0
ARC
  5
178DA
  8
0
 10
3556.144616819517978
 20
138.1768769385373048
 30
0.0
 40
0.0019955590999278
 50
272.7715984335782764
 51
314.3266286793274844
  0
ARC
  5
178DB
  8
0
 10
3556.1408550997239217
 20
138.1807281335879907
 30
0.0
 40
0.0073790745990265
 50
314.3266286793331119
 51
331.3460784288399168
  0
ARC
  5
178DC
  8
0
 10
3556.1208192580238574
 20
138.1916765027312124
 30
0.0
 40
0.0302111077876147
 50
331.346078428838382
 51
350.7480939033233085
  0
ARC
  5
178DD
  8
0
 10
3555.7933315266031968
 20
138.2625368860101105
 30
0.0
 40
0.3652404746849443
 50
348.0353090195619075
 51
354.5528169064402277
  0
ARC
  5
178DE
  8
0
 10
3554.8214887516010094
 20
138.3688361645045006
 30
0.0
 40
1.3428538304962121
 50
353.9740682068647857
 51
355.8290288877631156
  0
ARC
  5
178DF
  8
0
 10
3560.1620144712919682
 20
139.1273076216361915
 30
0.0
 40
0.0218588915474065
 50
39.2874792861627782
 51
89.9999999877801571
  0
ARC
  5
178E0
  8
0
 10
3560.1395799059059755
 20
139.1123782034617875
 30
0.0
 40
0.0487483719714847
 50
9.6828956402096082
 51
36.1703810053423069
  0
ARC
  5
178E1
  8
0
 10
3559.5521115090077728
 20
139.0030610865964036
 30
0.0
 40
0.6462961161666281
 50
3.557732923463389
 51
10.4764002360040092
  0
ARC
  5
178E2
  8
0
 10
3546.4040305345570232
 20
138.3964574430642926
 30
0.0
 40
13.8082841127728297
 50
1.0818445568978221
 51
2.6844218731858822
  0
ARC
  5
178E3
  8
0
 10
3560.2606869004707733
 20
139.1272831723798049
 30
0.0
 40
0.0219020105394768
 50
92.3659146175461245
 51
113.7252170447557944
  0
ARC
  5
178E4
  8
0
 10
3560.2611167059008039
 20
139.1263052179675128
 30
0.0
 40
0.0229702462529441
 50
113.7252170447550981
 51
146.8322748806851052
  0
LINE
  5
178E5
  8
0
 10
3560.2209233491958003
 20
139.1394493119836113
 30
0.0
 11
3560.2405780076969677
 21
139.139449977383606
 31
0.0
  0
ARC
  5
178E6
  8
0
 10
3560.2405780618710196
 20
139.1378497790990991
 30
0.0
 40
0.0016001982854274
 50
58.8320862784364422
 51
90.0019397239854584
  0
ARC
  5
178E7
  8
0
 10
3560.2394624633739113
 20
139.1360053767899956
 30
0.0
 40
0.0037557445925213
 50
49.753966239591243
 51
58.8320862784339127
  0
ARC
  5
178E8
  8
0
 10
3560.2385278113338245
 20
139.1349011662175883
 30
0.0
 40
0.0052024150542657
 50
22.4442001288178687
 51
49.7539662396184923
  0
ARC
  5
178E9
  8
0
 10
3560.1762552031918858
 20
139.1091780308341015
 30
0.0
 40
0.0725786528443303
 50
12.8506691035079097
 51
22.4442001288178687
  0
ARC
  5
178EA
  8
0
 10
3559.6536395799407728
 20
139.0165555523138892
 30
0.0
 40
0.603262236559802
 50
3.9490297768878042
 51
10.3869034203181201
  0
ARC
  5
178EB
  8
0
 10
3555.2600797432701256
 20
138.7180952209548934
 30
0.0
 40
5.0069474885780147
 50
0.2381534135987017
 51
3.8937767143627191
  0
ARC
  5
178EC
  8
0
 10
3551.7233370423878114
 20
138.6574035279668067
 30
0.0
 40
8.5440356843118082
 50
359.9984105913817984
 51
0.5465645346273412
  0
LINE
  5
178ED
  8
0
 10
3560.1971620686958886
 20
139.0431665128836016
 30
0.0
 11
3560.2251586827960637
 21
139.0431665128836016
 31
0.0
  0
ARC
  5
178EE
  8
0
 10
3560.2364211700910346
 20
139.038773887287789
 30
0.0
 40
0.0202404726264973
 50
147.5586716765878919
 51
167.4658258470248882
  0
ARC
  5
178EF
  8
0
 10
3560.2214153522650122
 20
139.0483120589840098
 30
0.0
 40
0.0024598289952711
 50
113.584472354988705
 51
147.5586716765614881
  0
ARC
  5
178F0
  8
0
 10
3560.2209329101838193
 20
139.0493094367141964
 30
0.0
 40
0.0013534218413712
 50
50.6165823960954526
 51
111.7598742040239017
  0
ARC
  5
178F1
  8
0
 10
3560.2178936741811413
 20
139.0459041367597877
 30
0.0
 40
0.0059168528837839
 50
33.4166144952391519
 51
48.791984245162503
  0
ARC
  5
178F2
  8
0
 10
3560.2007162569261709
 20
139.0370857932117872
 30
0.0
 40
0.0251987123906183
 50
14.0191133768513208
 51
28.6374827510440113
  0
ARC
  5
178F3
  8
0
 10
3559.9234690174162097
 20
138.975934558161299
 30
0.0
 40
0.3091009911013308
 50
4.6790614493444149
 51
12.5671846479751892
  0
ARC
  5
178F4
  8
0
 10
3557.8764472219449999
 20
138.7951378801157887
 30
0.0
 40
2.3640858704373868
 50
1.6287929325829249
 51
4.999214446789372
  0
ARC
  5
178F5
  8
0
 10
3562.824901994146785
 20
138.8001322976085987
 30
0.0
 40
2.5860722713387738
 50
178.6217429146961138
 51
183.1690971376079915
  0
ARC
  5
178F6
  8
0
 10
3553.4930267140812248
 20
138.6215543857443038
 30
0.0
 40
6.7564535618103161
 50
0.3019977883000016
 51
3.8644851021094881
  0
ARC
  5
178F7
  8
0
 10
3559.8711577608801235
 20
139.0511195889519058
 30
0.0
 40
0.3638757086217164
 50
4.0656458059695266
 51
11.3367329688433305
  0
ARC
  5
178F8
  8
0
 10
3560.1395116514199799
 20
139.1049209246357918
 30
0.0
 40
0.0901817293506839
 50
11.3367329688433305
 51
19.7678929253169606
  0
ARC
  5
178F9
  8
0
 10
3560.2152101859642244
 20
139.1321261659417132
 30
0.0
 40
0.0097429744697644
 50
19.7678929253123705
 51
43.5339285871838868
  0
ARC
  5
178FA
  8
0
 10
3560.2208432789229846
 20
139.1374781147804924
 30
0.0
 40
0.0019728333740964
 50
43.5339285871635724
 51
87.6663505071511224
  0
ARC
  5
178FB
  8
0
 10
3560.1620144712919682
 20
138.187025404130992
 30
0.0
 40
0.0218588915474065
 50
270.0000000122198003
 51
320.7125207138371934
  0
ARC
  5
178FC
  8
0
 10
3560.1395799059059755
 20
138.2019548223053107
 30
0.0
 40
0.0487483719714847
 50
323.8296189946563004
 51
350.3171043597903918
  0
ARC
  5
178FD
  8
0
 10
3559.5521115090077728
 20
138.3112719391706946
 30
0.0
 40
0.6462961161666281
 50
349.5235997639960033
 51
356.4422670765366092
  0
ARC
  5
178FE
  8
0
 10
3546.404030534550202
 20
138.9178755827030898
 30
0.0
 40
13.8082841127798392
 50
357.3155781268156943
 51
358.9181554431021937
  0
ARC
  5
178FF
  8
0
 10
3560.2606869004707733
 20
138.187049853387407
 30
0.0
 40
0.0219020105394768
 50
246.2747829552442056
 51
267.6340853824539181
  0
ARC
  5
17900
  8
0
 10
3560.2611167059008039
 20
138.1880278077996991
 30
0.0
 40
0.0229702462529441
 50
213.1677251193148948
 51
246.2747829552448877
  0
LINE
  5
17901
  8
0
 10
3560.2209233491958003
 20
138.1748837137836006
 30
0.0
 11
3560.2405780076969677
 21
138.1748830483836059
 31
0.0
  0
ARC
  5
17902
  8
0
 10
3560.2405780618710196
 20
138.1764832466681128
 30
0.0
 40
0.0016001982854274
 50
269.9980602760144848
 51
301.1679137215634796
  0
ARC
  5
17903
  8
0
 10
3560.2394624633739113
 20
138.1783276489771026
 30
0.0
 40
0.0037557445925213
 50
301.1679137215660944
 51
310.2460337604077267
  0
ARC
  5
17904
  8
0
 10
3560.2385278113338245
 20
138.1794318595495952
 30
0.0
 40
0.0052024150542657
 50
310.2460337603815219
 51
337.5557998711822165
  0
ARC
  5
17905
  8
0
 10
3560.1762552031918858
 20
138.2051549949331104
 30
0.0
 40
0.0725786528443303
 50
337.5557998711822165
 51
347.1493308964920743
  0
ARC
  5
17906
  8
0
 10
3559.6536395799407728
 20
138.297777473453209
 30
0.0
 40
0.603262236559802
 50
349.6130965796818941
 51
356.0509702231121878
  0
ARC
  5
17907
  8
0
 10
3555.2600797432701256
 20
138.5962378048122901
 30
0.0
 40
5.0069474885780147
 50
356.1062232856373271
 51
359.7618465864013046
  0
ARC
  5
17908
  8
0
 10
3551.7233370423878114
 20
138.6569294978004052
 30
0.0
 40
8.5440356843118082
 50
359.4534354653727064
 51
0.0015894086181734
  0
LINE
  5
17909
  8
0
 10
3560.1971620686958886
 20
138.2711665128836103
 30
0.0
 11
3560.2251586827960637
 21
138.2711665128836103
 31
0.0
  0
ARC
  5
1790A
  8
0
 10
3560.2364211700910346
 20
138.2755591384793092
 30
0.0
 40
0.0202404726264973
 50
192.5341741529749982
 51
212.4413283234106871
  0
ARC
  5
1790B
  8
0
 10
3560.2214153522650122
 20
138.2660209667830884
 30
0.0
 40
0.0024598289952711
 50
212.4413283234383982
 51
246.4155276450113092
  0
ARC
  5
1790C
  8
0
 10
3560.2209329101838193
 20
138.2650235890529018
 30
0.0
 40
0.0013534218413712
 50
248.2401257959760983
 51
309.3834176039046042
  0
ARC
  5
1790D
  8
0
 10
3560.2178936741811413
 20
138.2684288890073958
 30
0.0
 40
0.0059168528837839
 50
311.2080157548373904
 51
326.5833855047608836
  0
ARC
  5
1790E
  8
0
 10
3560.2007162569261709
 20
138.277247232555311
 30
0.0
 40
0.0251987123906183
 50
331.36251724895601
 51
345.9808866231487059
  0
ARC
  5
1790F
  8
0
 10
3559.9234690174162097
 20
138.3383984676059129
 30
0.0
 40
0.3091009911013308
 50
347.4328153520247042
 51
355.3209385506556259
  0
ARC
  5
17910
  8
0
 10
3557.8764472219449999
 20
138.5191951456513948
 30
0.0
 40
2.3640858704373868
 50
355.0007855532106191
 51
358.3712070674171173
  0
ARC
  5
17911
  8
0
 10
3562.824901994146785
 20
138.5142007281586132
 30
0.0
 40
2.5860722713387738
 50
176.8309028623920085
 51
181.378257085303801
  0
ARC
  5
17912
  8
0
 10
3553.4930267140812248
 20
138.6927786400229081
 30
0.0
 40
6.756453561810333
 50
356.1355148978905163
 51
359.6980022116999862
  0
ARC
  5
17913
  8
0
 10
3559.8711577608801235
 20
138.2632134368153061
 30
0.0
 40
0.3638757086217164
 50
348.6632670311566926
 51
355.9343541940305045
  0
ARC
  5
17914
  8
0
 10
3560.1395116514199799
 20
138.2094121011313916
 30
0.0
 40
0.0901817293506839
 50
340.2321070746814939
 51
348.6632670311566926
  0
ARC
  5
17915
  8
0
 10
3560.2152101859642244
 20
138.1822068598254134
 30
0.0
 40
0.0097429744697644
 50
316.4660714128161203
 51
340.2321070746875762
  0
ARC
  5
17916
  8
0
 10
3560.2208433216751473
 20
138.1768548509022025
 30
0.0
 40
0.0019727609953294
 50
272.3249130373936282
 51
316.4664812862463918
  0
ARC
  5
17917
  8
0
 10
3560.2210198437678628
 20
139.1374560872297934
 30
0.0
 40
0.0019955590999278
 50
92.7715984335783332
 51
134.3266286793273991
  0
ARC
  5
17918
  8
0
 10
3560.224781563561919
 20
139.1336048921791928
 30
0.0
 40
0.0073790745990265
 50
134.3266286793331972
 51
151.3460784288398031
  0
ARC
  5
17919
  8
0
 10
3560.2448174052619834
 20
139.1226565230358858
 30
0.0
 40
0.0302111077876147
 50
151.3460784288384104
 51
170.7480939033233938
  0
ARC
  5
1791A
  8
0
 10
3560.5723051366830987
 20
139.0517961397571014
 30
0.0
 40
0.3652404746849443
 50
168.0353090195619075
 51
174.5528169064401993
  0
ARC
  5
1791B
  8
0
 10
3561.5441479116848313
 20
138.9454968612627113
 30
0.0
 40
1.3428538304962121
 50
173.9740682068648141
 51
175.8290288877630871
  0
ARC
  5
1791C
  8
0
 10
3560.2210198437678628
 20
138.1768769385373048
 30
0.0
 40
0.0019955590999278
 50
225.6733713206724872
 51
267.2284015664217236
  0
ARC
  5
1791D
  8
0
 10
3560.224781563561919
 20
138.1807281335879907
 30
0.0
 40
0.0073790745990265
 50
208.6539215711601969
 51
225.6733713206668028
  0
ARC
  5
1791E
  8
0
 10
3560.2448174052619834
 20
138.1916765027312124
 30
0.0
 40
0.0302111077876147
 50
189.2519060966766062
 51
208.6539215711615896
  0
ARC
  5
1791F
  8
0
 10
3560.5723051366830987
 20
138.2625368860101105
 30
0.0
 40
0.3652404746849443
 50
185.4471830935598007
 51
191.9646909804380925
  0
ARC
  5
17920
  8
0
 10
3561.5441479116848313
 20
138.3688361645045006
 30
0.0
 40
1.3428538304962121
 50
184.1709711122367992
 51
186.0259317931351006
  0
ARC
  5
17923
  8
0
 10
3558.1836519996659263
 20
132.7616456117148971
 30
0.0
 40
6.3580209005405344
 50
89.9999904339988746
 51
95.1331328953108084
  0
ARC
  5
17924
  8
0
 10
3557.7880779298361631
 20
137.1652046283763866
 30
0.0
 40
1.9367302679376821
 50
95.1331328953108084
 51
98.3752544640930466
  0
ARC
  5
17925
  8
0
 10
3557.5932442266080216
 20
138.6579311604612883
 30
0.0
 40
0.4322489996014184
 50
101.6468884000770032
 51
129.9355419483235039
  0
ARC
  5
17926
  8
0
 10
3557.5944528025402178
 20
138.6559582016012087
 30
0.0
 40
0.4345377479840256
 50
129.8907382759720122
 51
158.9375438925578976
  0
ARC
  5
17927
  8
0
 10
3557.5929380796760597
 20
138.6568886298497034
 30
0.0
 40
0.4327899637970682
 50
158.9804235718181928
 51
179.9632118869041904
  0
ARC
  5
17928
  8
0
 10
3558.1836473124690201
 20
132.7619048945622069
 30
0.0
 40
6.3577616176958323
 50
86.4574460401254044
 51
89.9999481928650624
  0
ARC
  5
17929
  8
0
 10
3558.2037047447788609
 20
133.0858918946395875
 30
0.0
 40
6.0331543522040683
 50
84.013707084705203
 51
86.4574460401254044
  0
ARC
  5
1792A
  8
0
 10
3558.7742995782600701
 20
138.6586885492895078
 30
0.0
 40
0.4314569935358654
 50
56.9411642245798788
 51
82.1932121843860557
  0
ARC
  5
1792B
  8
0
 10
3558.7730567509779576
 20
138.6561437535399932
 30
0.0
 40
0.4342679149742214
 50
19.2440653595423292
 51
56.9868879973466207
  0
ARC
  5
1792C
  8
0
 10
3558.7742664529750982
 20
138.656884265697812
 30
0.0
 40
0.4328818440299701
 50
0.0373579389670761
 51
19.2043013512743705
  0
CIRCLE
  5
1792D
  8
0
 10
3557.7506530611899507
 20
138.6571665128807069
 30
0.0
 40
0.4040000000028421
  0
CIRCLE
  5
1792E
  8
0
 10
3558.6166530611899361
 20
138.6571665128836059
 30
0.0
 40
0.404
  0
ARC
  5
1792F
  8
0
 10
3558.1836519996659263
 20
144.5526874140464884
 30
0.0
 40
6.3580209005405344
 50
264.86686710468922
 51
270.0000095660012107
  0
ARC
  5
17930
  8
0
 10
3557.7880779298361631
 20
140.1491283973851125
 30
0.0
 40
1.9367302679376821
 50
261.6247455359069249
 51
264.86686710468922
  0
ARC
  5
17931
  8
0
 10
3557.5932442266080216
 20
138.6564018653002108
 30
0.0
 40
0.4322489996014184
 50
230.0644580516764961
 51
258.353111599923011
  0
ARC
  5
17932
  8
0
 10
3557.5944528025402178
 20
138.6583748241602052
 30
0.0
 40
0.4345377479840256
 50
201.0624561074421024
 51
230.1092617240279026
  0
ARC
  5
17933
  8
0
 10
3557.5929380796760597
 20
138.6574443959117957
 30
0.0
 40
0.4327899637970682
 50
180.0367881130958096
 51
201.0195764281818072
  0
ARC
  5
17934
  8
0
 10
3558.1836473124690201
 20
144.5524281311992922
 30
0.0
 40
6.3577616176958323
 50
270.0000518071349234
 51
273.5425539598746241
  0
ARC
  5
17935
  8
0
 10
3558.2037047447788609
 20
144.228441131121798
 30
0.0
 40
6.0331543522040683
 50
273.5425539598746241
 51
275.9862929152948254
  0
ARC
  5
17936
  8
0
 10
3558.7742995782600701
 20
138.6556444764719913
 30
0.0
 40
0.4314569935358654
 50
277.8067878156139159
 51
303.058835775420107
  0
ARC
  5
17937
  8
0
 10
3558.7730567509779576
 20
138.6581892722213922
 30
0.0
 40
0.4342679149742214
 50
303.0131120026533722
 51
340.7559346404577241
  0
ARC
  5
17938
  8
0
 10
3558.7742664529750982
 20
138.6574487600636871
 30
0.0
 40
0.4328818440299701
 50
340.7956986487257041
 51
359.9626420610329092
  0
ENDSEC
  0
EOF
