  0
SECTION
  2
HEADER
  9
$ACADVER
  1
AC1009
  9
$INSBASE
 10
4725.9926635624879054
 20
219.4211403063304999
 30
0.0
  9
$EXTMIN
 10
4725.4430460909152316
 20
213.9893195786395097
 30
0.0
  9
$EXTMAX
 10
4729.3886635625867711
 20
224.8529610340214901
 30
0.0
  9
$LIMMIN
 10
0.0
 20
0.0
  9
$LIMMAX
 10
11.6929133858000007
 20
8.2677165353999982
  9
$ORTHOMODE
 70
     1
  9
$REGENMODE
 70
     1
  9
$FILLMODE
 70
     1
  9
$QTEXTMODE
 70
     0
  9
$MIRRTEXT
 70
     0
  9
$DRAGMODE
 70
     2
  9
$LTSCALE
 40
0.6431102362
  9
$OSMODE
 70
  4095
  9
$ATTMODE
 70
     1
  9
$TEXTSIZE
 40
0.2
  9
$TRACEWID
 40
0.05
  9
$TEXTSTYLE
  7
STANDARD
  9
$CLAYER
  8
0
  9
$CELTYPE
  6
BYLAYER
  9
$CECOLOR
 62
   256
  9
$DIMSCALE
 40
1.0
  9
$DIMASZ
 40
0.1875
  9
$DIMEXO
 40
0.0625
  9
$DIMDLI
 40
0.4443307087
  9
$DIMRND
 40
0.0
  9
$DIMDLE
 40
0.0
  9
$DIMEXE
 40
0.125
  9
$DIMTP
 40
0.01
  9
$DIMTM
 40
0.01
  9
$DIMTXT
 40
2.0
  9
$DIMCEN
 40
0.1052362205
  9
$DIMTSZ
 40
0.0
  9
$DIMTOL
 70
     1
  9
$DIMLIM
 70
     0
  9
$DIMTIH
 70
     1
  9
$DIMTOH
 70
     1
  9
$DIMSE1
 70
     0
  9
$DIMSE2
 70
     0
  9
$DIMTAD
 70
     0
  9
$DIMZIN
 70
     0
  9
$DIMBLK
  1

  9
$DIMASO
 70
     1
  9
$DIMSHO
 70
     1
  9
$DIMPOST
  1
\X
  9
$DIMAPOST
  1

  9
$DIMALT
 70
     1
  9
$DIMALTD
 70
     2
  9
$DIMALTF
 40
25.3999999999999986
  9
$DIMLFAC
 40
1.0
  9
$DIMTOFL
 70
     0
  9
$DIMTVP
 40
0.0
  9
$DIMTIX
 70
     0
  9
$DIMSOXD
 70
     0
  9
$DIMSAH
 70
     0
  9
$DIMBLK1
  1

  9
$DIMBLK2
  1

  9
$DIMSTYLE
  2
STANDARD
  9
$DIMCLRD
 70
     0
  9
$DIMCLRE
 70
     0
  9
$DIMCLRT
 70
     0
  9
$DIMTFAC
 40
1.0
  9
$DIMGAP
 40
0.09
  9
$LUNITS
 70
     2
  9
$LUPREC
 70
     4
  9
$SKETCHINC
 40
0.1
  9
$FILLETRAD
 40
0.0
  9
$AUNITS
 70
     0
  9
$AUPREC
 70
     0
  9
$MENU
  1
.
  9
$ELEVATION
 40
0.0
  9
$PELEVATION
 40
0.0
  9
$THICKNESS
 40
0.0
  9
$LIMCHECK
 70
     0
  9
$BLIPMODE
 70
     0
  9
$CHAMFERA
 40
0.0
  9
$CHAMFERB
 40
0.0
  9
$SKPOLY
 70
     0
  9
$TDCREATE
 40
2458060.468368056230247
  9
$TDUPDATE
 40
2459246.4901620368473232
  9
$TDINDWG
 40
0.3741737269
  9
$TDUSRTIMER
 40
0.3741737269
  9
$USRTIMER
 70
     1
  9
$ANGBASE
 50
0.0
  9
$ANGDIR
 70
     0
  9
$PDMODE
 70
     0
  9
$PDSIZE
 40
0.3125
  9
$PLINEWID
 40
0.0
  9
$COORDS
 70
     1
  9
$SPLFRAME
 70
     0
  9
$SPLINETYPE
 70
     6
  9
$SPLINESEGS
 70
     8
  9
$ATTDIA
 70
     1
  9
$ATTREQ
 70
     1
  9
$HANDLING
 70
     1
  9
$HANDSEED
  5
CD83
  9
$SURFTAB1
 70
     6
  9
$SURFTAB2
 70
     6
  9
$SURFTYPE
 70
     6
  9
$SURFU
 70
     6
  9
$SURFV
 70
     6
  9
$UCSNAME
  2

  9
$UCSORG
 10
0.0
 20
0.0
 30
0.0
  9
$UCSXDIR
 10
1.0
 20
0.0
 30
0.0
  9
$UCSYDIR
 10
0.0
 20
1.0
 30
0.0
  9
$PUCSNAME
  2

  9
$PUCSORG
 10
0.0
 20
0.0
 30
0.0
  9
$PUCSXDIR
 10
1.0
 20
0.0
 30
0.0
  9
$PUCSYDIR
 10
0.0
 20
1.0
 30
0.0
  9
$USERI1
 70
     0
  9
$USERI2
 70
     0
  9
$USERI3
 70
     0
  9
$USERI4
 70
     0
  9
$USERI5
 70
     0
  9
$USERR1
 40
0.0
  9
$USERR2
 40
0.0
  9
$USERR3
 40
0.0
  9
$USERR4
 40
0.0
  9
$USERR5
 40
0.0
  9
$WORLDVIEW
 70
     1
  9
$SHADEDGE
 70
     3
  9
$SHADEDIF
 70
    70
  9
$TILEMODE
 70
     1
  9
$MAXACTVP
 70
    64
  9
$PLIMCHECK
 70
     0
  9
$PEXTMIN
 10
1.0000000000000000E+20
 20
1.0000000000000000E+20
 30
1.0000000000000000E+20
  9
$PEXTMAX
 10
-1.0000000000000000E+20
 20
-1.0000000000000000E+20
 30
-1.0000000000000000E+20
  9
$PLIMMIN
 10
0.0
 20
0.0
  9
$PLIMMAX
 10
12.0
 20
9.0
  9
$UNITMODE
 70
     0
  9
$VISRETAIN
 70
     1
  9
$PLINEGEN
 70
     0
  9
$PSLTSCALE
 70
     1
  0
ENDSEC
  0
SECTION
  2
TABLES
  0
TABLE
  2
VPORT
 70
     1
  0
VPORT
  2
*ACTIVE
 70
     0
 10
0.0
 20
0.0
 11
1.0
 21
1.0
 12
0.0
 22
0.0
 13
0.0
 23
0.0
 14
1.0
 24
1.0
 15
0.0
 25
0.0
 16
0.0
 26
0.0
 36
32.749423176197773
 17
4727.415771484375
 27
219.421142578125
 37
0.0
 40
11.5596887291952104
 41
2.1186252771618621
 42
50.0
 43
0.0
 44
0.0
 50
0.0
 51
0.0
 71
     0
 72
   100
 73
     1
 74
     1
 75
     0
 76
     0
 77
     0
 78
     0
  0
ENDTAB
  0
TABLE
  2
LTYPE
 70
     2
  0
LTYPE
  2
CONTINUOUS
 70
     0
  3
Solid line
 72
    65
 73
     0
 40
0.0
  0
LTYPE
  2
PHANTOM2
 70
     0
  3
___ _ _ ___ _ _ ___ _ _ ___ _ _
 72
    65
 73
     6
 40
1.25
 49
0.625
 49
-0.125
 49
0.125
 49
-0.125
 49
0.125
 49
-0.125
  0
ENDTAB
  0
TABLE
  2
LAYER
 70
     2
  0
LAYER
  2
0
 70
     0
 62
   255
  6
CONTINUOUS
  0
LAYER
  2
DEFPOINTS
 70
     0
 62
     7
  6
CONTINUOUS
  0
ENDTAB
  0
TABLE
  2
STYLE
 70
     1
  0
STYLE
  2
STANDARD
 70
     0
 40
0.0
 41
0.8
 50
0.0
 71
     0
 42
0.2
  3
txt
  4

  0
ENDTAB
  0
TABLE
  2
VIEW
 70
     0
  0
ENDTAB
  0
TABLE
  2
UCS
 70
     0
  0
ENDTAB
  0
TABLE
  2
APPID
 70
     9
  0
APPID
  2
ACAD
 70
     0
  0
APPID
  2
ACAD_MLEADERVER
 70
     0
  0
APPID
  2
ACAD_EXEMPT_FROM_CAD_STANDARDS
 70
     0
  0
APPID
  2
ACAD_NAV_VCDISPLAY
 70
     0
  0
APPID
  2
ACAECLAYERSTANDARD
 70
     0
  0
APPID
  2
ACCMTRANSPARENCY
 70
     0
  0
APPID
  2
ACAD_DSTYLE_DIMJAG
 70
     0
  0
APPID
  2
ACAD_DSTYLE_DIMTALN
 70
     0
  0
APPID
  2
ACDBATTR
 70
     0
  0
ENDTAB
  0
TABLE
  2
DIMSTYLE
 70
     1
  0
DIMSTYLE
  2
STANDARD
 70
     0
  3

  4

  5

  6

  7

 40
1.0
 41
0.1875
 42
0.0625
 43
0.38
 44
0.125
 45
0.0
 46
0.0
 47
0.01
 48
0.01
140
0.15625
141
0.09
142
0.0
143
25.3999999999999986
144
1.0
145
0.0
146
1.0
147
0.09
 71
     1
 72
     0
 73
     1
 74
     1
 75
     0
 76
     0
 77
     0
 78
     4
170
     0
171
     2
172
     0
173
     0
174
     0
175
     0
176
     0
177
     0
178
     0
  0
ENDTAB
  0
ENDSEC
  0
SECTION
  2
BLOCKS
  0
BLOCK
  8
0
  2
$MODEL_SPACE
 70
     0
 10
0.0
 20
0.0
 30
0.0
  3
$MODEL_SPACE
  1

  0
ENDBLK
  5
21
  8
0
  0
BLOCK
 67
     1
  8
0
  2
$PAPER_SPACE
 70
     0
 10
0.0
 20
0.0
 30
0.0
  3
$PAPER_SPACE
  1

  0
ENDBLK
  5
1D
 67
     1
  8
0
  0
ENDSEC
  0
SECTION
  2
ENTITIES
  0
ATTDEF
  5
3930
  8
DEFPOINTS
 10
4726.0049780329045461
 20
219.4222310127042874
 30
0.0
 40
0.001
  1
K-26300-G
  3

  2
MODELNUMBER
 70
     0
1001
ACDBATTR
1070
     0
1070
     1
  0
ATTDEF
  5
3931
  8
DEFPOINTS
 10
4726.0049780329045461
 20
219.4205643460375939
 30
0.0
 40
0.001
  1

  3

  2
TRADENAME
 70
     0
1001
ACDBATTR
1070
     0
1070
     1
  0
ATTDEF
  5
3932
  8
DEFPOINTS
 10
4726.0049780329045461
 20
219.4188976793709003
 30
0.0
 40
0.001
  1
BODY SPRAY
  3

  2
PRODUCT
 70
     0
1001
ACDBATTR
1070
     0
1070
     1
  0
LINE
  5
CC27
  8
0
 10
4725.9139234050880987
 20
219.5408808829805025
 30
0.0
 11
4725.9139234050880987
 21
219.3013997294804938
 31
0.0
  0
LINE
  5
CC28
  8
0
 10
4725.9414824601881264
 20
219.4211403063304999
 30
0.0
 11
4725.9414824601881264
 21
219.5162869954804989
 31
0.0
  0
LINE
  5
CC29
  8
0
 10
4725.9138699154882488
 20
219.5167689751804971
 30
0.0
 11
4725.9414824601881264
 21
219.5162869954804989
 31
0.0
  0
ARC
  5
CC2A
  8
0
 10
4725.9926635624879054
 20
219.5408808831805061
 30
0.0
 40
0.0787401575
 50
90.0
 51
180.0000001300003021
  0
LINE
  5
CC2B
  8
0
 10
4725.4430555063881911
 20
224.8290314252201085
 30
0.0
 11
4725.4430555063881911
 21
214.013249187441005
 31
0.0
  0
LINE
  5
CC2C
  8
0
 10
4725.9926635624879054
 20
224.8529610340214901
 30
0.0
 11
4725.4546127720877848
 21
224.8414473916199938
 31
0.0
  0
LINE
  5
CC2D
  8
0
 10
4725.9926635624879054
 20
213.9893195786395097
 30
0.0
 11
4725.9926635624879054
 21
224.8529610340214901
 31
0.0
  0
LINE
  5
CC2E
  8
0
 10
4726.0125203840871109
 20
223.8005809980708989
 30
0.0
 11
4729.0637014863877994
 21
223.7739537439709068
 31
0.0
  0
LINE
  5
CC2F
  8
0
 10
4729.0832147435876323
 20
215.0880111584899907
 30
0.0
 11
4729.0832147435876323
 21
223.7542694541708101
 31
0.0
  0
ARC
  5
CC30
  8
0
 10
4726.0123486018883341
 20
223.7808967082708875
 30
0.0
 40
0.0196850394
 50
89.4999999998781703
 51
180.0
  0
ARC
  5
CC31
  8
0
 10
4729.0635297041881131
 20
223.7542694541708101
 30
0.0
 40
0.0196850394
 50
0.0
 51
89.4999999999823785
  0
ARC
  5
CC32
  8
0
 10
4725.4549939016269491
 20
224.8295056613810914
 30
0.0
 40
0.011947810712689
 50
91.8280185193419243
 51
182.2747992067245946
  0
LINE
  5
CC33
  8
0
 10
4725.9414824601881264
 20
219.4211403063304999
 30
0.0
 11
4725.9414824601881264
 21
219.3259936171805009
 31
0.0
  0
LINE
  5
CC34
  8
0
 10
4725.9138699154882488
 20
219.3255116374805027
 30
0.0
 11
4725.9414824601881264
 21
219.3259936171805009
 31
0.0
  0
ARC
  5
CC35
  8
0
 10
4725.9926635624879054
 20
219.3013997294804938
 30
0.0
 40
0.0787401575
 50
179.9999998699996979
 51
270.0
  0
LINE
  5
CC36
  8
0
 10
4725.9926635624879054
 20
213.9893195786395097
 30
0.0
 11
4725.4546127720877848
 21
214.0008332210408923
 31
0.0
  0
LINE
  5
CC37
  8
0
 10
4726.0125203840871109
 20
215.0416996145899873
 30
0.0
 11
4729.0637014863877994
 21
215.0683268686900931
 31
0.0
  0
ARC
  5
CC38
  8
0
 10
4726.0123486018883341
 20
215.0613839043899986
 30
0.0
 40
0.0196850394
 50
180.0
 51
270.5000000001218154
  0
ARC
  5
CC39
  8
0
 10
4729.0635297041881131
 20
215.0880111584899907
 30
0.0
 40
0.0196850394
 50
270.5000000000175078
 51
0.0
  0
ARC
  5
CC3A
  8
0
 10
4725.4549939016269491
 20
214.0127749512799085
 30
0.0
 40
0.011947810712689
 50
177.7252007932754054
 51
268.1719814806580757
  0
LINE
  5
CC3B
  8
0
 10
4729.3086383839881819
 20
219.7959704502304987
 30
0.0
 11
4729.2850869407875507
 21
219.8361904013304979
 31
0.0
  0
LINE
  5
CC3C
  8
0
 10
4729.3796082400876912
 20
219.7961387588304945
 30
0.0
 11
4729.3714405483879091
 21
219.8102675594304003
 31
0.0
  0
LINE
  5
CC3D
  8
0
 10
4729.237588229287212
 20
219.7960970227304927
 30
0.0
 11
4729.212873798088367
 21
219.8384345589304871
 31
0.0
  0
LINE
  5
CC3E
  8
0
 10
4729.3886635625867711
 20
219.7929584091804998
 30
0.0
 11
4729.3855932664173451
 21
219.7961387588304945
 31
0.0
  0
LINE
  5
CC3F
  8
0
 10
4729.3714405483879091
 20
219.8102675594304003
 30
0.0
 11
4729.3486828640870954
 21
219.8342140397305116
 31
0.0
  0
LINE
  5
CC40
  8
0
 10
4729.1666343960869199
 20
219.7959533658305133
 30
0.0
 11
4729.1404805475867761
 21
219.8406843138303941
 31
0.0
  0
LINE
  5
CC41
  8
0
 10
4729.0956364356879931
 20
219.7960868048303951
 30
0.0
 11
4729.0832147436867672
 21
219.8175717229304951
 31
0.0
  0
LINE
  5
CC42
  8
0
 10
4729.3481150381876432
 20
219.0467711423304991
 30
0.0
 11
4729.3623300352883234
 21
219.0226969616304871
 31
0.0
  0
LINE
  5
CC43
  8
0
 10
4729.2771296456876371
 20
219.0467230408304999
 30
0.0
 11
4729.3002691510882869
 21
219.0071145445305092
 31
0.0
  0
LINE
  5
CC44
  8
0
 10
4729.2060833880877908
 20
219.0468731418305026
 30
0.0
 11
4729.2306168427876401
 21
219.004949969530486
 31
0.0
  0
LINE
  5
CC45
  8
0
 10
4729.135132004587831
 20
219.0467458280305095
 30
0.0
 11
4729.1607866602880677
 21
219.0027798667304921
 31
0.0
  0
LINE
  5
CC46
  8
0
 10
4729.0832147436867672
 20
219.0136389565305137
 30
0.0
 11
4729.0910226363876063
 21
219.0006118200304002
 31
0.0
  0
LINE
  5
CC47
  8
0
 10
4729.3855932664173451
 20
219.7961387588304945
 30
0.0
 11
4729.3796082400876912
 21
219.7961387588304945
 31
0.0
  0
LINE
  5
CC48
  8
0
 10
4729.2418758245876234
 20
219.7960970227304927
 30
0.0
 11
4729.237588229287212
 21
219.7960970227304927
 31
0.0
  0
LINE
  5
CC49
  8
0
 10
4729.0999257646881233
 20
219.7960868048303951
 30
0.0
 11
4729.0956364356879931
 21
219.7960868048303951
 31
0.0
  0
LINE
  5
CC4A
  8
0
 10
4729.3129203043881716
 20
219.7959704502304987
 30
0.0
 11
4729.3086383839881819
 21
219.7959704502304987
 31
0.0
  0
LINE
  5
CC4B
  8
0
 10
4729.1706155795882296
 20
219.7959533658305133
 30
0.0
 11
4729.1666343960869199
 21
219.7959533658305133
 31
0.0
  0
LINE
  5
CC4C
  8
0
 10
4729.3486828640870954
 20
219.8342140397305116
 30
0.0
 11
4729.3352305794869608
 21
219.8346320945304058
 31
0.0
  0
LINE
  5
CC4D
  8
0
 10
4729.2850869407875507
 20
219.8361904013304979
 30
0.0
 11
4729.2654049768880213
 21
219.8368020549305015
 31
0.0
  0
LINE
  5
CC4E
  8
0
 10
4729.212873798088367
 20
219.8384345589304871
 30
0.0
 11
4729.1957454084877099
 21
219.8389668555304866
 31
0.0
  0
LINE
  5
CC4F
  8
0
 10
4729.1404805475867761
 20
219.8406843138303941
 30
0.0
 11
4729.1259126857876254
 21
219.8411370372303963
 31
0.0
  0
LINE
  5
CC50
  8
0
 10
4729.3212970857875916
 20
219.0077680266304867
 30
0.0
 11
4729.3002691510882869
 21
219.0071145445305092
 31
0.0
  0
LINE
  5
CC51
  8
0
 10
4729.2490293447881413
 20
219.0055221722305134
 30
0.0
 11
4729.2306168427876401
 21
219.004949969530486
 31
0.0
  0
LINE
  5
CC52
  8
0
 10
4729.1766353654884369
 20
219.0032723947304873
 30
0.0
 11
4729.1607866602880677
 21
219.0027798667304921
 31
0.0
  0
LINE
  5
CC53
  8
0
 10
4729.1044193278876264
 20
219.0010281471303983
 30
0.0
 11
4729.0910226363876063
 21
219.0006118200304002
 31
0.0
  0
LINE
  5
CC54
  8
0
 10
4729.2018020440882538
 20
219.0468731418305026
 30
0.0
 11
4729.2060833880877908
 21
219.0468731418305026
 31
0.0
  0
LINE
  5
CC55
  8
0
 10
4729.3437931459875472
 20
219.0467711423304991
 30
0.0
 11
4729.3481150381876432
 21
219.0467711423304991
 31
0.0
  0
LINE
  5
CC56
  8
0
 10
4729.1308451529876038
 20
219.0467458280305095
 30
0.0
 11
4729.135132004587831
 21
219.0467458280305095
 31
0.0
  0
LINE
  5
CC57
  8
0
 10
4729.2728409018882303
 20
219.0467230408304999
 30
0.0
 11
4729.2771296456876371
 21
219.0467230408304999
 31
0.0
  0
LINE
  5
CC58
  8
0
 10
4729.2654049768880213
 20
219.8368020549305015
 30
0.0
 11
4729.2418758245876234
 21
219.7960970227304927
 31
0.0
  0
LINE
  5
CC59
  8
0
 10
4729.1259126857876254
 20
219.8411370372303963
 30
0.0
 11
4729.0999257646881233
 21
219.7960868048303951
 31
0.0
  0
LINE
  5
CC5A
  8
0
 10
4729.1957454084877099
 20
219.8389668555304866
 30
0.0
 11
4729.1706155795882296
 21
219.7959533658305133
 31
0.0
  0
LINE
  5
CC5B
  8
0
 10
4729.3352305794869608
 20
219.8346320945304058
 30
0.0
 11
4729.3129203043881716
 21
219.7959704502304987
 31
0.0
  0
LINE
  5
CC5C
  8
0
 10
4729.1044193278876264
 20
219.0010281471303983
 30
0.0
 11
4729.1308451529876038
 21
219.0467458280305095
 31
0.0
  0
LINE
  5
CC5D
  8
0
 10
4729.1766353654884369
 20
219.0032723947304873
 30
0.0
 11
4729.2018020440882538
 21
219.0468731418305026
 31
0.0
  0
LINE
  5
CC5E
  8
0
 10
4729.3886635625867711
 20
219.0498491893804953
 30
0.0
 11
4729.3623300352883234
 21
219.0226969616304871
 31
0.0
  0
LINE
  5
CC5F
  8
0
 10
4729.2490293447881413
 20
219.0055221722305134
 30
0.0
 11
4729.2728409018882303
 21
219.0467230408304999
 31
0.0
  0
LINE
  5
CC60
  8
0
 10
4729.3212970857875916
 20
219.0077680266304867
 30
0.0
 11
4729.3437931459875472
 21
219.0467711423304991
 31
0.0
  0
LINE
  5
CC61
  8
0
 10
4729.3886635625867711
 20
219.0498491893804953
 30
0.0
 11
4729.3886635625867711
 21
219.7929584091804998
 31
0.0
  0
LINE
  5
CC62
  8
0
 10
4729.0977811001894224
 20
219.7960868048303951
 30
0.0
 11
4729.1329885787881722
 21
219.0467458280305095
 31
0.0
  0
LINE
  5
CC63
  8
0
 10
4729.1686249878375747
 20
219.7959533658305133
 30
0.0
 11
4729.2039427160880223
 21
219.0468731418305026
 31
0.0
  0
LINE
  5
CC64
  8
0
 10
4729.2397320269392367
 20
219.7960970227304927
 30
0.0
 11
4729.2749852737879337
 21
219.0467230408304999
 31
0.0
  0
LINE
  5
CC65
  8
0
 10
4729.310779344187722
 20
219.7959704502304987
 30
0.0
 11
4729.3459540920875952
 21
219.0467711423304991
 31
0.0
  0
LINE
  5
CC66
  8
0
 10
4729.3796082400876912
 20
219.7961387588304945
 30
0.0
 11
4729.3886635625867711
 21
219.6034091321371875
 31
0.0
  0
LINE
  5
CC67
  8
0
 10
4729.1331966166881102
 20
219.8409106755304947
 30
0.0
 11
4729.1687110128877976
 21
219.0030261307304897
 31
0.0
  0
LINE
  5
CC68
  8
0
 10
4729.2043096032875837
 20
219.8387007072304868
 30
0.0
 11
4729.2398230937869812
 21
219.0052360708804997
 31
0.0
  0
LINE
  5
CC69
  8
0
 10
4729.2752459588382408
 20
219.8364962281304997
 30
0.0
 11
4729.3107831184379393
 21
219.0074412855805122
 31
0.0
  0
LINE
  5
CC6A
  8
0
 10
4729.3419567217879376
 20
219.8344230671305013
 30
0.0
 11
4729.3757747885319986
 21
219.0365597077023097
 31
0.0
  0
LINE
  5
CC6B
  8
0
 10
4729.0832147436867672
 20
219.3430629695513119
 30
0.0
 11
4729.0977209821376164
 21
219.0008199835804987
 31
0.0
  0
ENDSEC
  0
EOF
