  0
SECTION
  2
HEADER
  9
$ACADVER
  1
AC1009
  9
$INSBASE
 10
4721.56493295877317
 20
212.4223934015184057
 30
0.0
  9
$EXTMIN
 10
4719.8332255540763072
 20
211.8727759299449929
 30
0.0
  9
$EXTMAX
 10
4723.2966403634682138
 20
215.8183934015183922
 30
0.0
  9
$LIMMIN
 10
0.0
 20
0.0
  9
$LIMMAX
 10
11.6929133858000007
 20
8.2677165353999982
  9
$ORTHOMODE
 70
     1
  9
$REGENMODE
 70
     1
  9
$FILLMODE
 70
     1
  9
$QTEXTMODE
 70
     0
  9
$MIRRTEXT
 70
     0
  9
$DRAGMODE
 70
     2
  9
$LTSCALE
 40
0.6431102362
  9
$OSMODE
 70
  4095
  9
$ATTMODE
 70
     1
  9
$TEXTSIZE
 40
0.2
  9
$TRACEWID
 40
0.05
  9
$TEXTSTYLE
  7
STANDARD
  9
$CLAYER
  8
0
  9
$CELTYPE
  6
BYLAYER
  9
$CECOLOR
 62
   256
  9
$DIMSCALE
 40
1.0
  9
$DIMASZ
 40
0.1875
  9
$DIMEXO
 40
0.0625
  9
$DIMDLI
 40
0.4443307087
  9
$DIMRND
 40
0.0
  9
$DIMDLE
 40
0.0
  9
$DIMEXE
 40
0.125
  9
$DIMTP
 40
0.01
  9
$DIMTM
 40
0.01
  9
$DIMTXT
 40
2.0
  9
$DIMCEN
 40
0.1052362205
  9
$DIMTSZ
 40
0.0
  9
$DIMTOL
 70
     1
  9
$DIMLIM
 70
     0
  9
$DIMTIH
 70
     1
  9
$DIMTOH
 70
     1
  9
$DIMSE1
 70
     0
  9
$DIMSE2
 70
     0
  9
$DIMTAD
 70
     0
  9
$DIMZIN
 70
     0
  9
$DIMBLK
  1

  9
$DIMASO
 70
     1
  9
$DIMSHO
 70
     1
  9
$DIMPOST
  1
\X
  9
$DIMAPOST
  1

  9
$DIMALT
 70
     1
  9
$DIMALTD
 70
     2
  9
$DIMALTF
 40
25.3999999999999986
  9
$DIMLFAC
 40
1.0
  9
$DIMTOFL
 70
     0
  9
$DIMTVP
 40
0.0
  9
$DIMTIX
 70
     0
  9
$DIMSOXD
 70
     0
  9
$DIMSAH
 70
     0
  9
$DIMBLK1
  1

  9
$DIMBLK2
  1

  9
$DIMSTYLE
  2
STANDARD
  9
$DIMCLRD
 70
     0
  9
$DIMCLRE
 70
     0
  9
$DIMCLRT
 70
     0
  9
$DIMTFAC
 40
1.0
  9
$DIMGAP
 40
0.09
  9
$LUNITS
 70
     2
  9
$LUPREC
 70
     4
  9
$SKETCHINC
 40
0.1
  9
$FILLETRAD
 40
0.0
  9
$AUNITS
 70
     0
  9
$AUPREC
 70
     0
  9
$MENU
  1
.
  9
$ELEVATION
 40
0.0
  9
$PELEVATION
 40
0.0
  9
$THICKNESS
 40
0.0
  9
$LIMCHECK
 70
     0
  9
$BLIPMODE
 70
     0
  9
$CHAMFERA
 40
0.0
  9
$CHAMFERB
 40
0.0
  9
$SKPOLY
 70
     0
  9
$TDCREATE
 40
2458060.468368056230247
  9
$TDUPDATE
 40
2459246.4900578698143363
  9
$TDINDWG
 40
0.3738380787
  9
$TDUSRTIMER
 40
0.3738380787
  9
$USRTIMER
 70
     1
  9
$ANGBASE
 50
0.0
  9
$ANGDIR
 70
     0
  9
$PDMODE
 70
     0
  9
$PDSIZE
 40
0.3125
  9
$PLINEWID
 40
0.0
  9
$COORDS
 70
     1
  9
$SPLFRAME
 70
     0
  9
$SPLINETYPE
 70
     6
  9
$SPLINESEGS
 70
     8
  9
$ATTDIA
 70
     1
  9
$ATTREQ
 70
     1
  9
$HANDLING
 70
     1
  9
$HANDSEED
  5
CD67
  9
$SURFTAB1
 70
     6
  9
$SURFTAB2
 70
     6
  9
$SURFTYPE
 70
     6
  9
$SURFU
 70
     6
  9
$SURFV
 70
     6
  9
$UCSNAME
  2

  9
$UCSORG
 10
0.0
 20
0.0
 30
0.0
  9
$UCSXDIR
 10
1.0
 20
0.0
 30
0.0
  9
$UCSYDIR
 10
0.0
 20
1.0
 30
0.0
  9
$PUCSNAME
  2

  9
$PUCSORG
 10
0.0
 20
0.0
 30
0.0
  9
$PUCSXDIR
 10
1.0
 20
0.0
 30
0.0
  9
$PUCSYDIR
 10
0.0
 20
1.0
 30
0.0
  9
$USERI1
 70
     0
  9
$USERI2
 70
     0
  9
$USERI3
 70
     0
  9
$USERI4
 70
     0
  9
$USERI5
 70
     0
  9
$USERR1
 40
0.0
  9
$USERR2
 40
0.0
  9
$USERR3
 40
0.0
  9
$USERR4
 40
0.0
  9
$USERR5
 40
0.0
  9
$WORLDVIEW
 70
     1
  9
$SHADEDGE
 70
     3
  9
$SHADEDIF
 70
    70
  9
$TILEMODE
 70
     1
  9
$MAXACTVP
 70
    64
  9
$PLIMCHECK
 70
     0
  9
$PEXTMIN
 10
1.0000000000000000E+20
 20
1.0000000000000000E+20
 30
1.0000000000000000E+20
  9
$PEXTMAX
 10
-1.0000000000000000E+20
 20
-1.0000000000000000E+20
 30
-1.0000000000000000E+20
  9
$PLIMMIN
 10
0.0
 20
0.0
  9
$PLIMMAX
 10
12.0
 20
9.0
  9
$UNITMODE
 70
     0
  9
$VISRETAIN
 70
     1
  9
$PLINEGEN
 70
     0
  9
$PSLTSCALE
 70
     1
  0
ENDSEC
  0
SECTION
  2
TABLES
  0
TABLE
  2
VPORT
 70
     1
  0
VPORT
  2
*ACTIVE
 70
     0
 10
0.0
 20
0.0
 11
1.0
 21
1.0
 12
0.0
 22
0.0
 13
0.0
 23
0.0
 14
1.0
 24
1.0
 15
0.0
 25
0.0
 16
0.0
 26
0.0
 36
14.8767385348597099
 17
4721.56494140625
 27
213.8455886840820028
 37
0.0
 40
5.2509243289838539
 41
2.1186252771618621
 42
50.0
 43
0.0
 44
0.0
 50
0.0
 51
0.0
 71
     0
 72
   100
 73
     1
 74
     1
 75
     0
 76
     0
 77
     0
 78
     0
  0
ENDTAB
  0
TABLE
  2
LTYPE
 70
     2
  0
LTYPE
  2
CONTINUOUS
 70
     0
  3
Solid line
 72
    65
 73
     0
 40
0.0
  0
LTYPE
  2
PHANTOM2
 70
     0
  3
___ _ _ ___ _ _ ___ _ _ ___ _ _
 72
    65
 73
     6
 40
1.25
 49
0.625
 49
-0.125
 49
0.125
 49
-0.125
 49
0.125
 49
-0.125
  0
ENDTAB
  0
TABLE
  2
LAYER
 70
     2
  0
LAYER
  2
0
 70
     0
 62
   255
  6
CONTINUOUS
  0
LAYER
  2
DEFPOINTS
 70
     0
 62
     7
  6
CONTINUOUS
  0
ENDTAB
  0
TABLE
  2
STYLE
 70
     1
  0
STYLE
  2
STANDARD
 70
     0
 40
0.0
 41
0.8
 50
0.0
 71
     0
 42
0.2
  3
txt
  4

  0
ENDTAB
  0
TABLE
  2
VIEW
 70
     0
  0
ENDTAB
  0
TABLE
  2
UCS
 70
     0
  0
ENDTAB
  0
TABLE
  2
APPID
 70
     9
  0
APPID
  2
ACAD
 70
     0
  0
APPID
  2
ACAD_MLEADERVER
 70
     0
  0
APPID
  2
ACAD_EXEMPT_FROM_CAD_STANDARDS
 70
     0
  0
APPID
  2
ACAD_NAV_VCDISPLAY
 70
     0
  0
APPID
  2
ACAECLAYERSTANDARD
 70
     0
  0
APPID
  2
ACCMTRANSPARENCY
 70
     0
  0
APPID
  2
ACAD_DSTYLE_DIMJAG
 70
     0
  0
APPID
  2
ACAD_DSTYLE_DIMTALN
 70
     0
  0
APPID
  2
ACDBATTR
 70
     0
  0
ENDTAB
  0
TABLE
  2
DIMSTYLE
 70
     1
  0
DIMSTYLE
  2
STANDARD
 70
     0
  3

  4

  5

  6

  7

 40
1.0
 41
0.1875
 42
0.0625
 43
0.38
 44
0.125
 45
0.0
 46
0.0
 47
0.01
 48
0.01
140
0.15625
141
0.09
142
0.0
143
25.3999999999999986
144
1.0
145
0.0
146
1.0
147
0.09
 71
     1
 72
     0
 73
     1
 74
     1
 75
     0
 76
     0
 77
     0
 78
     4
170
     0
171
     2
172
     0
173
     0
174
     0
175
     0
176
     0
177
     0
178
     0
  0
ENDTAB
  0
ENDSEC
  0
SECTION
  2
BLOCKS
  0
BLOCK
  8
0
  2
$MODEL_SPACE
 70
     0
 10
0.0
 20
0.0
 30
0.0
  3
$MODEL_SPACE
  1

  0
ENDBLK
  5
21
  8
0
  0
BLOCK
 67
     1
  8
0
  2
$PAPER_SPACE
 70
     0
 10
0.0
 20
0.0
 30
0.0
  3
$PAPER_SPACE
  1

  0
ENDBLK
  5
1D
 67
     1
  8
0
  0
ENDSEC
  0
SECTION
  2
ENTITIES
  0
ATTDEF
  5
3930
  8
DEFPOINTS
 10
4721.561651676585825
 20
212.4267390500257022
 30
0.0
 40
0.001
  1
K-26300-G
  3

  2
MODELNUMBER
 70
     0
1001
ACDBATTR
1070
     0
1070
     1
  0
ATTDEF
  5
3931
  8
DEFPOINTS
 10
4721.561651676585825
 20
212.4250723833590087
 30
0.0
 40
0.001
  1

  3

  2
TRADENAME
 70
     0
1001
ACDBATTR
1070
     0
1070
     1
  0
ATTDEF
  5
3932
  8
DEFPOINTS
 10
4721.561651676585825
 20
212.4234057166922867
 30
0.0
 40
0.001
  1
BODY SPRAY
  3

  2
PRODUCT
 70
     0
1001
ACDBATTR
1070
     0
1070
     1
  0
LINE
  5
CC12
  8
0
 10
4719.8571554495229066
 20
211.8727853454184071
 30
0.0
 11
4723.2727104680216144
 21
211.8727853454184071
 31
0.0
  0
LINE
  5
CC13
  8
0
 10
4719.8332255540763072
 20
212.4223934015184057
 30
0.0
 11
4719.8447394831218844
 21
211.8843426111183135
 31
0.0
  0
LINE
  5
CC14
  8
0
 10
4721.1903663078228419
 20
215.7383682229184103
 30
0.0
 11
4721.1501463567219616
 21
215.7148167797182907
 31
0.0
  0
LINE
  5
CC15
  8
0
 10
4721.1901979992226188
 20
215.8093380790182891
 30
0.0
 11
4721.1760691986219172
 21
215.801170387318308
 31
0.0
  0
LINE
  5
CC16
  8
0
 10
4721.1902397353233027
 20
215.6673180682182931
 30
0.0
 11
4721.1479021991226546
 21
215.6426036370183112
 31
0.0
  0
LINE
  5
CC17
  8
0
 10
4721.1933783488721019
 20
215.8183934015183922
 30
0.0
 11
4721.1901979992226188
 21
215.8153231053479999
 31
0.0
  0
LINE
  5
CC18
  8
0
 10
4721.1760691986219172
 20
215.801170387318308
 30
0.0
 11
4721.1521227183211522
 21
215.7784127030184038
 31
0.0
  0
LINE
  5
CC19
  8
0
 10
4721.1903833922224294
 20
215.5963642350183989
 30
0.0
 11
4721.1456524442228329
 21
215.5702103865183119
 31
0.0
  0
LINE
  5
CC1A
  8
0
 10
4721.1902499532234287
 20
215.5253662746183068
 30
0.0
 11
4721.1687650351223056
 21
215.512944582618303
 31
0.0
  0
LINE
  5
CC1B
  8
0
 10
4721.9395656157230405
 20
215.7778448771184117
 30
0.0
 11
4721.9636397964222851
 21
215.7920598742184097
 31
0.0
  0
LINE
  5
CC1C
  8
0
 10
4721.9396137172216186
 20
215.7068594846184055
 30
0.0
 11
4721.9792222135229167
 21
215.7299989900184016
 31
0.0
  0
LINE
  5
CC1D
  8
0
 10
4723.2966403634682138
 20
212.4223934015184057
 30
0.0
 11
4719.8332255540763072
 21
212.4223934015184057
 31
0.0
  0
LINE
  5
CC1E
  8
0
 10
4720.2658808823216532
 20
212.4422502231182932
 30
0.0
 11
4720.292508136422839
 21
215.4934313254184133
 31
0.0
  0
LINE
  5
CC1F
  8
0
 10
4721.9394636162223833
 20
215.6358132270183035
 30
0.0
 11
4721.9813867885222862
 21
215.6603466817184085
 31
0.0
  0
LINE
  5
CC20
  8
0
 10
4721.9395909300228595
 20
215.5648618435182868
 30
0.0
 11
4721.9835568913231327
 21
215.5905164992184098
 31
0.0
  0
LINE
  5
CC21
  8
0
 10
4721.9726978015223722
 20
215.512944582618303
 30
0.0
 11
4721.9857249380211215
 21
215.5207524753182895
 31
0.0
  0
LINE
  5
CC22
  8
0
 10
4721.1901979992226188
 20
215.8153231053479999
 30
0.0
 11
4721.1901979992226188
 21
215.8093380790182891
 31
0.0
  0
LINE
  5
CC23
  8
0
 10
4721.1902397353233027
 20
215.6716056635183065
 30
0.0
 11
4721.1902397353233027
 21
215.6673180682182931
 31
0.0
  0
LINE
  5
CC24
  8
0
 10
4721.1902499532234287
 20
215.5296556036184086
 30
0.0
 11
4721.1902499532234287
 21
215.5253662746183068
 31
0.0
  0
LINE
  5
CC25
  8
0
 10
4721.1903663078228419
 20
215.7426501433182864
 30
0.0
 11
4721.1903663078228419
 21
215.7383682229184103
 31
0.0
  0
LINE
  5
CC26
  8
0
 10
4721.1903833922224294
 20
215.6003454185182875
 30
0.0
 11
4721.1903833922224294
 21
215.5963642350183989
 31
0.0
  0
LINE
  5
CC27
  8
0
 10
4721.1521227183211522
 20
215.7784127030184038
 30
0.0
 11
4721.1517046635217412
 21
215.7649604184184113
 31
0.0
  0
LINE
  5
CC28
  8
0
 10
4721.1501463567219616
 20
215.7148167797182907
 30
0.0
 11
4721.1495347031222991
 21
215.6951348158183066
 31
0.0
  0
LINE
  5
CC29
  8
0
 10
4721.1479021991226546
 20
215.6426036370183112
 30
0.0
 11
4721.1473699025227688
 21
215.6254752474183078
 31
0.0
  0
LINE
  5
CC2A
  8
0
 10
4721.1456524442228329
 20
215.5702103865183119
 30
0.0
 11
4721.1451997208223474
 21
215.5556425247183086
 31
0.0
  0
LINE
  5
CC2B
  8
0
 10
4721.9785687314215465
 20
215.7510269247183032
 30
0.0
 11
4721.9792222135229167
 21
215.7299989900184016
 31
0.0
  0
LINE
  5
CC2C
  8
0
 10
4721.9808145858223725
 20
215.6787591837183129
 30
0.0
 11
4721.9813867885222862
 21
215.6603466817184085
 31
0.0
  0
LINE
  5
CC2D
  8
0
 10
4721.983064363322228
 20
215.6063652044184096
 30
0.0
 11
4721.9835568913231327
 21
215.5905164992184098
 31
0.0
  0
LINE
  5
CC2E
  8
0
 10
4721.9853086109224023
 20
215.5341491668183096
 30
0.0
 11
4721.9857249380211215
 21
215.5207524753182895
 31
0.0
  0
LINE
  5
CC2F
  8
0
 10
4721.9394636162223833
 20
215.6315318830183116
 30
0.0
 11
4721.9394636162223833
 21
215.6358132270183035
 31
0.0
  0
LINE
  5
CC30
  8
0
 10
4721.9395656157230405
 20
215.7735229849182872
 30
0.0
 11
4721.9395656157230405
 21
215.7778448771184117
 31
0.0
  0
LINE
  5
CC31
  8
0
 10
4721.9395909300228595
 20
215.5605749919184007
 30
0.0
 11
4721.9395909300228595
 21
215.5648618435182868
 31
0.0
  0
LINE
  5
CC32
  8
0
 10
4721.9396137172216186
 20
215.7025707408184019
 30
0.0
 11
4721.9396137172216186
 21
215.7068594846184055
 31
0.0
  0
LINE
  5
CC33
  8
0
 10
4721.1495347031222991
 20
215.6951348158183066
 30
0.0
 11
4721.1902397353233027
 21
215.6716056635183065
 31
0.0
  0
LINE
  5
CC34
  8
0
 10
4721.1451997208223474
 20
215.5556425247183086
 30
0.0
 11
4721.1902499532234287
 21
215.5296556036184086
 31
0.0
  0
LINE
  5
CC35
  8
0
 10
4721.1473699025227688
 20
215.6254752474183078
 30
0.0
 11
4721.1903833922224294
 21
215.6003454185182875
 31
0.0
  0
LINE
  5
CC36
  8
0
 10
4721.1517046635217412
 20
215.7649604184184113
 30
0.0
 11
4721.1903663078228419
 21
215.7426501433182864
 31
0.0
  0
LINE
  5
CC37
  8
0
 10
4722.8176734913231485
 20
215.512944582618303
 30
0.0
 11
4720.3121924262231914
 21
215.512944582618303
 31
0.0
  0
LINE
  5
CC38
  8
0
 10
4721.9853086109224023
 20
215.5341491668183096
 30
0.0
 11
4721.9395909300228595
 21
215.5605749919184007
 31
0.0
  0
LINE
  5
CC39
  8
0
 10
4721.983064363322228
 20
215.6063652044184096
 30
0.0
 11
4721.9394636162223833
 21
215.6315318830183116
 31
0.0
  0
LINE
  5
CC3A
  8
0
 10
4721.936487568672419
 20
215.8183934015183922
 30
0.0
 11
4721.9636397964222851
 21
215.7920598742184097
 31
0.0
  0
LINE
  5
CC3B
  8
0
 10
4721.9808145858223725
 20
215.6787591837183129
 30
0.0
 11
4721.9396137172216186
 21
215.7025707408184019
 31
0.0
  0
LINE
  5
CC3C
  8
0
 10
4721.9785687314215465
 20
215.7510269247183032
 30
0.0
 11
4721.9395656157230405
 21
215.7735229849182872
 31
0.0
  0
LINE
  5
CC3D
  8
0
 10
4721.936487568672419
 20
215.8183934015183922
 30
0.0
 11
4721.1933783488721019
 21
215.8183934015183922
 31
0.0
  0
ARC
  5
CC3E
  8
0
 10
4720.2855651721220056
 20
212.442078440918408
 30
0.0
 40
0.0196850394
 50
179.4999999998991882
 51
270.0
  0
ARC
  5
CC3F
  8
0
 10
4720.3121924262231914
 20
215.4932595432183859
 30
0.0
 40
0.0196850394
 50
90.0
 51
179.5000000000001137
  0
ARC
  5
CC40
  8
0
 10
4719.8566812133612984
 20
211.8847237406575914
 30
0.0
 40
0.011947810712689
 50
181.8280185193586078
 51
272.2747992067140217
  0
LINE
  5
CC41
  8
0
 10
4723.2966403634682138
 20
212.4223934015184057
 30
0.0
 11
4723.285126434421727
 21
211.8843426111183135
 31
0.0
  0
LINE
  5
CC42
  8
0
 10
4722.8639850352228677
 20
212.4422502231182932
 30
0.0
 11
4722.8373577811225914
 21
215.4934313254184133
 31
0.0
  0
ARC
  5
CC43
  8
0
 10
4722.8443007454216058
 20
212.442078440918408
 30
0.0
 40
0.0196850394
 50
270.0
 51
0.5000000001007904
  0
ARC
  5
CC44
  8
0
 10
4722.8176734913231485
 20
215.4932595432183859
 30
0.0
 40
0.0196850394
 50
0.4999999999998307
 51
90.0
  0
ARC
  5
CC45
  8
0
 10
4723.2731847041832225
 20
211.8847237406575914
 30
0.0
 40
0.011947810712689
 50
267.7252007932859215
 51
358.1719814806413069
  0
LINE
  5
CC46
  8
0
 10
4721.1902499532234287
 20
215.5275109391182866
 30
0.0
 11
4721.9395909300228595
 21
215.5627184177184006
 31
0.0
  0
LINE
  5
CC47
  8
0
 10
4721.1903833922224294
 20
215.5983548267684
 30
0.0
 11
4721.9394636162223833
 21
215.6336725550183075
 31
0.0
  0
LINE
  5
CC48
  8
0
 10
4721.1902397353233027
 20
215.6694618658684135
 30
0.0
 11
4721.9396137172216186
 21
215.7047151127183895
 31
0.0
  0
LINE
  5
CC49
  8
0
 10
4721.1903663078228419
 20
215.7405091831182915
 30
0.0
 11
4721.9395656157230405
 21
215.7756839310183921
 31
0.0
  0
LINE
  5
CC4A
  8
0
 10
4721.1901979992226188
 20
215.8093380790182891
 30
0.0
 11
4721.3829276259148173
 21
215.8183934015183922
 31
0.0
  0
LINE
  5
CC4B
  8
0
 10
4721.1454260825221354
 20
215.5629264556183102
 30
0.0
 11
4721.9833106273217709
 21
215.5984408518183102
 31
0.0
  0
LINE
  5
CC4C
  8
0
 10
4721.1476360508213475
 20
215.6340394422182953
 30
0.0
 11
4721.9811006871723293
 21
215.6695529327182896
 31
0.0
  0
LINE
  5
CC4D
  8
0
 10
4721.1498405299216756
 20
215.7049757977682987
 30
0.0
 11
4721.9788954724726864
 21
215.7405129573683951
 31
0.0
  0
LINE
  5
CC4E
  8
0
 10
4721.1519136909228109
 20
215.7716865607183081
 30
0.0
 11
4721.9497770503503489
 21
215.8055046274627955
 31
0.0
  0
LINE
  5
CC4F
  8
0
 10
4721.6432737885006645
 20
215.512944582618303
 30
0.0
 11
4721.9855167744726714
 21
215.5274508210684132
 31
0.0
  0
ENDSEC
  0
EOF
