  0
SECTION
  2
HEADER
  9
$ACADVER
  1
AC1009
  9
$INSBASE
 10
4720.8209831036047035
 20
219.6065310293938069
 30
0.0
  9
$EXTMIN
 10
4719.0892756989078407
 20
214.1747103017027882
 30
0.0
  9
$EXTMAX
 10
4722.5526905083006568
 20
225.0383517570847971
 30
0.0
  9
$LIMMIN
 10
0.0
 20
0.0
  9
$LIMMAX
 10
11.6929133858000007
 20
8.2677165353999982
  9
$ORTHOMODE
 70
     1
  9
$REGENMODE
 70
     1
  9
$FILLMODE
 70
     1
  9
$QTEXTMODE
 70
     0
  9
$MIRRTEXT
 70
     0
  9
$DRAGMODE
 70
     2
  9
$LTSCALE
 40
0.6431102362
  9
$OSMODE
 70
  4095
  9
$ATTMODE
 70
     1
  9
$TEXTSIZE
 40
0.2
  9
$TRACEWID
 40
0.05
  9
$TEXTSTYLE
  7
STANDARD
  9
$CLAYER
  8
0
  9
$CELTYPE
  6
BYLAYER
  9
$CECOLOR
 62
   256
  9
$DIMSCALE
 40
1.0
  9
$DIMASZ
 40
0.1875
  9
$DIMEXO
 40
0.0625
  9
$DIMDLI
 40
0.4443307087
  9
$DIMRND
 40
0.0
  9
$DIMDLE
 40
0.0
  9
$DIMEXE
 40
0.125
  9
$DIMTP
 40
0.01
  9
$DIMTM
 40
0.01
  9
$DIMTXT
 40
2.0
  9
$DIMCEN
 40
0.1052362205
  9
$DIMTSZ
 40
0.0
  9
$DIMTOL
 70
     1
  9
$DIMLIM
 70
     0
  9
$DIMTIH
 70
     1
  9
$DIMTOH
 70
     1
  9
$DIMSE1
 70
     0
  9
$DIMSE2
 70
     0
  9
$DIMTAD
 70
     0
  9
$DIMZIN
 70
     0
  9
$DIMBLK
  1

  9
$DIMASO
 70
     1
  9
$DIMSHO
 70
     1
  9
$DIMPOST
  1
\X
  9
$DIMAPOST
  1

  9
$DIMALT
 70
     1
  9
$DIMALTD
 70
     2
  9
$DIMALTF
 40
25.3999999999999986
  9
$DIMLFAC
 40
1.0
  9
$DIMTOFL
 70
     0
  9
$DIMTVP
 40
0.0
  9
$DIMTIX
 70
     0
  9
$DIMSOXD
 70
     0
  9
$DIMSAH
 70
     0
  9
$DIMBLK1
  1

  9
$DIMBLK2
  1

  9
$DIMSTYLE
  2
STANDARD
  9
$DIMCLRD
 70
     0
  9
$DIMCLRE
 70
     0
  9
$DIMCLRT
 70
     0
  9
$DIMTFAC
 40
1.0
  9
$DIMGAP
 40
0.09
  9
$LUNITS
 70
     2
  9
$LUPREC
 70
     4
  9
$SKETCHINC
 40
0.1
  9
$FILLETRAD
 40
0.0
  9
$AUNITS
 70
     0
  9
$AUPREC
 70
     0
  9
$MENU
  1
.
  9
$ELEVATION
 40
0.0
  9
$PELEVATION
 40
0.0
  9
$THICKNESS
 40
0.0
  9
$LIMCHECK
 70
     0
  9
$BLIPMODE
 70
     0
  9
$CHAMFERA
 40
0.0
  9
$CHAMFERB
 40
0.0
  9
$SKPOLY
 70
     0
  9
$TDCREATE
 40
2458060.468368056230247
  9
$TDUPDATE
 40
2459246.4899652781896293
  9
$TDINDWG
 40
0.3732940972
  9
$TDUSRTIMER
 40
0.3732940972
  9
$USRTIMER
 70
     1
  9
$ANGBASE
 50
0.0
  9
$ANGDIR
 70
     0
  9
$PDMODE
 70
     0
  9
$PDSIZE
 40
0.3125
  9
$PLINEWID
 40
0.0
  9
$COORDS
 70
     1
  9
$SPLFRAME
 70
     0
  9
$SPLINETYPE
 70
     6
  9
$SPLINESEGS
 70
     8
  9
$ATTDIA
 70
     1
  9
$ATTREQ
 70
     1
  9
$HANDLING
 70
     1
  9
$HANDSEED
  5
CE0B
  9
$SURFTAB1
 70
     6
  9
$SURFTAB2
 70
     6
  9
$SURFTYPE
 70
     6
  9
$SURFU
 70
     6
  9
$SURFV
 70
     6
  9
$UCSNAME
  2

  9
$UCSORG
 10
0.0
 20
0.0
 30
0.0
  9
$UCSXDIR
 10
1.0
 20
0.0
 30
0.0
  9
$UCSYDIR
 10
0.0
 20
1.0
 30
0.0
  9
$PUCSNAME
  2

  9
$PUCSORG
 10
0.0
 20
0.0
 30
0.0
  9
$PUCSXDIR
 10
1.0
 20
0.0
 30
0.0
  9
$PUCSYDIR
 10
0.0
 20
1.0
 30
0.0
  9
$USERI1
 70
     0
  9
$USERI2
 70
     0
  9
$USERI3
 70
     0
  9
$USERI4
 70
     0
  9
$USERI5
 70
     0
  9
$USERR1
 40
0.0
  9
$USERR2
 40
0.0
  9
$USERR3
 40
0.0
  9
$USERR4
 40
0.0
  9
$USERR5
 40
0.0
  9
$WORLDVIEW
 70
     1
  9
$SHADEDGE
 70
     3
  9
$SHADEDIF
 70
    70
  9
$TILEMODE
 70
     1
  9
$MAXACTVP
 70
    64
  9
$PLIMCHECK
 70
     0
  9
$PEXTMIN
 10
1.0000000000000000E+20
 20
1.0000000000000000E+20
 30
1.0000000000000000E+20
  9
$PEXTMAX
 10
-1.0000000000000000E+20
 20
-1.0000000000000000E+20
 30
-1.0000000000000000E+20
  9
$PLIMMIN
 10
0.0
 20
0.0
  9
$PLIMMAX
 10
12.0
 20
9.0
  9
$UNITMODE
 70
     0
  9
$VISRETAIN
 70
     1
  9
$PLINEGEN
 70
     0
  9
$PSLTSCALE
 70
     1
  0
ENDSEC
  0
SECTION
  2
TABLES
  0
TABLE
  2
VPORT
 70
     1
  0
VPORT
  2
*ACTIVE
 70
     0
 10
0.0
 20
0.0
 11
1.0
 21
1.0
 12
0.0
 22
0.0
 13
0.0
 23
0.0
 14
1.0
 24
1.0
 15
0.0
 25
0.0
 16
0.0
 26
0.0
 36
32.3082816519795983
 17
4720.821044921875
 27
219.6065292358397869
 37
0.0
 40
11.4025075574203996
 41
2.1186252771618621
 42
50.0
 43
0.0
 44
0.0
 50
0.0
 51
0.0
 71
     0
 72
   100
 73
     1
 74
     1
 75
     0
 76
     0
 77
     0
 78
     0
  0
ENDTAB
  0
TABLE
  2
LTYPE
 70
     2
  0
LTYPE
  2
CONTINUOUS
 70
     0
  3
Solid line
 72
    65
 73
     0
 40
0.0
  0
LTYPE
  2
PHANTOM2
 70
     0
  3
___ _ _ ___ _ _ ___ _ _ ___ _ _
 72
    65
 73
     6
 40
1.25
 49
0.625
 49
-0.125
 49
0.125
 49
-0.125
 49
0.125
 49
-0.125
  0
ENDTAB
  0
TABLE
  2
LAYER
 70
     2
  0
LAYER
  2
0
 70
     0
 62
   255
  6
CONTINUOUS
  0
LAYER
  2
DEFPOINTS
 70
     0
 62
     7
  6
CONTINUOUS
  0
ENDTAB
  0
TABLE
  2
STYLE
 70
     1
  0
STYLE
  2
STANDARD
 70
     0
 40
0.0
 41
0.8
 50
0.0
 71
     0
 42
0.2
  3
txt
  4

  0
ENDTAB
  0
TABLE
  2
VIEW
 70
     0
  0
ENDTAB
  0
TABLE
  2
UCS
 70
     0
  0
ENDTAB
  0
TABLE
  2
APPID
 70
     9
  0
APPID
  2
ACAD
 70
     0
  0
APPID
  2
ACAD_MLEADERVER
 70
     0
  0
APPID
  2
ACAD_EXEMPT_FROM_CAD_STANDARDS
 70
     0
  0
APPID
  2
ACAD_NAV_VCDISPLAY
 70
     0
  0
APPID
  2
ACAECLAYERSTANDARD
 70
     0
  0
APPID
  2
ACCMTRANSPARENCY
 70
     0
  0
APPID
  2
ACAD_DSTYLE_DIMJAG
 70
     0
  0
APPID
  2
ACAD_DSTYLE_DIMTALN
 70
     0
  0
APPID
  2
ACDBATTR
 70
     0
  0
ENDTAB
  0
TABLE
  2
DIMSTYLE
 70
     1
  0
DIMSTYLE
  2
STANDARD
 70
     0
  3

  4

  5

  6

  7

 40
1.0
 41
0.1875
 42
0.0625
 43
0.38
 44
0.125
 45
0.0
 46
0.0
 47
0.01
 48
0.01
140
0.15625
141
0.09
142
0.0
143
25.3999999999999986
144
1.0
145
0.0
146
1.0
147
0.09
 71
     1
 72
     0
 73
     1
 74
     1
 75
     0
 76
     0
 77
     0
 78
     4
170
     0
171
     2
172
     0
173
     0
174
     0
175
     0
176
     0
177
     0
178
     0
  0
ENDTAB
  0
ENDSEC
  0
SECTION
  2
BLOCKS
  0
BLOCK
  8
0
  2
$MODEL_SPACE
 70
     0
 10
0.0
 20
0.0
 30
0.0
  3
$MODEL_SPACE
  1

  0
ENDBLK
  5
21
  8
0
  0
BLOCK
 67
     1
  8
0
  2
$PAPER_SPACE
 70
     0
 10
0.0
 20
0.0
 30
0.0
  3
$PAPER_SPACE
  1

  0
ENDBLK
  5
1D
 67
     1
  8
0
  0
ENDSEC
  0
SECTION
  2
ENTITIES
  0
ATTDEF
  5
3930
  8
DEFPOINTS
 10
4720.8159447919997547
 20
219.6049966521516126
 30
0.0
 40
0.001
  1
K-26300-G
  3

  2
MODELNUMBER
 70
     0
1001
ACDBATTR
1070
     0
1070
     1
  0
ATTDEF
  5
3931
  8
DEFPOINTS
 10
4720.8159447919997547
 20
219.6033299854850043
 30
0.0
 40
0.001
  1

  3

  2
TRADENAME
 70
     0
1001
ACDBATTR
1070
     0
1070
     1
  0
ATTDEF
  5
3932
  8
DEFPOINTS
 10
4720.8159447919997547
 20
219.6016633188183107
 30
0.0
 40
0.001
  1
BODY SPRAY
  3

  2
PRODUCT
 70
     0
1001
ACDBATTR
1070
     0
1070
     1
  0
LINE
  5
CC20
  8
0
 10
4720.591993960554646
 20
223.1892083979437871
 30
0.0
 11
4720.5919914960550159
 21
216.0238536608439119
 31
0.0
  0
LINE
  5
CC21
  8
0
 10
4720.7680808619543313
 20
223.1195973342439061
 30
0.0
 11
4720.7968872451538118
 21
223.115429128843914
 31
0.0
  0
LINE
  5
CC22
  8
0
 10
4720.7680808619543313
 20
223.2593477728439098
 30
0.0
 11
4720.7968872451538118
 21
223.2635159783438041
 31
0.0
  0
ARC
  5
CC23
  8
0
 10
4720.827290603219808
 20
216.0301772395665978
 30
0.0
 40
0.2353841049102167
 50
181.539424888685005
 51
268.4644826734722187
  0
ARC
  5
CC24
  8
0
 10
4720.8346269523217416
 20
223.1755509383723108
 30
0.0
 40
0.2430174047502574
 50
93.2184781817103811
 51
176.7783077469244972
  0
CIRCLE
  5
CC25
  8
0
 10
4720.8209703376551261
 20
223.1894725535437942
 30
0.0
 40
0.1181620418
  0
ARC
  5
CC26
  8
0
 10
5092.3406577782370732
 20
219.6046952647932073
 30
0.0
 40
373.2513820838415199
 50
179.4497526558359937
 51
179.9997182018097135
  0
ARC
  5
CC27
  8
0
 10
4721.2202786625002773
 20
223.1463466847679911
 30
0.0
 40
2.1142251700420589
 50
134.5869073184857996
 51
178.8383857660479066
  0
ARC
  5
CC28
  8
0
 10
4720.8528283170926443
 20
223.2323508755017087
 30
0.0
 40
1.8062816230868091
 50
91.0101917898727208
 51
128.1877125475874095
  0
ARC
  5
CC29
  8
0
 10
4720.8990620644308365
 20
223.1229123853179885
 30
0.0
 40
1.811009981934051
 50
92.4709869238103437
 51
130.2065287561682112
  0
ARC
  5
CC2A
  8
0
 10
4721.3128156782977385
 20
223.1247553163973123
 30
0.0
 40
2.100781607724564
 50
138.890434687974107
 51
178.2418860941261869
  0
ARC
  5
CC2B
  8
0
 10
5092.9759301524891271
 20
219.6172100280543873
 30
0.0
 40
373.7799752902673163
 50
179.4524492909588105
 51
180.0016369564797003
  0
ARC
  5
CC2C
  8
0
 10
4720.8074256404515836
 20
223.1885788275756966
 30
0.0
 40
0.0739049132331962
 50
261.8020237116522821
 51
315.390811795349407
  0
ARC
  5
CC2D
  8
0
 10
4720.8066153881873106
 20
223.1894475275105094
 30
0.0
 40
0.0750918184692577
 50
315.353099627843676
 51
61.4406202068679619
  0
ARC
  5
CC2E
  8
0
 10
4720.8074402857955647
 20
223.19051157262831
 30
0.0
 40
0.0737632016703822
 50
61.6082736491218768
 51
98.2253285516456884
  0
ARC
  5
CC2F
  8
0
 10
4720.7780365111430001
 20
223.1904005201618872
 30
0.0
 40
0.0696623183877008
 50
54.2594363847933465
 51
98.216442830134767
  0
ARC
  5
CC30
  8
0
 10
4720.7772150199307362
 20
223.1894762210409056
 30
0.0
 40
0.0708925041368644
 50
304.0109533068826977
 51
54.156889453396353
  0
ARC
  5
CC31
  8
0
 10
4720.7752345310027522
 20
223.2008360136834995
 30
0.0
 40
0.0815530380669755
 50
264.9676614195420257
 51
300.6983520109093888
  0
ARC
  5
CC32
  8
0
 10
4720.7781916297235512
 20
223.1890013250335869
 30
0.0
 40
0.0701365921786629
 50
211.1559624065914988
 51
261.7114621543227031
  0
ARC
  5
CC33
  8
0
 10
4720.7787987985248037
 20
223.1894648174736062
 30
0.0
 40
0.0708960290931441
 50
133.3879386611517077
 51
211.2226431873561125
  0
ARC
  5
CC34
  8
0
 10
4720.7781285634710002
 20
223.1900957521847033
 30
0.0
 40
0.0699771296292853
 50
98.2553778201406658
 51
133.3440014414233872
  0
CIRCLE
  5
CC35
  8
0
 10
4720.7767759050830136
 20
223.1895437815651917
 30
0.0
 40
0.0320895551231929
  0
LINE
  5
CC36
  8
0
 10
4721.049972246654761
 20
223.1892083979437871
 30
0.0
 11
4721.0499747111553006
 21
216.0238536608439119
 31
0.0
  0
ARC
  5
CC37
  8
0
 10
4720.8146756039886895
 20
216.0301772395665978
 30
0.0
 40
0.2353841049102167
 50
271.5355173265277813
 51
358.4605751113148813
  0
ARC
  5
CC38
  8
0
 10
4720.807339254886756
 20
223.1755509383723108
 30
0.0
 40
0.2430174047502574
 50
3.221692253075449
 51
86.7815218182896331
  0
ARC
  5
CC39
  8
0
 10
4349.3013084289741528
 20
219.6046952647932073
 30
0.0
 40
373.2513820838415199
 50
0.0002817981902398
 51
0.550247344163953
  0
ARC
  5
CC3A
  8
0
 10
4720.4216875447100392
 20
223.1463466847679911
 30
0.0
 40
2.1142251700420589
 50
1.1616142339520481
 51
45.4130926815141365
  0
ARC
  5
CC3B
  8
0
 10
4720.7891378901158532
 20
223.2323508755017087
 30
0.0
 40
1.8062816230868091
 50
51.8122874524125265
 51
88.9898082101272649
  0
ARC
  5
CC3C
  8
0
 10
4720.742904142777661
 20
223.1229123853179885
 30
0.0
 40
1.811009981934051
 50
49.7934712438317604
 51
87.5290130761896563
  0
ARC
  5
CC3D
  8
0
 10
4720.329150528910759
 20
223.1247553163973123
 30
0.0
 40
2.100781607724564
 50
1.758113905873816
 51
41.1095653120259215
  0
ARC
  5
CC3E
  8
0
 10
4348.6660360547202799
 20
219.6172100280543873
 30
0.0
 40
373.7799752902673163
 50
359.9983630435203281
 51
0.5475507090411701
  0
LINE
  5
CC3F
  8
0
 10
4720.8738598133541018
 20
222.5684162318437984
 30
0.0
 11
4720.8450534301546213
 21
222.5642480264438916
 31
0.0
  0
LINE
  5
CC40
  8
0
 10
4720.8738598133541018
 20
222.7081666704438021
 30
0.0
 11
4720.8450534301546213
 21
222.7123348759438102
 31
0.0
  0
CIRCLE
  5
CC41
  8
0
 10
4720.8209703376551261
 20
222.6382914511438003
 30
0.0
 40
0.1181620418
  0
ARC
  5
CC42
  8
0
 10
4720.8345150348568495
 20
222.6373977251757026
 30
0.0
 40
0.0739049132331962
 50
224.609188204650593
 51
278.1979762883477179
  0
ARC
  5
CC43
  8
0
 10
4720.835325287122032
 20
222.638266425110487
 30
0.0
 40
0.0750918184692577
 50
118.5593797931319955
 51
224.6469003721562956
  0
ARC
  5
CC44
  8
0
 10
4720.8345003895128684
 20
222.6393304702284013
 30
0.0
 40
0.0737632016703822
 50
81.7746714483542974
 51
118.3917263508781019
  0
ARC
  5
CC45
  8
0
 10
4720.863904164167252
 20
222.6392194177618933
 30
0.0
 40
0.0696623183877008
 50
81.7835571698652615
 51
125.7405636152065966
  0
ARC
  5
CC46
  8
0
 10
4720.8647256553767875
 20
222.6382951186409116
 30
0.0
 40
0.0708925041368644
 50
125.8431105466035973
 51
235.9890466931171886
  0
ARC
  5
CC47
  8
0
 10
4720.8667061443056809
 20
222.6496549112835055
 30
0.0
 40
0.0815530380669755
 50
239.3016479890906112
 51
275.0323385804579743
  0
ARC
  5
CC48
  8
0
 10
4720.8637490455857915
 20
222.6378202226335929
 30
0.0
 40
0.0701365921786629
 50
278.2885378456774106
 51
328.8440375934084727
  0
ARC
  5
CC49
  8
0
 10
4720.8631418767836294
 20
222.6382837150736123
 30
0.0
 40
0.0708960290931441
 50
328.7773568126439159
 51
46.6120613388482994
  0
ARC
  5
CC4A
  8
0
 10
4720.8638121118383424
 20
222.6389146497845957
 30
0.0
 40
0.0699771296292853
 50
46.6559985585765205
 51
81.7446221798593626
  0
CIRCLE
  5
CC4B
  8
0
 10
4720.865164770226329
 20
222.6383626791651977
 30
0.0
 40
0.0320895551231929
  0
LINE
  5
CC4C
  8
0
 10
4720.7680936279048183
 20
222.017235129543792
 30
0.0
 11
4720.7969000111052083
 21
222.0130669241438
 31
0.0
  0
LINE
  5
CC4D
  8
0
 10
4720.7680936279048183
 20
222.1569855681439094
 30
0.0
 11
4720.7969000111052083
 21
222.1611537736438038
 31
0.0
  0
CIRCLE
  5
CC4E
  8
0
 10
4720.8209831036047035
 20
222.0871103488437939
 30
0.0
 40
0.1181620418
  0
ARC
  5
CC4F
  8
0
 10
4720.8074384064020705
 20
222.0862166228756962
 30
0.0
 40
0.0739049132331962
 50
261.8020237116522821
 51
315.390811795349407
  0
ARC
  5
CC50
  8
0
 10
4720.8066281541359785
 20
222.0870853228105943
 30
0.0
 40
0.0750918184692577
 50
315.353099627843676
 51
61.4406202068679619
  0
ARC
  5
CC51
  8
0
 10
4720.8074530517460516
 20
222.0881493679283949
 30
0.0
 40
0.0737632016703822
 50
61.6082736491218768
 51
98.2253285516456884
  0
ARC
  5
CC52
  8
0
 10
4720.7780492770925775
 20
222.0880383154618869
 30
0.0
 40
0.0696623183877008
 50
54.2594363847933465
 51
98.216442830134767
  0
ARC
  5
CC53
  8
0
 10
4720.7772277858812231
 20
222.0871140163409905
 30
0.0
 40
0.0708925041368644
 50
304.0109533068826977
 51
54.156889453396353
  0
ARC
  5
CC54
  8
0
 10
4720.7752472969532391
 20
222.0984738089834991
 30
0.0
 40
0.0815530380669755
 50
264.9676614195420257
 51
300.6983520109093888
  0
ARC
  5
CC55
  8
0
 10
4720.7782043956731286
 20
222.0866391203335866
 30
0.0
 40
0.0701365921786629
 50
211.1559624065914988
 51
261.7114621543227031
  0
ARC
  5
CC56
  8
0
 10
4720.7788115644752907
 20
222.0871026127736059
 30
0.0
 40
0.0708960290931441
 50
133.3879386611517077
 51
211.2226431873561125
  0
ARC
  5
CC57
  8
0
 10
4720.7781413294205777
 20
222.087733547484703
 30
0.0
 40
0.0699771296292853
 50
98.2553778201406658
 51
133.3440014414233872
  0
CIRCLE
  5
CC58
  8
0
 10
4720.7767886710325911
 20
222.0871815768651913
 30
0.0
 40
0.0320895551231929
  0
LINE
  5
CC59
  8
0
 10
4720.8738725793036792
 20
221.4660540271437981
 30
0.0
 11
4720.8450661961051082
 21
221.461885821743806
 31
0.0
  0
LINE
  5
CC5A
  8
0
 10
4720.8738725793036792
 20
221.6058044657438018
 30
0.0
 11
4720.8450661961051082
 21
221.6099726712438098
 31
0.0
  0
CIRCLE
  5
CC5B
  8
0
 10
4720.8209831036047035
 20
221.5359292464439136
 30
0.0
 40
0.1181620418
  0
ARC
  5
CC5C
  8
0
 10
4720.8345278008073365
 20
221.5350355204757022
 30
0.0
 40
0.0739049132331962
 50
224.609188204650593
 51
278.1979762883477179
  0
ARC
  5
CC5D
  8
0
 10
4720.8353380530734285
 20
221.5359042204104867
 30
0.0
 40
0.0750918184692577
 50
118.5593797931319955
 51
224.6469003721562956
  0
ARC
  5
CC5E
  8
0
 10
4720.8345131554624459
 20
221.5369682655282872
 30
0.0
 40
0.0737632016703822
 50
81.7746714483542974
 51
118.3917263508781019
  0
ARC
  5
CC5F
  8
0
 10
4720.86391693011592
 20
221.5368572130618929
 30
0.0
 40
0.0696623183877008
 50
81.7835571698652615
 51
125.7405636152065966
  0
ARC
  5
CC60
  8
0
 10
4720.8647384213290934
 20
221.5359329139409112
 30
0.0
 40
0.0708925041368644
 50
125.8431105466035973
 51
235.9890466931171886
  0
ARC
  5
CC61
  8
0
 10
4720.8667189102561679
 20
221.5472927065835052
 30
0.0
 40
0.0815530380669755
 50
239.3016479890906112
 51
275.0323385804579743
  0
ARC
  5
CC62
  8
0
 10
4720.8637618115353689
 20
221.5354580179335926
 30
0.0
 40
0.0701365921786629
 50
278.2885378456774106
 51
328.8440375934084727
  0
ARC
  5
CC63
  8
0
 10
4720.8631546427341164
 20
221.5359215103736119
 30
0.0
 40
0.0708960290931441
 50
328.7773568126439159
 51
46.6120613388482994
  0
ARC
  5
CC64
  8
0
 10
4720.8638248777879198
 20
221.536552445084709
 30
0.0
 40
0.0699771296292853
 50
46.6559985585765205
 51
81.7446221798593626
  0
CIRCLE
  5
CC65
  8
0
 10
4720.8651775361759064
 20
221.5360004744651974
 30
0.0
 40
0.0320895551231929
  0
LINE
  5
CC66
  8
0
 10
4720.7680808619543313
 20
220.9148729248437917
 30
0.0
 11
4720.7968872451538118
 21
220.9107047194437996
 31
0.0
  0
LINE
  5
CC67
  8
0
 10
4720.7680808619543313
 20
221.0546233634437954
 30
0.0
 11
4720.7968872451538118
 21
221.0587915689438034
 31
0.0
  0
CIRCLE
  5
CC68
  8
0
 10
4720.8209703376551261
 20
220.9847481441439072
 30
0.0
 40
0.1181620418
  0
ARC
  5
CC69
  8
0
 10
4720.8074256404515836
 20
220.9838544181756106
 30
0.0
 40
0.0739049132331962
 50
261.8020237116522821
 51
315.390811795349407
  0
ARC
  5
CC6A
  8
0
 10
4720.8066153881873106
 20
220.9847231181105087
 30
0.0
 40
0.0750918184692577
 50
315.353099627843676
 51
61.4406202068679619
  0
ARC
  5
CC6B
  8
0
 10
4720.8074402857955647
 20
220.9857871632283945
 30
0.0
 40
0.0737632016703822
 50
61.6082736491218768
 51
98.2253285516456884
  0
ARC
  5
CC6C
  8
0
 10
4720.7780365111430001
 20
220.9856761107618865
 30
0.0
 40
0.0696623183877008
 50
54.2594363847933465
 51
98.216442830134767
  0
ARC
  5
CC6D
  8
0
 10
4720.7772150199307362
 20
220.9847518116409049
 30
0.0
 40
0.0708925041368644
 50
304.0109533068826977
 51
54.156889453396353
  0
ARC
  5
CC6E
  8
0
 10
4720.7752345310027522
 20
220.9961116042834988
 30
0.0
 40
0.0815530380669755
 50
264.9676614195420257
 51
300.6983520109093888
  0
ARC
  5
CC6F
  8
0
 10
4720.7781916297235512
 20
220.9842769156335862
 30
0.0
 40
0.0701365921786629
 50
211.1559624065914988
 51
261.7114621543227031
  0
ARC
  5
CC70
  8
0
 10
4720.7787987985248037
 20
220.9847404080736055
 30
0.0
 40
0.0708960290931441
 50
133.3879386611517077
 51
211.2226431873561125
  0
ARC
  5
CC71
  8
0
 10
4720.7781285634710002
 20
220.9853713427847026
 30
0.0
 40
0.0699771296292853
 50
98.2553778201406658
 51
133.3440014414233872
  0
CIRCLE
  5
CC72
  8
0
 10
4720.7767759050830136
 20
220.984819372165191
 30
0.0
 40
0.0320895551231929
  0
LINE
  5
CC73
  8
0
 10
4720.8738598133541018
 20
220.3636918224439114
 30
0.0
 11
4720.8450534301546213
 21
220.3595236170438056
 31
0.0
  0
LINE
  5
CC74
  8
0
 10
4720.8738598133541018
 20
220.5034422610438014
 30
0.0
 11
4720.8450534301546213
 21
220.5076104665438947
 31
0.0
  0
CIRCLE
  5
CC75
  8
0
 10
4720.8209703376551261
 20
220.4335670417439133
 30
0.0
 40
0.1181620418
  0
ARC
  5
CC76
  8
0
 10
4720.8345150348568495
 20
220.4326733157757019
 30
0.0
 40
0.0739049132331962
 50
224.609188204650593
 51
278.1979762883477179
  0
ARC
  5
CC77
  8
0
 10
4720.835325287122032
 20
220.4335420157104863
 30
0.0
 40
0.0750918184692577
 50
118.5593797931319955
 51
224.6469003721562956
  0
ARC
  5
CC78
  8
0
 10
4720.8345003895128684
 20
220.4346060608282869
 30
0.0
 40
0.0737632016703822
 50
81.7746714483542974
 51
118.3917263508781019
  0
ARC
  5
CC79
  8
0
 10
4720.863904164167252
 20
220.4344950083618926
 30
0.0
 40
0.0696623183877008
 50
81.7835571698652615
 51
125.7405636152065966
  0
ARC
  5
CC7A
  8
0
 10
4720.8647256553767875
 20
220.4335707092409109
 30
0.0
 40
0.0708925041368644
 50
125.8431105466035973
 51
235.9890466931171886
  0
ARC
  5
CC7B
  8
0
 10
4720.8667061443056809
 20
220.4449305018835048
 30
0.0
 40
0.0815530380669755
 50
239.3016479890906112
 51
275.0323385804579743
  0
ARC
  5
CC7C
  8
0
 10
4720.8637490455857915
 20
220.4330958132335923
 30
0.0
 40
0.0701365921786629
 50
278.2885378456774106
 51
328.8440375934084727
  0
ARC
  5
CC7D
  8
0
 10
4720.8631418767836294
 20
220.4335593056736116
 30
0.0
 40
0.0708960290931441
 50
328.7773568126439159
 51
46.6120613388482994
  0
ARC
  5
CC7E
  8
0
 10
4720.8638121118383424
 20
220.4341902403847087
 30
0.0
 40
0.0699771296292853
 50
46.6559985585765205
 51
81.7446221798593626
  0
CIRCLE
  5
CC7F
  8
0
 10
4720.865164770226329
 20
220.433638269765197
 30
0.0
 40
0.0320895551231929
  0
LINE
  5
CC80
  8
0
 10
4720.7680808619543313
 20
219.8125107200438038
 30
0.0
 11
4720.7968872451538118
 21
219.8083425146438117
 31
0.0
  0
LINE
  5
CC81
  8
0
 10
4720.7680808619543313
 20
219.9522611586438074
 30
0.0
 11
4720.7968872451538118
 21
219.9564293641437871
 31
0.0
  0
CIRCLE
  5
CC82
  8
0
 10
4720.8209703376551261
 20
219.8823859393438909
 30
0.0
 40
0.1181620418
  0
ARC
  5
CC83
  8
0
 10
4720.8074256404515836
 20
219.8814922133755942
 30
0.0
 40
0.0739049132331962
 50
261.8020237116522821
 51
315.390811795349407
  0
ARC
  5
CC84
  8
0
 10
4720.8066153881873106
 20
219.8823609133106061
 30
0.0
 40
0.0750918184692577
 50
315.353099627843676
 51
61.4406202068679619
  0
ARC
  5
CC85
  8
0
 10
4720.8074402857955647
 20
219.8834249584284066
 30
0.0
 40
0.0737632016703822
 50
61.6082736491218768
 51
98.2253285516456884
  0
ARC
  5
CC86
  8
0
 10
4720.7780365111430001
 20
219.8833139059618986
 30
0.0
 40
0.0696623183877008
 50
54.2594363847933465
 51
98.216442830134767
  0
ARC
  5
CC87
  8
0
 10
4720.7772150199307362
 20
219.8823896068410022
 30
0.0
 40
0.0708925041368644
 50
304.0109533068826977
 51
54.156889453396353
  0
ARC
  5
CC88
  8
0
 10
4720.7752345310027522
 20
219.8937493994835108
 30
0.0
 40
0.0815530380669755
 50
264.9676614195420257
 51
300.6983520109093888
  0
ARC
  5
CC89
  8
0
 10
4720.7781916297235512
 20
219.8819147108335983
 30
0.0
 40
0.0701365921786629
 50
211.1559624065914988
 51
261.7114621543227031
  0
ARC
  5
CC8A
  8
0
 10
4720.7787987985248037
 20
219.8823782032735892
 30
0.0
 40
0.0708960290931441
 50
133.3879386611517077
 51
211.2226431873561125
  0
ARC
  5
CC8B
  8
0
 10
4720.7781285634710002
 20
219.883009137984601
 30
0.0
 40
0.0699771296292853
 50
98.2553778201406658
 51
133.3440014414233872
  0
CIRCLE
  5
CC8C
  8
0
 10
4720.7767759050830136
 20
219.8824571673652031
 30
0.0
 40
0.0320895551231929
  0
LINE
  5
CC8D
  8
0
 10
4720.8738598133541018
 20
219.2613296176438951
 30
0.0
 11
4720.8450534301546213
 21
219.257161412243903
 31
0.0
  0
LINE
  5
CC8E
  8
0
 10
4720.8738598133541018
 20
219.4010800562438988
 30
0.0
 11
4720.8450534301546213
 21
219.4052482617439068
 31
0.0
  0
CIRCLE
  5
CC8F
  8
0
 10
4720.8209703376551261
 20
219.3312048369438116
 30
0.0
 40
0.1181620418
  0
ARC
  5
CC90
  8
0
 10
4720.8345150348568495
 20
219.330311110975714
 30
0.0
 40
0.0739049132331962
 50
224.609188204650593
 51
278.1979762883477179
  0
ARC
  5
CC91
  8
0
 10
4720.835325287122032
 20
219.3311798109104984
 30
0.0
 40
0.0750918184692577
 50
118.5593797931319955
 51
224.6469003721562956
  0
ARC
  5
CC92
  8
0
 10
4720.8345003895128684
 20
219.332243856028299
 30
0.0
 40
0.0737632016703822
 50
81.7746714483542974
 51
118.3917263508781019
  0
ARC
  5
CC93
  8
0
 10
4720.863904164167252
 20
219.3321328035619047
 30
0.0
 40
0.0696623183877008
 50
81.7835571698652615
 51
125.7405636152065966
  0
ARC
  5
CC94
  8
0
 10
4720.8647256553767875
 20
219.3312085044408946
 30
0.0
 40
0.0708925041368644
 50
125.8431105466035973
 51
235.9890466931171886
  0
ARC
  5
CC95
  8
0
 10
4720.8667061443056809
 20
219.3425682970834885
 30
0.0
 40
0.0815530380669755
 50
239.3016479890906112
 51
275.0323385804579743
  0
ARC
  5
CC96
  8
0
 10
4720.8637490455857915
 20
219.3307336084336043
 30
0.0
 40
0.0701365921786629
 50
278.2885378456774106
 51
328.8440375934084727
  0
ARC
  5
CC97
  8
0
 10
4720.8631418767836294
 20
219.3311971008735952
 30
0.0
 40
0.0708960290931441
 50
328.7773568126439159
 51
46.6120613388482994
  0
ARC
  5
CC98
  8
0
 10
4720.8638121118383424
 20
219.3318280355846923
 30
0.0
 40
0.0699771296292853
 50
46.6559985585765205
 51
81.7446221798593626
  0
CIRCLE
  5
CC99
  8
0
 10
4720.865164770226329
 20
219.3312760649652091
 30
0.0
 40
0.0320895551231929
  0
LINE
  5
CC9A
  8
0
 10
4720.7680808619543313
 20
218.7101485153438034
 30
0.0
 11
4720.7968872451538118
 21
218.7059803099438966
 31
0.0
  0
LINE
  5
CC9B
  8
0
 10
4720.7680808619543313
 20
218.8498989539438071
 30
0.0
 11
4720.7968872451538118
 21
218.8540671594437867
 31
0.0
  0
CIRCLE
  5
CC9C
  8
0
 10
4720.8209703376551261
 20
218.7800237346438053
 30
0.0
 40
0.1181620418
  0
ARC
  5
CC9D
  8
0
 10
4720.8074256404515836
 20
218.7791300086757076
 30
0.0
 40
0.0739049132331962
 50
261.8020237116522821
 51
315.390811795349407
  0
ARC
  5
CC9E
  8
0
 10
4720.8066153881873106
 20
218.779998708610492
 30
0.0
 40
0.0750918184692577
 50
315.353099627843676
 51
61.4406202068679619
  0
ARC
  5
CC9F
  8
0
 10
4720.8074402857955647
 20
218.7810627537284063
 30
0.0
 40
0.0737632016703822
 50
61.6082736491218768
 51
98.2253285516456884
  0
ARC
  5
CCA0
  8
0
 10
4720.7780365111430001
 20
218.7809517012618983
 30
0.0
 40
0.0696623183877008
 50
54.2594363847933465
 51
98.216442830134767
  0
ARC
  5
CCA1
  8
0
 10
4720.7772150199307362
 20
218.7800274021408882
 30
0.0
 40
0.0708925041368644
 50
304.0109533068826977
 51
54.156889453396353
  0
ARC
  5
CCA2
  8
0
 10
4720.7752345310027522
 20
218.7913871947835105
 30
0.0
 40
0.0815530380669755
 50
264.9676614195420257
 51
300.6983520109093888
  0
ARC
  5
CCA3
  8
0
 10
4720.7781916297235512
 20
218.7795525061335979
 30
0.0
 40
0.0701365921786629
 50
211.1559624065914988
 51
261.7114621543227031
  0
ARC
  5
CCA4
  8
0
 10
4720.7787987985248037
 20
218.7800159985735888
 30
0.0
 40
0.0708960290931441
 50
133.3879386611517077
 51
211.2226431873561125
  0
ARC
  5
CCA5
  8
0
 10
4720.7781285634710002
 20
218.7806469332846007
 30
0.0
 40
0.0699771296292853
 50
98.2553778201406658
 51
133.3440014414233872
  0
CIRCLE
  5
CCA6
  8
0
 10
4720.7767759050830136
 20
218.7800949626652027
 30
0.0
 40
0.0320895551231929
  0
LINE
  5
CCA7
  8
0
 10
4720.8738598133541018
 20
218.1589674129438094
 30
0.0
 11
4720.8450534301546213
 21
218.154799207543789
 31
0.0
  0
LINE
  5
CCA8
  8
0
 10
4720.8738598133541018
 20
218.2987178515438984
 30
0.0
 11
4720.8450534301546213
 21
218.3028860570439065
 31
0.0
  0
CIRCLE
  5
CCA9
  8
0
 10
4720.8209703376551261
 20
218.2288426322438113
 30
0.0
 40
0.1181620418
  0
ARC
  5
CCAA
  8
0
 10
4720.8345150348568495
 20
218.2279489062757136
 30
0.0
 40
0.0739049132331962
 50
224.609188204650593
 51
278.1979762883477179
  0
ARC
  5
CCAB
  8
0
 10
4720.835325287122032
 20
218.2288176062106118
 30
0.0
 40
0.0750918184692577
 50
118.5593797931319955
 51
224.6469003721562956
  0
ARC
  5
CCAC
  8
0
 10
4720.8345003895128684
 20
218.2298816513282986
 30
0.0
 40
0.0737632016703822
 50
81.7746714483542974
 51
118.3917263508781019
  0
ARC
  5
CCAD
  8
0
 10
4720.863904164167252
 20
218.2297705988619043
 30
0.0
 40
0.0696623183877008
 50
81.7835571698652615
 51
125.7405636152065966
  0
ARC
  5
CCAE
  8
0
 10
4720.8647256553767875
 20
218.2288462997408942
 30
0.0
 40
0.0708925041368644
 50
125.8431105466035973
 51
235.9890466931171886
  0
ARC
  5
CCAF
  8
0
 10
4720.8667061443056809
 20
218.2402060923834881
 30
0.0
 40
0.0815530380669755
 50
239.3016479890906112
 51
275.0323385804579743
  0
ARC
  5
CCB0
  8
0
 10
4720.8637490455857915
 20
218.228371403733604
 30
0.0
 40
0.0701365921786629
 50
278.2885378456774106
 51
328.8440375934084727
  0
ARC
  5
CCB1
  8
0
 10
4720.8631418767836294
 20
218.2288348961735949
 30
0.0
 40
0.0708960290931441
 50
328.7773568126439159
 51
46.6120613388482994
  0
ARC
  5
CCB2
  8
0
 10
4720.8638121118383424
 20
218.229465830884692
 30
0.0
 40
0.0699771296292853
 50
46.6559985585765205
 51
81.7446221798593626
  0
CIRCLE
  5
CCB3
  8
0
 10
4720.865164770226329
 20
218.2289138602652088
 30
0.0
 40
0.0320895551231929
  0
LINE
  5
CCB4
  8
0
 10
4720.7680808619543313
 20
217.6077863106438883
 30
0.0
 11
4720.7968872451538118
 21
217.603618105243811
 31
0.0
  0
LINE
  5
CCB5
  8
0
 10
4720.7680808619543313
 20
217.7475367492438068
 30
0.0
 11
4720.7968872451538118
 21
217.7517049547437864
 31
0.0
  0
CIRCLE
  5
CCB6
  8
0
 10
4720.8209703376551261
 20
217.6776615299438049
 30
0.0
 40
0.1181620418
  0
ARC
  5
CCB7
  8
0
 10
4720.8074256404515836
 20
217.6767678039757072
 30
0.0
 40
0.0739049132331962
 50
261.8020237116522821
 51
315.390811795349407
  0
ARC
  5
CCB8
  8
0
 10
4720.8066153881873106
 20
217.6776365039104917
 30
0.0
 40
0.0750918184692577
 50
315.353099627843676
 51
61.4406202068679619
  0
ARC
  5
CCB9
  8
0
 10
4720.8074402857955647
 20
217.6787005490282922
 30
0.0
 40
0.0737632016703822
 50
61.6082736491218768
 51
98.2253285516456884
  0
ARC
  5
CCBA
  8
0
 10
4720.7780365111430001
 20
217.6785894965618979
 30
0.0
 40
0.0696623183877008
 50
54.2594363847933465
 51
98.216442830134767
  0
ARC
  5
CCBB
  8
0
 10
4720.7772150199307362
 20
217.6776651974408878
 30
0.0
 40
0.0708925041368644
 50
304.0109533068826977
 51
54.156889453396353
  0
ARC
  5
CCBC
  8
0
 10
4720.7752345310027522
 20
217.6890249900835101
 30
0.0
 40
0.0815530380669755
 50
264.9676614195420257
 51
300.6983520109093888
  0
ARC
  5
CCBD
  8
0
 10
4720.7781916297235512
 20
217.6771903014335976
 30
0.0
 40
0.0701365921786629
 50
211.1559624065914988
 51
261.7114621543227031
  0
ARC
  5
CCBE
  8
0
 10
4720.7787987985248037
 20
217.6776537938735885
 30
0.0
 40
0.0708960290931441
 50
133.3879386611517077
 51
211.2226431873561125
  0
ARC
  5
CCBF
  8
0
 10
4720.7781285634710002
 20
217.678284728584714
 30
0.0
 40
0.0699771296292853
 50
98.2553778201406658
 51
133.3440014414233872
  0
CIRCLE
  5
CCC0
  8
0
 10
4720.7767759050830136
 20
217.6777327579652024
 30
0.0
 40
0.0320895551231929
  0
LINE
  5
CCC1
  8
0
 10
4720.8738598133541018
 20
217.0566052082438091
 30
0.0
 11
4720.8450534301546213
 21
217.0524370028437886
 31
0.0
  0
LINE
  5
CCC2
  8
0
 10
4720.8738598133541018
 20
217.1963556468438128
 30
0.0
 11
4720.8450534301546213
 21
217.2005238523439061
 31
0.0
  0
CIRCLE
  5
CCC3
  8
0
 10
4720.8209703376551261
 20
217.1264804275438109
 30
0.0
 40
0.1181620418
  0
ARC
  5
CCC4
  8
0
 10
4720.8345150348568495
 20
217.1255867015755996
 30
0.0
 40
0.0739049132331962
 50
224.609188204650593
 51
278.1979762883477179
  0
ARC
  5
CCC5
  8
0
 10
4720.835325287122032
 20
217.1264554015106114
 30
0.0
 40
0.0750918184692577
 50
118.5593797931319955
 51
224.6469003721562956
  0
ARC
  5
CCC6
  8
0
 10
4720.8345003895128684
 20
217.127519446628412
 30
0.0
 40
0.0737632016703822
 50
81.7746714483542974
 51
118.3917263508781019
  0
ARC
  5
CCC7
  8
0
 10
4720.863904164167252
 20
217.127408394161904
 30
0.0
 40
0.0696623183877008
 50
81.7835571698652615
 51
125.7405636152065966
  0
ARC
  5
CCC8
  8
0
 10
4720.8647256553767875
 20
217.1264840950410075
 30
0.0
 40
0.0708925041368644
 50
125.8431105466035973
 51
235.9890466931171886
  0
ARC
  5
CCC9
  8
0
 10
4720.8667061443056809
 20
217.1378438876834878
 30
0.0
 40
0.0815530380669755
 50
239.3016479890906112
 51
275.0323385804579743
  0
ARC
  5
CCCA
  8
0
 10
4720.8637490455857915
 20
217.1260091990336036
 30
0.0
 40
0.0701365921786629
 50
278.2885378456774106
 51
328.8440375934084727
  0
ARC
  5
CCCB
  8
0
 10
4720.8631418767836294
 20
217.1264726914735945
 30
0.0
 40
0.0708960290931441
 50
328.7773568126439159
 51
46.6120613388482994
  0
ARC
  5
CCCC
  8
0
 10
4720.8638121118383424
 20
217.1271036261846916
 30
0.0
 40
0.0699771296292853
 50
46.6559985585765205
 51
81.7446221798593626
  0
CIRCLE
  5
CCCD
  8
0
 10
4720.865164770226329
 20
217.1265516555652084
 30
0.0
 40
0.0320895551231929
  0
LINE
  5
CCCE
  8
0
 10
4720.7680808619543313
 20
216.5054241059438027
 30
0.0
 11
4720.7968872451538118
 21
216.5012559005438106
 31
0.0
  0
LINE
  5
CCCF
  8
0
 10
4720.7680808619543313
 20
216.6451745445438917
 30
0.0
 11
4720.7968872451538118
 21
216.6493427500438997
 31
0.0
  0
CIRCLE
  5
CCD0
  8
0
 10
4720.8209703376551261
 20
216.5752993252438046
 30
0.0
 40
0.1181620418
  0
ARC
  5
CCD1
  8
0
 10
4720.8074256404515836
 20
216.5744055992757069
 30
0.0
 40
0.0739049132331962
 50
261.8020237116522821
 51
315.390811795349407
  0
ARC
  5
CCD2
  8
0
 10
4720.8066153881873106
 20
216.5752742992104913
 30
0.0
 40
0.0750918184692577
 50
315.353099627843676
 51
61.4406202068679619
  0
ARC
  5
CCD3
  8
0
 10
4720.8074402857955647
 20
216.5763383443282919
 30
0.0
 40
0.0737632016703822
 50
61.6082736491218768
 51
98.2253285516456884
  0
ARC
  5
CCD4
  8
0
 10
4720.7780365111430001
 20
216.5762272918618976
 30
0.0
 40
0.0696623183877008
 50
54.2594363847933465
 51
98.216442830134767
  0
ARC
  5
CCD5
  8
0
 10
4720.7772150199307362
 20
216.5753029927408875
 30
0.0
 40
0.0708925041368644
 50
304.0109533068826977
 51
54.156889453396353
  0
ARC
  5
CCD6
  8
0
 10
4720.7752345310027522
 20
216.5866627853835098
 30
0.0
 40
0.0815530380669755
 50
264.9676614195420257
 51
300.6983520109093888
  0
ARC
  5
CCD7
  8
0
 10
4720.7781916297235512
 20
216.5748280967335972
 30
0.0
 40
0.0701365921786629
 50
211.1559624065914988
 51
261.7114621543227031
  0
ARC
  5
CCD8
  8
0
 10
4720.7787987985248037
 20
216.5752915891735881
 30
0.0
 40
0.0708960290931441
 50
133.3879386611517077
 51
211.2226431873561125
  0
ARC
  5
CCD9
  8
0
 10
4720.7781285634710002
 20
216.5759225238847137
 30
0.0
 40
0.0699771296292853
 50
98.2553778201406658
 51
133.3440014414233872
  0
CIRCLE
  5
CCDA
  8
0
 10
4720.7767759050830136
 20
216.575370553265202
 30
0.0
 40
0.0320895551231929
  0
LINE
  5
CCDB
  8
0
 10
4720.8738598133541018
 20
215.9542430035438088
 30
0.0
 11
4720.8450534301546213
 21
215.9500747981437883
 31
0.0
  0
LINE
  5
CCDC
  8
0
 10
4720.8738598133541018
 20
216.0939934421438124
 30
0.0
 11
4720.8450534301546213
 21
216.0981616476437921
 31
0.0
  0
CIRCLE
  5
CCDD
  8
0
 10
4720.8209703376551261
 20
216.0241182228438959
 30
0.0
 40
0.1181620418
  0
ARC
  5
CCDE
  8
0
 10
4720.8345150348568495
 20
216.0232244968755992
 30
0.0
 40
0.0739049132331962
 50
224.609188204650593
 51
278.1979762883477179
  0
ARC
  5
CCDF
  8
0
 10
4720.835325287122032
 20
216.0240931968106111
 30
0.0
 40
0.0750918184692577
 50
118.5593797931319955
 51
224.6469003721562956
  0
ARC
  5
CCE0
  8
0
 10
4720.8345003895128684
 20
216.0251572419284116
 30
0.0
 40
0.0737632016703822
 50
81.7746714483542974
 51
118.3917263508781019
  0
ARC
  5
CCE1
  8
0
 10
4720.863904164167252
 20
216.0250461894619036
 30
0.0
 40
0.0696623183877008
 50
81.7835571698652615
 51
125.7405636152065966
  0
ARC
  5
CCE2
  8
0
 10
4720.8647256553767875
 20
216.0241218903410072
 30
0.0
 40
0.0708925041368644
 50
125.8431105466035973
 51
235.9890466931171886
  0
ARC
  5
CCE3
  8
0
 10
4720.8667061443056809
 20
216.0354816829834874
 30
0.0
 40
0.0815530380669755
 50
239.3016479890906112
 51
275.0323385804579743
  0
ARC
  5
CCE4
  8
0
 10
4720.8637490455857915
 20
216.0236469943336033
 30
0.0
 40
0.0701365921786629
 50
278.2885378456774106
 51
328.8440375934084727
  0
ARC
  5
CCE5
  8
0
 10
4720.8631418767836294
 20
216.0241104867735942
 30
0.0
 40
0.0708960290931441
 50
328.7773568126439159
 51
46.6120613388482994
  0
ARC
  5
CCE6
  8
0
 10
4720.8638121118383424
 20
216.0247414214846913
 30
0.0
 40
0.0699771296292853
 50
46.6559985585765205
 51
81.7446221798593626
  0
CIRCLE
  5
CCE7
  8
0
 10
4720.865164770226329
 20
216.0241894508652081
 30
0.0
 40
0.0320895551231929
  0
ARC
  5
CCE8
  8
0
 10
5092.3406577782370732
 20
219.6083667939944064
 30
0.0
 40
373.2513820838415199
 50
180.0002817981902012
 51
180.5502473441638926
  0
ARC
  5
CCE9
  8
0
 10
4721.2202786625002773
 20
216.066715374019708
 30
0.0
 40
2.1142251700420589
 50
181.1616142339520081
 51
225.4130926815140867
  0
ARC
  5
CCEA
  8
0
 10
4720.8528283170926443
 20
215.9807111832859903
 30
0.0
 40
1.8062816230868091
 50
231.8122874524125052
 51
268.9898082101271939
  0
ARC
  5
CCEB
  8
0
 10
4720.8990620644308365
 20
216.0901496734695968
 30
0.0
 40
1.811009981934051
 50
229.7934712437919131
 51
267.5290130761895853
  0
ARC
  5
CCEC
  8
0
 10
4721.3128156782977385
 20
216.0883067423903867
 30
0.0
 40
2.100781607724564
 50
181.7581139058738131
 51
221.109565312025893
  0
ARC
  5
CCED
  8
0
 10
5092.9759301524891271
 20
219.5958520307333117
 30
0.0
 40
373.7799752902673163
 50
179.9983630435202997
 51
180.5475507090411043
  0
ARC
  5
CCEE
  8
0
 10
4349.3013084289741528
 20
219.6083667939944064
 30
0.0
 40
373.2513820838415199
 50
359.4497526558359937
 51
359.9997182018097988
  0
ARC
  5
CCEF
  8
0
 10
4720.4216875447100392
 20
216.066715374019708
 30
0.0
 40
2.1142251700420589
 50
314.5869073184858848
 51
358.8383857660480203
  0
ARC
  5
CCF0
  8
0
 10
4720.7891378901158532
 20
215.9807111832859903
 30
0.0
 40
1.8062816230868091
 50
271.0101917898728061
 51
308.1877125475875232
  0
ARC
  5
CCF1
  8
0
 10
4720.742904142777661
 20
216.0901496734695968
 30
0.0
 40
1.811009981934051
 50
272.4709869238103011
 51
310.2065287561682112
  0
ARC
  5
CCF2
  8
0
 10
4720.329150528910759
 20
216.0883067423903867
 30
0.0
 40
2.100781607724564
 50
318.8904346879739933
 51
358.2418860941261869
  0
ARC
  5
CCF3
  8
0
 10
4348.6660360547202799
 20
219.5958520307333117
 30
0.0
 40
373.7799752902673163
 50
359.4524492909587821
 51
0.0016369564796854
  0
ENDSEC
  0
EOF
