  0
SECTION
  2
HEADER
  9
$ACADVER
  1
AC1009
  9
$INSBASE
 10
4707.6029288513273059
 20
213.5301311840748042
 30
0.0
  9
$EXTMIN
 10
4706.2241668099268281
 20
211.3963389866748059
 30
0.0
  9
$EXTMAX
 10
4708.9816908927268742
 20
215.7475957510748117
 30
0.0
  9
$LIMMIN
 10
0.0
 20
0.0
  9
$LIMMAX
 10
11.6929133858000007
 20
8.2677165353999982
  9
$ORTHOMODE
 70
     1
  9
$REGENMODE
 70
     1
  9
$FILLMODE
 70
     1
  9
$QTEXTMODE
 70
     0
  9
$MIRRTEXT
 70
     0
  9
$DRAGMODE
 70
     2
  9
$LTSCALE
 40
0.6431102362
  9
$OSMODE
 70
  4095
  9
$ATTMODE
 70
     1
  9
$TEXTSIZE
 40
0.2
  9
$TRACEWID
 40
0.05
  9
$TEXTSTYLE
  7
STANDARD
  9
$CLAYER
  8
0
  9
$CELTYPE
  6
BYLAYER
  9
$CECOLOR
 62
   256
  9
$DIMSCALE
 40
1.0
  9
$DIMASZ
 40
0.1875
  9
$DIMEXO
 40
0.0625
  9
$DIMDLI
 40
0.4443307087
  9
$DIMRND
 40
0.0
  9
$DIMDLE
 40
0.0
  9
$DIMEXE
 40
0.125
  9
$DIMTP
 40
0.01
  9
$DIMTM
 40
0.01
  9
$DIMTXT
 40
2.0
  9
$DIMCEN
 40
0.1052362205
  9
$DIMTSZ
 40
0.0
  9
$DIMTOL
 70
     1
  9
$DIMLIM
 70
     0
  9
$DIMTIH
 70
     1
  9
$DIMTOH
 70
     1
  9
$DIMSE1
 70
     0
  9
$DIMSE2
 70
     0
  9
$DIMTAD
 70
     0
  9
$DIMZIN
 70
     0
  9
$DIMBLK
  1

  9
$DIMASO
 70
     1
  9
$DIMSHO
 70
     1
  9
$DIMPOST
  1
\X
  9
$DIMAPOST
  1

  9
$DIMALT
 70
     1
  9
$DIMALTD
 70
     2
  9
$DIMALTF
 40
25.3999999999999986
  9
$DIMLFAC
 40
1.0
  9
$DIMTOFL
 70
     0
  9
$DIMTVP
 40
0.0
  9
$DIMTIX
 70
     0
  9
$DIMSOXD
 70
     0
  9
$DIMSAH
 70
     0
  9
$DIMBLK1
  1

  9
$DIMBLK2
  1

  9
$DIMSTYLE
  2
STANDARD
  9
$DIMCLRD
 70
     0
  9
$DIMCLRE
 70
     0
  9
$DIMCLRT
 70
     0
  9
$DIMTFAC
 40
1.0
  9
$DIMGAP
 40
0.09
  9
$LUNITS
 70
     2
  9
$LUPREC
 70
     4
  9
$SKETCHINC
 40
0.1
  9
$FILLETRAD
 40
0.0
  9
$AUNITS
 70
     0
  9
$AUPREC
 70
     0
  9
$MENU
  1
.
  9
$ELEVATION
 40
0.0
  9
$PELEVATION
 40
0.0
  9
$THICKNESS
 40
0.0
  9
$LIMCHECK
 70
     0
  9
$BLIPMODE
 70
     0
  9
$CHAMFERA
 40
0.0
  9
$CHAMFERB
 40
0.0
  9
$SKPOLY
 70
     0
  9
$TDCREATE
 40
2458060.468368056230247
  9
$TDUPDATE
 40
2459246.4846875010989606
  9
$TDINDWG
 40
0.3572524306
  9
$TDUSRTIMER
 40
0.3572524306
  9
$USRTIMER
 70
     1
  9
$ANGBASE
 50
0.0
  9
$ANGDIR
 70
     0
  9
$PDMODE
 70
     0
  9
$PDSIZE
 40
0.3125
  9
$PLINEWID
 40
0.0
  9
$COORDS
 70
     1
  9
$SPLFRAME
 70
     0
  9
$SPLINETYPE
 70
     6
  9
$SPLINESEGS
 70
     8
  9
$ATTDIA
 70
     1
  9
$ATTREQ
 70
     1
  9
$HANDLING
 70
     1
  9
$HANDSEED
  5
CA37
  9
$SURFTAB1
 70
     6
  9
$SURFTAB2
 70
     6
  9
$SURFTYPE
 70
     6
  9
$SURFU
 70
     6
  9
$SURFV
 70
     6
  9
$UCSNAME
  2

  9
$UCSORG
 10
0.0
 20
0.0
 30
0.0
  9
$UCSXDIR
 10
1.0
 20
0.0
 30
0.0
  9
$UCSYDIR
 10
0.0
 20
1.0
 30
0.0
  9
$PUCSNAME
  2

  9
$PUCSORG
 10
0.0
 20
0.0
 30
0.0
  9
$PUCSXDIR
 10
1.0
 20
0.0
 30
0.0
  9
$PUCSYDIR
 10
0.0
 20
1.0
 30
0.0
  9
$USERI1
 70
     0
  9
$USERI2
 70
     0
  9
$USERI3
 70
     0
  9
$USERI4
 70
     0
  9
$USERI5
 70
     0
  9
$USERR1
 40
0.0
  9
$USERR2
 40
0.0
  9
$USERR3
 40
0.0
  9
$USERR4
 40
0.0
  9
$USERR5
 40
0.0
  9
$WORLDVIEW
 70
     1
  9
$SHADEDGE
 70
     3
  9
$SHADEDIF
 70
    70
  9
$TILEMODE
 70
     1
  9
$MAXACTVP
 70
    64
  9
$PLIMCHECK
 70
     0
  9
$PEXTMIN
 10
1.0000000000000000E+20
 20
1.0000000000000000E+20
 30
1.0000000000000000E+20
  9
$PEXTMAX
 10
-1.0000000000000000E+20
 20
-1.0000000000000000E+20
 30
-1.0000000000000000E+20
  9
$PLIMMIN
 10
0.0
 20
0.0
  9
$PLIMMAX
 10
12.0
 20
9.0
  9
$UNITMODE
 70
     0
  9
$VISRETAIN
 70
     1
  9
$PLINEGEN
 70
     0
  9
$PSLTSCALE
 70
     1
  0
ENDSEC
  0
SECTION
  2
TABLES
  0
TABLE
  2
VPORT
 70
     1
  0
VPORT
  2
*ACTIVE
 70
     0
 10
0.0
 20
0.0
 11
1.0
 21
1.0
 12
0.0
 22
0.0
 13
0.0
 23
0.0
 14
1.0
 24
1.0
 15
0.0
 25
0.0
 16
0.0
 26
0.0
 36
14.5969348968473707
 17
4707.60302734375
 27
213.5719604492186932
 37
0.0
 40
5.1521642595819213
 41
2.1186252771618621
 42
50.0
 43
0.0
 44
0.0
 50
0.0
 51
0.0
 71
     0
 72
   100
 73
     1
 74
     1
 75
     0
 76
     0
 77
     0
 78
     0
  0
ENDTAB
  0
TABLE
  2
LTYPE
 70
     2
  0
LTYPE
  2
CONTINUOUS
 70
     0
  3
Solid line
 72
    65
 73
     0
 40
0.0
  0
LTYPE
  2
PHANTOM2
 70
     0
  3
___ _ _ ___ _ _ ___ _ _ ___ _ _
 72
    65
 73
     6
 40
1.25
 49
0.625
 49
-0.125
 49
0.125
 49
-0.125
 49
0.125
 49
-0.125
  0
ENDTAB
  0
TABLE
  2
LAYER
 70
     2
  0
LAYER
  2
0
 70
     0
 62
   255
  6
CONTINUOUS
  0
LAYER
  2
DEFPOINTS
 70
     0
 62
     7
  6
CONTINUOUS
  0
ENDTAB
  0
TABLE
  2
STYLE
 70
     1
  0
STYLE
  2
STANDARD
 70
     0
 40
0.0
 41
0.8
 50
0.0
 71
     0
 42
0.2
  3
txt
  4

  0
ENDTAB
  0
TABLE
  2
VIEW
 70
     0
  0
ENDTAB
  0
TABLE
  2
UCS
 70
     0
  0
ENDTAB
  0
TABLE
  2
APPID
 70
     9
  0
APPID
  2
ACAD
 70
     0
  0
APPID
  2
ACAD_MLEADERVER
 70
     0
  0
APPID
  2
ACAD_EXEMPT_FROM_CAD_STANDARDS
 70
     0
  0
APPID
  2
ACAD_NAV_VCDISPLAY
 70
     0
  0
APPID
  2
ACAECLAYERSTANDARD
 70
     0
  0
APPID
  2
ACCMTRANSPARENCY
 70
     0
  0
APPID
  2
ACAD_DSTYLE_DIMJAG
 70
     0
  0
APPID
  2
ACAD_DSTYLE_DIMTALN
 70
     0
  0
APPID
  2
ACDBATTR
 70
     0
  0
ENDTAB
  0
TABLE
  2
DIMSTYLE
 70
     1
  0
DIMSTYLE
  2
STANDARD
 70
     0
  3

  4

  5

  6

  7

 40
1.0
 41
0.1875
 42
0.0625
 43
0.38
 44
0.125
 45
0.0
 46
0.0
 47
0.01
 48
0.01
140
0.15625
141
0.09
142
0.0
143
25.3999999999999986
144
1.0
145
0.0
146
1.0
147
0.09
 71
     1
 72
     0
 73
     1
 74
     1
 75
     0
 76
     0
 77
     0
 78
     4
170
     0
171
     2
172
     0
173
     0
174
     0
175
     0
176
     0
177
     0
178
     0
  0
ENDTAB
  0
ENDSEC
  0
SECTION
  2
BLOCKS
  0
BLOCK
  8
0
  2
$MODEL_SPACE
 70
     0
 10
0.0
 20
0.0
 30
0.0
  3
$MODEL_SPACE
  1

  0
ENDBLK
  5
21
  8
0
  0
BLOCK
 67
     1
  8
0
  2
$PAPER_SPACE
 70
     0
 10
0.0
 20
0.0
 30
0.0
  3
$PAPER_SPACE
  1

  0
ENDBLK
  5
1D
 67
     1
  8
0
  0
ENDSEC
  0
SECTION
  2
ENTITIES
  0
ATTDEF
  5
3930
  8
DEFPOINTS
 10
4707.6004112196569622
 20
213.5341213230261133
 30
0.0
 40
0.001
  1
K-26299-G
  3

  2
MODELNUMBER
 70
     0
1001
ACDBATTR
1070
     0
1070
     1
  0
ATTDEF
  5
3931
  8
DEFPOINTS
 10
4707.6004112196569622
 20
213.532454656359505
 30
0.0
 40
0.001
  1

  3

  2
TRADENAME
 70
     0
1001
ACDBATTR
1070
     0
1070
     1
  0
ATTDEF
  5
3932
  8
DEFPOINTS
 10
4707.6004112196569622
 20
213.5307879896928114
 30
0.0
 40
0.001
  1
BODY SPRAY
  3

  2
PRODUCT
 70
     0
1001
ACDBATTR
1070
     0
1070
     1
  0
LINE
  5
C8F5
  8
0
 10
4706.2266356907275622
 20
211.692922259174793
 30
0.0
 11
4706.2241668099268281
 21
211.4103185014747908
 31
0.0
  0
LINE
  5
C8F6
  8
0
 10
4706.3430843267269665
 20
213.5104461447747894
 30
0.0
 11
4706.3430843267269665
 21
213.3135957510748142
 31
0.0
  0
LINE
  5
C8F7
  8
0
 10
4706.5399347204265723
 20
213.5695012628748088
 30
0.0
 11
4706.5399347204265723
 21
213.5301311840748042
 31
0.0
  0
LINE
  5
C8F8
  8
0
 10
4706.8448659429277541
 20
215.3135957510748142
 30
0.0
 11
4706.8448659429277541
 21
215.5245957510747985
 31
0.0
  0
LINE
  5
C8F9
  8
0
 10
4706.8942654290267456
 20
213.5695012628748088
 30
0.0
 11
4706.8942654290267456
 21
215.3017847273748089
 31
0.0
  0
LINE
  5
C8FA
  8
0
 10
4707.0329268464265624
 20
215.5395957510748133
 30
0.0
 11
4707.0329268464265624
 21
215.7325957510747969
 31
0.0
  0
LINE
  5
C8FB
  8
0
 10
4707.2238963946274453
 20
215.3135957510748142
 30
0.0
 11
4707.2238963946274453
 21
215.5245957510747985
 31
0.0
  0
LINE
  5
C8FC
  8
0
 10
4707.2584386574271775
 20
213.1902335462748113
 30
0.0
 11
4707.2584386574271775
 21
213.2939107116748119
 31
0.0
  0
LINE
  5
C8FD
  8
0
 10
4707.2584386574271775
 20
213.1902335462748113
 30
0.0
 11
4707.9474190452274343
 21
213.1902335462748113
 31
0.0
  0
LINE
  5
C8FE
  8
0
 10
4706.3627693661273952
 20
213.2939107116748119
 30
0.0
 11
4708.8430883365272166
 21
213.2939107116748119
 31
0.0
  0
LINE
  5
C8FF
  8
0
 10
4708.8430883383825858
 20
213.5301311840748042
 30
0.0
 11
4706.3627693661273952
 21
213.5301311840748042
 31
0.0
  0
LINE
  5
C900
  8
0
 10
4708.66592298222713
 20
213.5695012628748088
 30
0.0
 11
4706.5399347204265723
 21
213.5695012628748088
 31
0.0
  0
LINE
  5
C901
  8
0
 10
4708.3609917597277672
 20
215.5245957510747985
 30
0.0
 11
4706.8448659429277541
 21
215.5245957510747985
 31
0.0
  0
LINE
  5
C902
  8
0
 10
4708.1579308538457553
 20
215.7475957510748117
 30
0.0
 11
4707.0479268488270463
 21
215.7475957510748117
 31
0.0
  0
ARC
  5
C903
  8
0
 10
4706.363890541395449
 20
213.5093249695071904
 30
0.0
 40
0.0208364009074768
 50
93.0844890434751591
 51
176.915510956521814
  0
ARC
  5
C904
  8
0
 10
4706.3640659343582229
 20
213.3148923193056135
 30
0.0
 40
0.0210216304779296
 50
183.536122889237987
 51
266.46387711076909
  0
ARC
  5
C905
  8
0
 10
4707.0172671384034402
 20
215.5402554590205
 30
0.0
 40
0.0156735978635391
 50
272.4123215510963973
 51
357.587685298820702
  0
ARC
  5
C906
  8
0
 10
4707.048279092690791
 20
215.7322435047553029
 30
0.0
 40
0.0153562867519364
 50
91.3143710089722731
 51
178.6856198989474933
  0
ARC
  5
C907
  8
0
 10
4706.9068655061009849
 20
215.3009956741067015
 30
0.0
 40
0.0126247591989224
 50
93.5833486403246724
 51
176.4166518447387091
  0
LINE
  5
C908
  8
0
 10
4706.238023427027656
 20
211.3963389866748059
 30
0.0
 11
4708.9678342756269558
 21
211.3963389866748059
 31
0.0
  0
ARC
  5
C909
  8
0
 10
4706.2386920109483981
 20
211.4108588502070063
 30
0.0
 40
0.0145352482418402
 50
182.1304649714820982
 51
267.3636117346658807
  0
ARC
  5
C90A
  8
0
 10
4729.7266241353290752
 20
211.0654415742490926
 30
0.0
 40
23.5083642328926885
 50
176.9706943933441892
 51
178.4704905454105131
  0
ARC
  5
C90B
  8
0
 10
4707.0657237790019281
 20
212.1532677163997107
 30
0.0
 40
0.8291385498968054
 50
92.9297201077223036
 51
169.2598672126019892
  0
ARC
  5
C90C
  8
0
 10
4707.0133215963778639
 20
213.4521697285875064
 30
0.0
 40
0.4709538551824414
 50
271.2196137568033123
 51
287.1473057232781798
  0
ARC
  5
C90D
  8
0
 10
4707.0729561518519404
 20
213.1693963939329137
 30
0.0
 40
0.1850585549802326
 50
295.344610644514205
 51
2.2687373202797771
  0
ARC
  5
C90E
  8
0
 10
4707.2717494239686857
 20
213.1764075232852917
 30
0.0
 40
0.0138833437976652
 50
95.2083034683604836
 51
178.7011078011674954
  0
LINE
  5
C90F
  8
0
 10
4706.8448659429277541
 20
215.3135957510748142
 30
0.0
 11
4708.3609917597277672
 21
215.3135957510748142
 31
0.0
  0
LINE
  5
C910
  8
0
 10
4708.9792220119270496
 20
211.692922259174793
 30
0.0
 11
4708.9816908927268742
 21
211.4103185014747908
 31
0.0
  0
LINE
  5
C911
  8
0
 10
4708.8627733759267358
 20
213.5104461447747894
 30
0.0
 11
4708.8627733759267358
 21
213.3135957510748142
 31
0.0
  0
LINE
  5
C912
  8
0
 10
4708.66592298222713
 20
213.5695012628748088
 30
0.0
 11
4708.66592298222713
 21
213.5301311840748042
 31
0.0
  0
LINE
  5
C913
  8
0
 10
4708.3609917597277672
 20
215.3135957510748142
 30
0.0
 11
4708.3609917597277672
 21
215.5245957510747985
 31
0.0
  0
LINE
  5
C914
  8
0
 10
4708.3115922736260472
 20
213.5695012628748088
 30
0.0
 11
4708.3115922736260472
 21
215.3017847273748089
 31
0.0
  0
LINE
  5
C915
  8
0
 10
4708.1729308562271399
 20
215.5395957510748133
 30
0.0
 11
4708.1729308562271399
 21
215.7325957510747969
 31
0.0
  0
LINE
  5
C916
  8
0
 10
4707.981961308028076
 20
215.3135957510748142
 30
0.0
 11
4707.981961308028076
 21
215.5245957510747985
 31
0.0
  0
LINE
  5
C917
  8
0
 10
4707.9474190452274343
 20
213.1902335462748113
 30
0.0
 11
4707.9474190452274343
 21
213.2939107116748119
 31
0.0
  0
ARC
  5
C918
  8
0
 10
4708.8419671612600723
 20
213.5093249695071904
 30
0.0
 40
0.02083640090748
 50
3.0844890434927752
 51
86.9155058461249865
  0
ARC
  5
C919
  8
0
 10
4708.8417917682963889
 20
213.3148923193056135
 30
0.0
 40
0.0210216304779296
 50
273.5361228892307963
 51
356.4638771107619846
  0
ARC
  5
C91A
  8
0
 10
4708.1885905642520811
 20
215.5402554590205
 30
0.0
 40
0.0156735978635391
 50
182.4123147011792128
 51
267.5876784489036027
  0
ARC
  5
C91B
  8
0
 10
4708.1575786099638208
 20
215.7322435047553029
 30
0.0
 40
0.0153562867519364
 50
1.3143801010524749
 51
88.6856289910277553
  0
ARC
  5
C91C
  8
0
 10
4708.2989921965518079
 20
215.3009956741067015
 30
0.0
 40
0.0126247591989224
 50
3.583348155261306
 51
86.4166513596753276
  0
ARC
  5
C91D
  8
0
 10
4708.9671656917062137
 20
211.4108588502070063
 30
0.0
 40
0.0145352482418402
 50
272.6363882653341193
 51
357.8695350285178165
  0
ARC
  5
C91E
  8
0
 10
4685.4792335673273556
 20
211.0654415742490926
 30
0.0
 40
23.5083642328926885
 50
1.529509454589423
 51
3.0293056066557491
  0
ARC
  5
C91F
  8
0
 10
4708.1401339236517742
 20
212.1532677163997107
 30
0.0
 40
0.8291385498968054
 50
10.7401327873979593
 51
87.0702798922777106
  0
ARC
  5
C920
  8
0
 10
4708.1925361062758384
 20
213.4521697285875064
 30
0.0
 40
0.4709538551824414
 50
252.8526942767217918
 51
268.7803862431966877
  0
ARC
  5
C921
  8
0
 10
4708.1329015508017619
 20
213.1693963939329137
 30
0.0
 40
0.1850585549802326
 50
177.7312626797202029
 51
244.6553893554851982
  0
ARC
  5
C922
  8
0
 10
4707.9341082786859261
 20
213.1764075232852917
 30
0.0
 40
0.0138833437976652
 50
1.2988921988324571
 51
84.7916965316395448
  0
LINE
  5
C923
  8
0
 10
4707.0233456929272506
 20
212.9813225652748088
 30
0.0
 11
4708.1825120097264517
 21
212.9813225652748088
 31
0.0
  0
ENDSEC
  0
EOF
