  0
SECTION
  2
HEADER
  9
$ACADVER
  1
AC1009
  9
$INSBASE
 10
4028.7869297020401973
 20
137.8566026870232974
 30
0.0
  9
$EXTMIN
 10
4022.8220336088397744
 20
133.8921223720234082
 30
0.0
  9
$EXTMAX
 10
4034.751825795241075
 20
137.8566026870232974
 30
0.0
  9
$LIMMIN
 10
0.0
 20
0.0
  9
$LIMMAX
 10
11.6929133858000007
 20
8.2677165353999982
  9
$ORTHOMODE
 70
     1
  9
$REGENMODE
 70
     1
  9
$FILLMODE
 70
     1
  9
$QTEXTMODE
 70
     0
  9
$MIRRTEXT
 70
     0
  9
$DRAGMODE
 70
     2
  9
$LTSCALE
 40
0.6431102362
  9
$OSMODE
 70
  4095
  9
$ATTMODE
 70
     1
  9
$TEXTSIZE
 40
0.2
  9
$TRACEWID
 40
0.05
  9
$TEXTSTYLE
  7
STANDARD
  9
$CLAYER
  8
0
  9
$CELTYPE
  6
BYLAYER
  9
$CECOLOR
 62
   256
  9
$DIMSCALE
 40
1.0
  9
$DIMASZ
 40
0.1875
  9
$DIMEXO
 40
0.0625
  9
$DIMDLI
 40
0.4443307087
  9
$DIMRND
 40
0.0
  9
$DIMDLE
 40
0.0
  9
$DIMEXE
 40
0.125
  9
$DIMTP
 40
0.01
  9
$DIMTM
 40
0.01
  9
$DIMTXT
 40
2.0
  9
$DIMCEN
 40
0.1052362205
  9
$DIMTSZ
 40
0.0
  9
$DIMTOL
 70
     1
  9
$DIMLIM
 70
     0
  9
$DIMTIH
 70
     1
  9
$DIMTOH
 70
     1
  9
$DIMSE1
 70
     0
  9
$DIMSE2
 70
     0
  9
$DIMTAD
 70
     0
  9
$DIMZIN
 70
     0
  9
$DIMBLK
  1

  9
$DIMASO
 70
     1
  9
$DIMSHO
 70
     1
  9
$DIMPOST
  1
\X
  9
$DIMAPOST
  1

  9
$DIMALT
 70
     1
  9
$DIMALTD
 70
     2
  9
$DIMALTF
 40
25.3999999999999986
  9
$DIMLFAC
 40
1.0
  9
$DIMTOFL
 70
     0
  9
$DIMTVP
 40
0.0
  9
$DIMTIX
 70
     0
  9
$DIMSOXD
 70
     0
  9
$DIMSAH
 70
     0
  9
$DIMBLK1
  1

  9
$DIMBLK2
  1

  9
$DIMSTYLE
  2
STANDARD
  9
$DIMCLRD
 70
     0
  9
$DIMCLRE
 70
     0
  9
$DIMCLRT
 70
     0
  9
$DIMTFAC
 40
1.0
  9
$DIMGAP
 40
0.09
  9
$LUNITS
 70
     2
  9
$LUPREC
 70
     4
  9
$SKETCHINC
 40
0.1
  9
$FILLETRAD
 40
0.0
  9
$AUNITS
 70
     0
  9
$AUPREC
 70
     0
  9
$MENU
  1
.
  9
$ELEVATION
 40
0.0
  9
$PELEVATION
 40
0.0
  9
$THICKNESS
 40
0.0
  9
$LIMCHECK
 70
     0
  9
$BLIPMODE
 70
     0
  9
$CHAMFERA
 40
0.0
  9
$CHAMFERB
 40
0.0
  9
$SKPOLY
 70
     0
  9
$TDCREATE
 40
2458060.468368056230247
  9
$TDUPDATE
 40
2459060.7242361111566424
  9
$TDINDWG
 40
0.3012802083
  9
$TDUSRTIMER
 40
0.3012802083
  9
$USRTIMER
 70
     1
  9
$ANGBASE
 50
0.0
  9
$ANGDIR
 70
     0
  9
$PDMODE
 70
     0
  9
$PDSIZE
 40
0.3125
  9
$PLINEWID
 40
0.0
  9
$COORDS
 70
     1
  9
$SPLFRAME
 70
     0
  9
$SPLINETYPE
 70
     6
  9
$SPLINESEGS
 70
     8
  9
$ATTDIA
 70
     1
  9
$ATTREQ
 70
     1
  9
$HANDLING
 70
     1
  9
$HANDSEED
  5
6779
  9
$SURFTAB1
 70
     6
  9
$SURFTAB2
 70
     6
  9
$SURFTYPE
 70
     6
  9
$SURFU
 70
     6
  9
$SURFV
 70
     6
  9
$UCSNAME
  2

  9
$UCSORG
 10
0.0
 20
0.0
 30
0.0
  9
$UCSXDIR
 10
1.0
 20
0.0
 30
0.0
  9
$UCSYDIR
 10
0.0
 20
1.0
 30
0.0
  9
$PUCSNAME
  2

  9
$PUCSORG
 10
0.0
 20
0.0
 30
0.0
  9
$PUCSXDIR
 10
1.0
 20
0.0
 30
0.0
  9
$PUCSYDIR
 10
0.0
 20
1.0
 30
0.0
  9
$USERI1
 70
     0
  9
$USERI2
 70
     0
  9
$USERI3
 70
     0
  9
$USERI4
 70
     0
  9
$USERI5
 70
     0
  9
$USERR1
 40
0.0
  9
$USERR2
 40
0.0
  9
$USERR3
 40
0.0
  9
$USERR4
 40
0.0
  9
$USERR5
 40
0.0
  9
$WORLDVIEW
 70
     1
  9
$SHADEDGE
 70
     3
  9
$SHADEDIF
 70
    70
  9
$TILEMODE
 70
     1
  9
$MAXACTVP
 70
    64
  9
$PLIMCHECK
 70
     0
  9
$PEXTMIN
 10
1.0000000000000000E+20
 20
1.0000000000000000E+20
 30
1.0000000000000000E+20
  9
$PEXTMAX
 10
-1.0000000000000000E+20
 20
-1.0000000000000000E+20
 30
-1.0000000000000000E+20
  9
$PLIMMIN
 10
0.0
 20
0.0
  9
$PLIMMAX
 10
12.0
 20
9.0
  9
$UNITMODE
 70
     0
  9
$VISRETAIN
 70
     1
  9
$PLINEGEN
 70
     0
  9
$PSLTSCALE
 70
     1
  0
ENDSEC
  0
SECTION
  2
TABLES
  0
TABLE
  2
VPORT
 70
     1
  0
VPORT
  2
*ACTIVE
 70
     0
 10
0.0
 20
0.0
 11
1.0
 21
1.0
 12
0.0
 22
0.0
 13
0.0
 23
0.0
 14
1.0
 24
1.0
 15
0.0
 25
0.0
 16
0.0
 26
0.0
 36
36.0145508393574687
 17
4028.786865234375
 27
135.8743591308592897
 37
0.0
 40
12.5713365417515099
 41
2.1481900452488678
 42
50.0
 43
0.0
 44
0.0
 50
0.0
 51
0.0
 71
     0
 72
   100
 73
     1
 74
     1
 75
     0
 76
     0
 77
     0
 78
     0
  0
ENDTAB
  0
TABLE
  2
LTYPE
 70
     2
  0
LTYPE
  2
CONTINUOUS
 70
     0
  3
Solid line
 72
    65
 73
     0
 40
0.0
  0
LTYPE
  2
PHANTOM2
 70
     0
  3
___ _ _ ___ _ _ ___ _ _ ___ _ _
 72
    65
 73
     6
 40
1.25
 49
0.625
 49
-0.125
 49
0.125
 49
-0.125
 49
0.125
 49
-0.125
  0
ENDTAB
  0
TABLE
  2
LAYER
 70
     2
  0
LAYER
  2
0
 70
     0
 62
   255
  6
CONTINUOUS
  0
LAYER
  2
DEFPOINTS
 70
     0
 62
     7
  6
CONTINUOUS
  0
ENDTAB
  0
TABLE
  2
STYLE
 70
     1
  0
STYLE
  2
STANDARD
 70
     0
 40
0.0
 41
0.8
 50
0.0
 71
     0
 42
0.2
  3
txt
  4

  0
ENDTAB
  0
TABLE
  2
VIEW
 70
     0
  0
ENDTAB
  0
TABLE
  2
UCS
 70
     0
  0
ENDTAB
  0
TABLE
  2
APPID
 70
     9
  0
APPID
  2
ACAD
 70
     0
  0
APPID
  2
ACAD_MLEADERVER
 70
     0
  0
APPID
  2
ACAD_EXEMPT_FROM_CAD_STANDARDS
 70
     0
  0
APPID
  2
ACAD_NAV_VCDISPLAY
 70
     0
  0
APPID
  2
ACAECLAYERSTANDARD
 70
     0
  0
APPID
  2
ACCMTRANSPARENCY
 70
     0
  0
APPID
  2
ACAD_DSTYLE_DIMJAG
 70
     0
  0
APPID
  2
ACAD_DSTYLE_DIMTALN
 70
     0
  0
APPID
  2
ACDBATTR
 70
     0
  0
ENDTAB
  0
TABLE
  2
DIMSTYLE
 70
     1
  0
DIMSTYLE
  2
STANDARD
 70
     0
  3

  4

  5

  6

  7

 40
1.0
 41
0.1875
 42
0.0625
 43
0.38
 44
0.125
 45
0.0
 46
0.0
 47
0.01
 48
0.01
140
0.15625
141
0.09
142
0.0
143
25.3999999999999986
144
1.0
145
0.0
146
1.0
147
0.09
 71
     1
 72
     0
 73
     1
 74
     1
 75
     0
 76
     0
 77
     0
 78
     4
170
     0
171
     2
172
     0
173
     0
174
     0
175
     0
176
     0
177
     0
178
     0
  0
ENDTAB
  0
ENDSEC
  0
SECTION
  2
BLOCKS
  0
BLOCK
  8
0
  2
$MODEL_SPACE
 70
     0
 10
0.0
 20
0.0
 30
0.0
  3
$MODEL_SPACE
  1

  0
ENDBLK
  5
21
  8
0
  0
BLOCK
 67
     1
  8
0
  2
$PAPER_SPACE
 70
     0
 10
0.0
 20
0.0
 30
0.0
  3
$PAPER_SPACE
  1

  0
ENDBLK
  5
1D
 67
     1
  8
0
  0
ENDSEC
  0
SECTION
  2
ENTITIES
  0
ATTDEF
  5
3930
  8
DEFPOINTS
 10
4028.7820042538091911
 20
137.8540532673316079
 30
0.0
 40
0.001
  1
K-26293-G
  3

  2
MODELNUMBER
 70
     0
1001
ACDBATTR
1070
     0
1070
     1
  0
ATTDEF
  5
3931
  8
DEFPOINTS
 10
4028.7820042538091911
 20
137.8523866006648859
 30
0.0
 40
0.001
  1

  3

  2
TRADENAME
 70
     0
1001
ACDBATTR
1070
     0
1070
     1
  0
ATTDEF
  5
3932
  8
DEFPOINTS
 10
4028.7820042538091911
 20
137.850719933998306
 30
0.0
 40
0.001
  1
SHOWERHEAD
  3

  2
PRODUCT
 70
     0
1001
ACDBATTR
1070
     0
1070
     1
  0
LINE
  5
65B0
  8
0
 10
4034.7400152202399113
 20
133.8921223720234082
 30
0.0
 11
4022.8338441838400286
 21
133.8921223720234082
 31
0.0
  0
LINE
  5
65B1
  8
0
 10
4027.8775994527400144
 20
136.5514924508233889
 30
0.0
 11
4027.8775994527400144
 21
136.6302326083234107
 31
0.0
  0
LINE
  5
65B2
  8
0
 10
4028.2919297012399511
 20
137.8366026870234009
 30
0.0
 11
4028.2919297012399511
 21
137.1054258937234067
 31
0.0
  0
LINE
  5
65B3
  8
0
 10
4028.5900799229398217
 20
137.1054258940233979
 30
0.0
 11
4028.5900799229398217
 21
137.6824605513234019
 31
0.0
  0
LINE
  5
65B4
  8
0
 10
4027.9169695314399178
 20
136.6696026870233993
 30
0.0
 11
4029.6568898726400221
 21
136.6696026870233993
 31
0.0
  0
LINE
  5
65B5
  8
0
 10
4029.2619287640400216
 20
137.8566026870232974
 30
0.0
 11
4028.3119306400399182
 21
137.8566026870232974
 31
0.0
  0
ARC
  5
65B6
  8
0
 10
4028.8121757311600959
 20
137.0840835068179047
 30
0.0
 40
0.6467746181139629
 50
92.2370365962082701
 51
108.7299779773575068
  0
ARC
  5
65B7
  8
0
 10
4028.5219297012399693
 20
137.1054258937234067
 30
0.0
 40
0.23
 50
180.0
 51
247.4596895364923057
  0
ARC
  5
65B8
  8
0
 10
4028.4069297012301831
 20
136.8283428737150018
 30
0.0
 40
0.0700000000118527
 50
309.4534837533627751
 51
67.4596895310169344
  0
ARC
  5
65B9
  8
0
 10
4027.9251194714997837
 20
136.5569718252411917
 30
0.0
 40
0.0478348798144872
 50
186.5775365138991901
 51
249.6315338108574906
  0
ARC
  5
65BA
  8
0
 10
4027.9169695314399178
 20
136.6302326083234107
 30
0.0
 40
0.0393700787
 50
90.0
 51
180.0
  0
ARC
  5
65BB
  8
0
 10
4028.313503400197078
 20
137.8350289142186114
 30
0.0
 40
0.0216310251154583
 50
94.1695714977622345
 51
175.8277391014563875
  0
ARC
  5
65BC
  8
0
 10
4028.7852519818020482
 20
136.3683810179171019
 30
0.0
 40
0.5255607948794596
 50
129.4354484464705024
 51
145.0302874531828081
  0
ARC
  5
65BD
  8
0
 10
4022.8349642095417948
 20
133.9050437015027057
 30
0.0
 40
0.0129697807647743
 50
184.4546466794332957
 51
265.0459628711017785
  0
LINE
  5
65BE
  8
0
 10
4031.2367990610769084
 20
136.5121278839166052
 30
0.0
 11
4026.3370603430039409
 21
136.5121278839166052
 31
0.0
  0
ARC
  5
65BF
  8
0
 10
4066.8163568982399738
 20
133.1287571276675123
 30
0.0
 40
44.001153843373487
 50
177.0445437124276111
 51
178.9904236236776001
  0
ARC
  5
65C0
  8
0
 10
4024.054043766704126
 20
135.1746966367342111
 30
0.0
 40
1.201148924000043
 50
98.6726206405982964
 51
169.3132100483153977
  0
ARC
  5
65C1
  8
0
 10
4027.463340337849786
 20
97.6993683154143184
 30
0.0
 40
38.8290974907884632
 50
91.662159224805464
 51
95.3055563523825668
  0
ARC
  5
65C2
  8
0
 10
4028.6128953492147957
 20
137.673631132749307
 30
0.0
 40
0.0244643068257091
 50
110.0927071210128929
 51
158.8438931883976863
  0
ARC
  5
65C3
  8
0
 10
4028.7985063529717991
 20
137.3317764510534005
 30
0.0
 40
0.3588776018014179
 50
252.015349062216103
 51
268.1514356865866944
  0
ARC
  5
65C4
  8
0
 10
4028.7420234788669404
 20
137.1482969433183996
 30
0.0
 40
0.166948947044449
 50
218.7057287978184945
 51
251.010270123738394
  0
ARC
  5
65C5
  8
0
 10
4028.6919139765232103
 20
137.1067035139739971
 30
0.0
 40
0.1018420679435006
 50
180.7188008834665993
 51
218.0735464865036874
  0
LINE
  5
65C6
  8
0
 10
4028.3814447069398739
 20
136.5514924508233889
 30
0.0
 11
4028.3814447069398739
 21
136.6302326083234107
 31
0.0
  0
ARC
  5
65C7
  8
0
 10
4028.4229240175418454
 20
136.5522345328600977
 30
0.0
 40
0.0414859481481317
 50
181.0249358726734954
 51
255.1841344520800021
  0
ARC
  5
65C8
  8
0
 10
4028.4208062923848956
 20
136.630241101578406
 30
0.0
 40
0.0393615863612957
 50
89.9876369903899445
 51
180.0123630096198042
  0
LINE
  5
65C9
  8
0
 10
4029.6962599513399255
 20
136.5514924508233889
 30
0.0
 11
4029.6962599513399255
 21
136.6302326083234107
 31
0.0
  0
LINE
  5
65CA
  8
0
 10
4029.2819297028408982
 20
137.8366026870234009
 30
0.0
 11
4029.2819297028408982
 21
137.1054258937234067
 31
0.0
  0
LINE
  5
65CB
  8
0
 10
4028.9837794811401182
 20
137.1054258940233979
 30
0.0
 11
4028.9837794811401182
 21
137.6824605513234019
 31
0.0
  0
ARC
  5
65CC
  8
0
 10
4028.7616836729212082
 20
137.0840835068179047
 30
0.0
 40
0.6467746181139629
 50
71.270022022642479
 51
87.7629634037917441
  0
ARC
  5
65CD
  8
0
 10
4029.0519297028399706
 20
137.1054258937234067
 30
0.0
 40
0.23
 50
292.5403104635075806
 51
0.0
  0
ARC
  5
65CE
  8
0
 10
4029.166929702851121
 20
136.8283428737150018
 30
0.0
 40
0.0700000000118527
 50
112.5403104689829945
 51
230.5465162466367133
  0
ARC
  5
65CF
  8
0
 10
4029.6487399325810657
 20
136.5569718252411917
 30
0.0
 40
0.0478348798144872
 50
290.3684661891425094
 51
353.4224634861008099
  0
ARC
  5
65D0
  8
0
 10
4029.6568898726400221
 20
136.6302326083234107
 30
0.0
 40
0.0393700787
 50
0.0
 51
90.0
  0
ARC
  5
65D1
  8
0
 10
4029.2603560038828618
 20
137.8350289142186114
 30
0.0
 40
0.0216310251154583
 50
4.1722608985435734
 51
85.8304285022377655
  0
ARC
  5
65D2
  8
0
 10
4028.7886074222788011
 20
136.3683810179171019
 30
0.0
 40
0.5255607948794596
 50
34.9697125468171421
 51
50.5645515535295118
  0
ARC
  5
65D3
  8
0
 10
4034.738895194538145
 20
133.9050437015027057
 30
0.0
 40
0.0129697807647743
 50
274.9540371288982783
 51
355.5453533205667895
  0
ARC
  5
65D4
  8
0
 10
3990.7575025058408755
 20
133.1287571276675123
 30
0.0
 40
44.001153843373487
 50
1.0095763763224239
 51
2.9554562875723769
  0
ARC
  5
65D5
  8
0
 10
4033.5198156373771781
 20
135.1746966367342111
 30
0.0
 40
1.201148924000043
 50
10.6867899516845792
 51
81.3273793594017178
  0
ARC
  5
65D6
  8
0
 10
4030.1105190662310633
 20
97.6993683154143184
 30
0.0
 40
38.8290974907884632
 50
84.6944436476174332
 51
88.337840775194536
  0
ARC
  5
65D7
  8
0
 10
4028.9609640548651441
 20
137.673631132749307
 30
0.0
 40
0.0244643068257091
 50
21.1561068116022888
 51
69.9072928789870787
  0
ARC
  5
65D8
  8
0
 10
4028.7753530511067765
 20
137.3317764510534005
 30
0.0
 40
0.3588776018014179
 50
271.8485643134131919
 51
287.984650937783897
  0
ARC
  5
65D9
  8
0
 10
4028.8318359252129994
 20
137.1482969433183996
 30
0.0
 40
0.166948947044449
 50
288.989729876261606
 51
321.2942712021815055
  0
ARC
  5
65DA
  8
0
 10
4028.8819454275571843
 20
137.1067035139739971
 30
0.0
 40
0.1018420679435006
 50
321.9264535134963126
 51
359.2811991165334007
  0
LINE
  5
65DB
  8
0
 10
4029.192414697140066
 20
136.5514924508233889
 30
0.0
 11
4029.192414697140066
 21
136.6302326083234107
 31
0.0
  0
ARC
  5
65DC
  8
0
 10
4029.1509353865380945
 20
136.5522345328600977
 30
0.0
 40
0.0414859481481317
 50
284.8158655479199979
 51
358.9750641273265046
  0
ARC
  5
65DD
  8
0
 10
4029.1530531116950442
 20
136.630241101578406
 30
0.0
 40
0.0393615863612957
 50
359.9876369903802242
 51
90.0123630096100698
  0
LINE
  5
65DE
  8
0
 10
4028.5900799229398217
 20
137.6824605513234019
 30
0.0
 11
4028.9837794811401182
 21
137.6824605513234019
 31
0.0
  0
ENDSEC
  0
EOF
