  0
SECTION
  2
HEADER
  9
$ACADVER
  1
AC1009
  9
$INSBASE
 10
4244.0008821357860143
 20
150.8883910860367052
 30
0.0
  9
$EXTMIN
 10
4238.0365138275856225
 20
147.1344910860308062
 30
0.0
  9
$EXTMAX
 10
4249.9652504439873155
 20
150.8953260267061864
 30
0.0
  9
$LIMMIN
 10
0.0
 20
0.0
  9
$LIMMAX
 10
11.6929133858000007
 20
8.2677165353999982
  9
$ORTHOMODE
 70
     1
  9
$REGENMODE
 70
     1
  9
$FILLMODE
 70
     1
  9
$QTEXTMODE
 70
     0
  9
$MIRRTEXT
 70
     0
  9
$DRAGMODE
 70
     2
  9
$LTSCALE
 40
0.6431102362
  9
$OSMODE
 70
  4095
  9
$ATTMODE
 70
     1
  9
$TEXTSIZE
 40
0.2
  9
$TRACEWID
 40
0.05
  9
$TEXTSTYLE
  7
STANDARD
  9
$CLAYER
  8
0
  9
$CELTYPE
  6
BYLAYER
  9
$CECOLOR
 62
     1
  9
$DIMSCALE
 40
1.0
  9
$DIMASZ
 40
0.1875
  9
$DIMEXO
 40
0.0625
  9
$DIMDLI
 40
0.4443307087
  9
$DIMRND
 40
0.0
  9
$DIMDLE
 40
0.0
  9
$DIMEXE
 40
0.125
  9
$DIMTP
 40
0.01
  9
$DIMTM
 40
0.01
  9
$DIMTXT
 40
2.0
  9
$DIMCEN
 40
0.1052362205
  9
$DIMTSZ
 40
0.0
  9
$DIMTOL
 70
     1
  9
$DIMLIM
 70
     0
  9
$DIMTIH
 70
     1
  9
$DIMTOH
 70
     1
  9
$DIMSE1
 70
     0
  9
$DIMSE2
 70
     0
  9
$DIMTAD
 70
     0
  9
$DIMZIN
 70
     0
  9
$DIMBLK
  1

  9
$DIMASO
 70
     1
  9
$DIMSHO
 70
     1
  9
$DIMPOST
  1
\X
  9
$DIMAPOST
  1

  9
$DIMALT
 70
     1
  9
$DIMALTD
 70
     2
  9
$DIMALTF
 40
25.3999999999999986
  9
$DIMLFAC
 40
1.0
  9
$DIMTOFL
 70
     0
  9
$DIMTVP
 40
0.0
  9
$DIMTIX
 70
     0
  9
$DIMSOXD
 70
     0
  9
$DIMSAH
 70
     0
  9
$DIMBLK1
  1

  9
$DIMBLK2
  1

  9
$DIMSTYLE
  2
STANDARD
  9
$DIMCLRD
 70
     0
  9
$DIMCLRE
 70
     0
  9
$DIMCLRT
 70
     0
  9
$DIMTFAC
 40
1.0
  9
$DIMGAP
 40
0.09
  9
$LUNITS
 70
     2
  9
$LUPREC
 70
     4
  9
$SKETCHINC
 40
0.1
  9
$FILLETRAD
 40
0.0
  9
$AUNITS
 70
     0
  9
$AUPREC
 70
     0
  9
$MENU
  1
.
  9
$ELEVATION
 40
0.0
  9
$PELEVATION
 40
0.0
  9
$THICKNESS
 40
0.0
  9
$LIMCHECK
 70
     0
  9
$BLIPMODE
 70
     0
  9
$CHAMFERA
 40
0.0
  9
$CHAMFERB
 40
0.0
  9
$SKPOLY
 70
     0
  9
$TDCREATE
 40
2458060.468368056230247
  9
$TDUPDATE
 40
2459058.5107986112125218
  9
$TDINDWG
 40
0.3367200231
  9
$TDUSRTIMER
 40
0.3367200231
  9
$USRTIMER
 70
     1
  9
$ANGBASE
 50
0.0
  9
$ANGDIR
 70
     0
  9
$PDMODE
 70
     0
  9
$PDSIZE
 40
0.3125
  9
$PLINEWID
 40
0.0
  9
$COORDS
 70
     1
  9
$SPLFRAME
 70
     0
  9
$SPLINETYPE
 70
     6
  9
$SPLINESEGS
 70
     8
  9
$ATTDIA
 70
     1
  9
$ATTREQ
 70
     1
  9
$HANDLING
 70
     1
  9
$HANDSEED
  5
72B8
  9
$SURFTAB1
 70
     6
  9
$SURFTAB2
 70
     6
  9
$SURFTYPE
 70
     6
  9
$SURFU
 70
     6
  9
$SURFV
 70
     6
  9
$UCSNAME
  2

  9
$UCSORG
 10
0.0
 20
0.0
 30
0.0
  9
$UCSXDIR
 10
1.0
 20
0.0
 30
0.0
  9
$UCSYDIR
 10
0.0
 20
1.0
 30
0.0
  9
$PUCSNAME
  2

  9
$PUCSORG
 10
0.0
 20
0.0
 30
0.0
  9
$PUCSXDIR
 10
1.0
 20
0.0
 30
0.0
  9
$PUCSYDIR
 10
0.0
 20
1.0
 30
0.0
  9
$USERI1
 70
     0
  9
$USERI2
 70
     0
  9
$USERI3
 70
     0
  9
$USERI4
 70
     0
  9
$USERI5
 70
     0
  9
$USERR1
 40
0.0
  9
$USERR2
 40
0.0
  9
$USERR3
 40
0.0
  9
$USERR4
 40
0.0
  9
$USERR5
 40
0.0
  9
$WORLDVIEW
 70
     1
  9
$SHADEDGE
 70
     3
  9
$SHADEDIF
 70
    70
  9
$TILEMODE
 70
     1
  9
$MAXACTVP
 70
    64
  9
$PLIMCHECK
 70
     0
  9
$PEXTMIN
 10
1.0000000000000000E+20
 20
1.0000000000000000E+20
 30
1.0000000000000000E+20
  9
$PEXTMAX
 10
-1.0000000000000000E+20
 20
-1.0000000000000000E+20
 30
-1.0000000000000000E+20
  9
$PLIMMIN
 10
0.0
 20
0.0
  9
$PLIMMAX
 10
12.0
 20
9.0
  9
$UNITMODE
 70
     0
  9
$VISRETAIN
 70
     1
  9
$PLINEGEN
 70
     0
  9
$PSLTSCALE
 70
     1
  0
ENDSEC
  0
SECTION
  2
TABLES
  0
TABLE
  2
VPORT
 70
     1
  0
VPORT
  2
*ACTIVE
 70
     0
 10
0.0
 20
0.0
 11
1.0
 21
1.0
 12
0.0
 22
0.0
 13
0.0
 23
0.0
 14
1.0
 24
1.0
 15
0.0
 25
0.0
 16
0.0
 26
0.0
 36
45.2637867038621806
 17
4244.0009765624990905
 27
149.0149084967515023
 37
0.0
 40
12.5075187378742303
 41
2.8398203592814371
 42
50.0
 43
0.0
 44
0.0
 50
0.0
 51
0.0
 71
     0
 72
   100
 73
     1
 74
     1
 75
     0
 76
     0
 77
     0
 78
     0
  0
ENDTAB
  0
TABLE
  2
LTYPE
 70
     2
  0
LTYPE
  2
CONTINUOUS
 70
     0
  3
Solid line
 72
    65
 73
     0
 40
0.0
  0
LTYPE
  2
PHANTOM2
 70
     0
  3
___ _ _ ___ _ _ ___ _ _ ___ _ _
 72
    65
 73
     6
 40
1.25
 49
0.625
 49
-0.125
 49
0.125
 49
-0.125
 49
0.125
 49
-0.125
  0
ENDTAB
  0
TABLE
  2
LAYER
 70
     2
  0
LAYER
  2
0
 70
     0
 62
   255
  6
CONTINUOUS
  0
LAYER
  2
DEFPOINTS
 70
     0
 62
     7
  6
CONTINUOUS
  0
ENDTAB
  0
TABLE
  2
STYLE
 70
     1
  0
STYLE
  2
STANDARD
 70
     0
 40
0.0
 41
0.8
 50
0.0
 71
     0
 42
0.2
  3
txt
  4

  0
ENDTAB
  0
TABLE
  2
VIEW
 70
     0
  0
ENDTAB
  0
TABLE
  2
UCS
 70
     0
  0
ENDTAB
  0
TABLE
  2
APPID
 70
     9
  0
APPID
  2
ACAD
 70
     0
  0
APPID
  2
ACAD_MLEADERVER
 70
     0
  0
APPID
  2
ACAD_EXEMPT_FROM_CAD_STANDARDS
 70
     0
  0
APPID
  2
ACAD_NAV_VCDISPLAY
 70
     0
  0
APPID
  2
ACAECLAYERSTANDARD
 70
     0
  0
APPID
  2
ACCMTRANSPARENCY
 70
     0
  0
APPID
  2
ACAD_DSTYLE_DIMJAG
 70
     0
  0
APPID
  2
ACAD_DSTYLE_DIMTALN
 70
     0
  0
APPID
  2
ACDBATTR
 70
     0
  0
ENDTAB
  0
TABLE
  2
DIMSTYLE
 70
     1
  0
DIMSTYLE
  2
STANDARD
 70
     0
  3

  4

  5

  6

  7

 40
1.0
 41
0.1875
 42
0.0625
 43
0.38
 44
0.125
 45
0.0
 46
0.0
 47
0.01
 48
0.01
140
0.15625
141
0.09
142
0.0
143
25.3999999999999986
144
1.0
145
0.0
146
1.0
147
0.09
 71
     1
 72
     0
 73
     1
 74
     1
 75
     0
 76
     0
 77
     0
 78
     4
170
     0
171
     2
172
     0
173
     0
174
     0
175
     0
176
     0
177
     0
178
     0
  0
ENDTAB
  0
ENDSEC
  0
SECTION
  2
BLOCKS
  0
BLOCK
  8
0
  2
$MODEL_SPACE
 70
     0
 10
0.0
 20
0.0
 30
0.0
  3
$MODEL_SPACE
  1

  0
ENDBLK
  5
21
  8
0
  0
BLOCK
 67
     1
  8
0
  2
$PAPER_SPACE
 70
     0
 10
0.0
 20
0.0
 30
0.0
  3
$PAPER_SPACE
  1

  0
ENDBLK
  5
1D
 67
     1
  8
0
  0
BLOCK
  8
0
  2
_FILLED
 70
     0
 10
0.0
 20
0.0
 30
0.0
  3
_FILLED
  1

  0
SOLID
  5
6D3F
  8
0
  6
BYBLOCK
 62
     0
 10
0.0
 20
0.0
 30
0.0
 11
-1.0
 21
0.1666666667
 31
0.0
 12
-1.0
 22
-0.1666666667
 32
0.0
 13
-1.0
 23
-0.1666666667
 33
0.0
  0
ENDBLK
  5
6D40
  8
0
  6
BYBLOCK
 62
     0
  0
ENDSEC
  0
SECTION
  2
ENTITIES
  0
ATTDEF
  5
3930
  8
DEFPOINTS
 10
4243.9914723705433062
 20
150.8943260267060964
 30
0.0
 40
0.001
  1
K-26291-G
  3

  2
MODELNUMBER
 70
     0
1001
ACDBATTR
1070
     0
1070
     1
  0
ATTDEF
  5
3931
  8
DEFPOINTS
 10
4243.9914723705433062
 20
150.8926593600394881
 30
0.0
 40
0.001
  1

  3

  2
TRADENAME
 70
     0
1001
ACDBATTR
1070
     0
1070
     1
  0
ATTDEF
  5
3932
  8
DEFPOINTS
 10
4243.9914723705433062
 20
150.8909926933727945
 30
0.0
 40
0.001
  1
SHOWERHEAD
  3

  2
PRODUCT
 70
     0
1001
ACDBATTR
1070
     0
1070
     1
  0
LINE
  5
6E7E
  8
0
 10
4243.0915518871997847
 20
149.7938611647367111
 30
0.0
 11
4243.0915518871997847
 21
149.8726013222367044
 31
0.0
  0
LINE
  5
6E7F
  8
0
 10
4243.130921966000642
 20
149.911971400936693
 30
0.0
 11
4244.8708423055004459
 21
149.911971400936693
 31
0.0
  0
ARC
  5
6E80
  8
0
 10
4243.1332973187481912
 20
149.7962365175905006
 30
0.0
 40
0.0418129567991251
 50
183.2566700415742105
 51
266.7433301039474145
  0
ARC
  5
6E81
  8
0
 10
4243.132285849354048
 20
149.8712374387791897
 30
0.0
 40
0.0407567890155092
 50
91.9177014202859368
 51
178.0822984342050006
  0
LINE
  5
6E82
  8
0
 10
4243.130921966000642
 20
149.7544910860368077
 30
0.0
 11
4244.8708423055004459
 21
149.7544910860368077
 31
0.0
  0
ARC
  5
6E83
  8
0
 10
4242.6846734621158248
 20
104.6544665353652022
 30
0.0
 40
45.1022322307707881
 50
89.43309739224091
 51
91.6936103719275479
  0
LINE
  5
6E84
  8
0
 10
4243.5953971414000989
 20
149.7938611647367111
 30
0.0
 11
4243.5953971414000989
 21
149.8726013222367044
 31
0.0
  0
ARC
  5
6E85
  8
0
 10
4243.63726989423958
 20
149.7963638387770118
 30
0.0
 40
0.0419474766749286
 50
183.4204170827412952
 51
266.5795829172594154
  0
ARC
  5
6E86
  8
0
 10
4243.6374972510639054
 20
149.8698712913727888
 30
0.0
 40
0.0421885327289083
 50
93.710217160711565
 51
176.2897828392810027
  0
LINE
  5
6E87
  8
0
 10
4244.9102123843003938
 20
149.7938611647367111
 30
0.0
 11
4244.9102123843003938
 21
149.8726013222367044
 31
0.0
  0
ARC
  5
6E8C
  8
0
 10
4244.8684669527528968
 20
149.7962365175905006
 30
0.0
 40
0.0418129567991251
 50
273.2566698960526992
 51
356.7433299584258179
  0
ARC
  5
6E8D
  8
0
 10
4244.869478422145221
 20
149.8712374387791897
 30
0.0
 40
0.0407567890155092
 50
1.9177015657949621
 51
88.0822985797140632
  0
ARC
  5
6E8F
  8
0
 10
4245.2837961734912824
 20
97.4011169701327333
 30
0.0
 40
52.3550027429747118
 50
88.2372582442501994
 51
90.4519292879648447
  0
LINE
  5
6E90
  8
0
 10
4244.406367130100989
 20
149.7938611647367111
 30
0.0
 11
4244.406367130100989
 21
149.8726013222367044
 31
0.0
  0
ARC
  5
6E91
  8
0
 10
4244.3644943772596889
 20
149.7963638387770118
 30
0.0
 40
0.0419474766749286
 50
273.4204170827405846
 51
356.5795829172570279
  0
ARC
  5
6E92
  8
0
 10
4244.364267020436273
 20
149.8698712913727888
 30
0.0
 40
0.0421885327289083
 50
3.710217160718992
 51
86.2897828392884634
  0
LINE
  5
6EA2
  8
0
 10
4238.051473887987413
 20
147.1344910860366895
 30
0.0
 11
4249.9502903835864345
 21
147.1344910860366895
 31
0.0
  0
ARC
  5
6EA3
  8
0
 10
3367.6091869415067777
 20
139.7524727118255043
 30
0.0
 40
882.3870681917413776
 50
0.4803115454751816
 51
0.5377723749689775
  0
ARC
  5
6EA4
  8
0
 10
4245.5901139176694414
 20
147.9929813869260897
 30
0.0
 40
4.3674704098905242
 50
0.5426686905217427
 51
10.2261082910859304
  0
ARC
  5
6EA5
  8
0
 10
4248.9329067356684391
 20
148.5960174194752881
 30
0.0
 40
0.9707195681869292
 50
10.2261082910859304
 51
73.2014974981477593
  0
ARC
  5
6EA6
  8
0
 10
4246.4249474834559805
 20
121.5482933598131012
 30
0.0
 40
28.1869582349350516
 50
85.5980401808521378
 51
89.0459460045688331
  0
ARC
  5
6EA7
  8
0
 10
4248.4488358328508184
 20
147.3599751565768088
 30
0.0
 40
2.2963725740539691
 50
70.5510629310601729
 51
86.5160280371047179
  0
ARC
  5
6EA8
  8
0
 10
4242.4116503539025871
 20
147.9929813869260897
 30
0.0
 40
4.3674704098905242
 50
169.7738917089139932
 51
179.4573313094782065
  0
ARC
  5
6EA9
  8
0
 10
4239.0688575359054084
 20
148.5960174194752881
 30
0.0
 40
0.9707195681869292
 50
106.7985025018521981
 51
169.7738917089139932
  0
ARC
  5
6EAA
  8
0
 10
4241.7084757418233494
 20
119.4200626473044053
 30
0.0
 40
30.3190331445021712
 50
90.674261203537398
 51
94.3413403810749429
  0
ARC
  5
6EAB
  8
0
 10
4239.5529284387230291
 20
147.3599751565768088
 30
0.0
 40
2.2963725740539691
 50
93.4839719628952963
 51
109.4489370689393013
  0
ARC
  5
6EAD
  8
0
 10
5120.3925773300661604
 20
139.7524727118253054
 30
0.0
 40
882.3870681917413776
 50
179.4622276250310051
 51
179.519688454524811
  0
LINE
  5
6EAE
  8
0
 62
     1
 10
4238.0365138275856225
 20
147.149452664804187
 30
0.0
 11
4238.036513827919407
 21
147.1494526648131114
 31
0.0
  0
ARC
  5
6EAF
  8
0
 10
4238.0514734660828253
 20
147.1494507243212126
 30
0.0
 40
0.0149596382903815
 50
179.9925678686958008
 51
270.0016158989856763
  0
ARC
  5
6EB0
  8
0
 10
4249.9502908054901127
 20
147.1494507243212126
 30
0.0
 40
0.0149596382903815
 50
269.9983841010143237
 51
0.007432131304238
  0
LINE
  5
6ECD
  8
0
 10
4243.504819143736313
 20
150.868391086036695
 30
0.0
 11
4243.504819143736313
 21
150.3515393981367083
 31
0.0
  0
LINE
  5
6ECE
  8
0
 10
4243.8026292578360881
 20
150.7190997474367009
 30
0.0
 11
4243.8026292578360881
 21
150.3515393981367083
 31
0.0
  0
LINE
  5
6ECF
  8
0
 10
4243.8026292578360881
 20
150.7190997474367009
 30
0.0
 11
4244.1991350137368499
 21
150.7190997474367009
 31
0.0
  0
LINE
  5
6ED0
  8
0
 10
4244.4769442154365606
 20
150.8883910860367052
 30
0.0
 11
4243.5248200561363774
 21
150.8883910860367052
 31
0.0
  0
ARC
  5
6ED1
  8
0
 10
4243.9999998606799636
 20
149.6137338866672053
 30
0.0
 40
0.5262778689334157
 50
129.3611924221360994
 51
145.4801229529163891
  0
ARC
  5
6ED2
  8
0
 10
4243.7331656001451847
 20
150.351539397899387
 30
0.0
 40
0.2283464564082678
 50
179.9999999404510049
 51
248.0877877553907922
  0
ARC
  5
6ED3
  8
0
 10
4243.6218270175722864
 20
150.0747464642859939
 30
0.0
 40
0.0700000000710148
 50
309.370992760595982
 51
68.0877876998970919
  0
ARC
  5
6ED4
  8
0
 10
4243.5266780321244369
 20
150.8665321128671053
 30
0.0
 40
0.0219377934807047
 50
94.8583673307487629
 51
175.1390188954324003
  0
ARC
  5
6ED5
  8
0
 10
4244.0507345338201048
 20
150.011406678835499
 30
0.0
 40
0.7499238010075454
 50
93.8116405323338682
 51
109.3198073127664998
  0
ARC
  5
6ED6
  8
0
 10
4244.0175686519469309
 20
150.6153877970619988
 30
0.0
 40
0.3955822172736795
 50
253.2577598404423043
 51
267.5824224053429816
  0
ARC
  5
6ED7
  8
0
 10
4243.9569391054355947
 20
150.3999321213470921
 30
0.0
 40
0.1718409820414802
 50
219.5518904140452037
 51
251.9219133516157001
  0
ARC
  5
6ED8
  8
0
 10
4243.901645838425793
 20
150.3525135049457901
 30
0.0
 40
0.0990213720156217
 50
180.5636471000742915
 51
218.7692417149843038
  0
LINE
  5
6ED9
  8
0
 10
4244.496945127836625
 20
150.868391086036695
 30
0.0
 11
4244.496945127836625
 21
150.3515393981367083
 31
0.0
  0
LINE
  5
6EDA
  8
0
 10
4244.1991350137368499
 20
150.7190997474367009
 30
0.0
 11
4244.1991350137368499
 21
150.3515393981367083
 31
0.0
  0
ARC
  5
6EDB
  8
0
 10
4244.0017644108920649
 20
149.6137338866672053
 30
0.0
 40
0.5262778689334157
 50
34.5198770470835612
 51
50.6388075778638225
  0
ARC
  5
6EDC
  8
0
 10
4244.2685986714277533
 20
150.351539397899387
 30
0.0
 40
0.2283464564082678
 50
291.9122122446091794
 51
0.0000000595489401
  0
ARC
  5
6EDD
  8
0
 10
4244.3799372539997421
 20
150.0747464642859939
 30
0.0
 40
0.0700000000710148
 50
111.9122123001028939
 51
230.6290072394039896
  0
ARC
  5
6EDE
  8
0
 10
4244.4750862394475917
 20
150.8665321128671053
 30
0.0
 40
0.0219377934807047
 50
4.8609811045675553
 51
85.1416326692512087
  0
ARC
  5
6EDF
  8
0
 10
4243.9510297377510142
 20
150.011406678835499
 30
0.0
 40
0.7499238010075454
 50
70.680192687233486
 51
86.1883594676661602
  0
ARC
  5
6EE0
  8
0
 10
4243.9841956196260071
 20
150.6153877970619988
 30
0.0
 40
0.3955822172736795
 50
272.4175775946569047
 51
286.7422401595576957
  0
ARC
  5
6EE1
  8
0
 10
4244.0448251661364338
 20
150.3999321213470921
 30
0.0
 40
0.1718409820414802
 50
288.0780866483842146
 51
320.4481095859547963
  0
ARC
  5
6EE2
  8
0
 10
4244.1001184331462355
 20
150.3525135049457901
 30
0.0
 40
0.0990213720156217
 50
321.2307582850157246
 51
359.4363528999256232
  0
ENDSEC
  0
EOF
