  0
SECTION
  2
HEADER
  9
$ACADVER
  1
AC1009
  9
$INSBASE
 10
2998.5615561785880345
 20
103.4561374677857941
 30
0.0
  9
$EXTMIN
 10
2987.9740553663241371
 20
93.3161374677856514
 30
0.0
  9
$EXTMAX
 10
3009.1490555096238495
 20
103.4700854927759934
 30
0.0
  9
$LIMMIN
 10
0.0
 20
0.0
  9
$LIMMAX
 10
11.6929133858000007
 20
8.2677165353999982
  9
$ORTHOMODE
 70
     1
  9
$REGENMODE
 70
     1
  9
$FILLMODE
 70
     1
  9
$QTEXTMODE
 70
     0
  9
$MIRRTEXT
 70
     0
  9
$DRAGMODE
 70
     2
  9
$LTSCALE
 40
0.6431102362
  9
$OSMODE
 70
  4095
  9
$ATTMODE
 70
     1
  9
$TEXTSIZE
 40
0.2
  9
$TRACEWID
 40
0.05
  9
$TEXTSTYLE
  7
STANDARD
  9
$CLAYER
  8
0
  9
$CELTYPE
  6
BYLAYER
  9
$CECOLOR
 62
   256
  9
$DIMSCALE
 40
1.0
  9
$DIMASZ
 40
0.1875
  9
$DIMEXO
 40
0.0625
  9
$DIMDLI
 40
0.4443307087
  9
$DIMRND
 40
0.0
  9
$DIMDLE
 40
0.0
  9
$DIMEXE
 40
0.125
  9
$DIMTP
 40
0.01
  9
$DIMTM
 40
0.01
  9
$DIMTXT
 40
2.0
  9
$DIMCEN
 40
0.1052362205
  9
$DIMTSZ
 40
0.0
  9
$DIMTOL
 70
     1
  9
$DIMLIM
 70
     0
  9
$DIMTIH
 70
     1
  9
$DIMTOH
 70
     1
  9
$DIMSE1
 70
     0
  9
$DIMSE2
 70
     0
  9
$DIMTAD
 70
     0
  9
$DIMZIN
 70
     0
  9
$DIMBLK
  1

  9
$DIMASO
 70
     1
  9
$DIMSHO
 70
     1
  9
$DIMPOST
  1
\X
  9
$DIMAPOST
  1

  9
$DIMALT
 70
     1
  9
$DIMALTD
 70
     2
  9
$DIMALTF
 40
25.3999999999999986
  9
$DIMLFAC
 40
1.0
  9
$DIMTOFL
 70
     0
  9
$DIMTVP
 40
0.0
  9
$DIMTIX
 70
     0
  9
$DIMSOXD
 70
     0
  9
$DIMSAH
 70
     0
  9
$DIMBLK1
  1

  9
$DIMBLK2
  1

  9
$DIMSTYLE
  2
STANDARD
  9
$DIMCLRD
 70
     0
  9
$DIMCLRE
 70
     0
  9
$DIMCLRT
 70
     0
  9
$DIMTFAC
 40
1.0
  9
$DIMGAP
 40
0.09
  9
$LUNITS
 70
     2
  9
$LUPREC
 70
     4
  9
$SKETCHINC
 40
0.1
  9
$FILLETRAD
 40
0.0
  9
$AUNITS
 70
     0
  9
$AUPREC
 70
     0
  9
$MENU
  1
.
  9
$ELEVATION
 40
0.0
  9
$PELEVATION
 40
0.0
  9
$THICKNESS
 40
0.0
  9
$LIMCHECK
 70
     0
  9
$BLIPMODE
 70
     0
  9
$CHAMFERA
 40
0.0
  9
$CHAMFERB
 40
0.0
  9
$SKPOLY
 70
     0
  9
$TDCREATE
 40
2458060.468368056230247
  9
$TDUPDATE
 40
2458778.6153472228907049
  9
$TDINDWG
 40
0.2822408565
  9
$TDUSRTIMER
 40
0.2822408565
  9
$USRTIMER
 70
     1
  9
$ANGBASE
 50
0.0
  9
$ANGDIR
 70
     0
  9
$PDMODE
 70
     0
  9
$PDSIZE
 40
0.3125
  9
$PLINEWID
 40
0.0
  9
$COORDS
 70
     1
  9
$SPLFRAME
 70
     0
  9
$SPLINETYPE
 70
     6
  9
$SPLINESEGS
 70
     8
  9
$ATTDIA
 70
     1
  9
$ATTREQ
 70
     1
  9
$HANDLING
 70
     1
  9
$HANDSEED
  5
5E7A
  9
$SURFTAB1
 70
     6
  9
$SURFTAB2
 70
     6
  9
$SURFTYPE
 70
     6
  9
$SURFU
 70
     6
  9
$SURFV
 70
     6
  9
$UCSNAME
  2

  9
$UCSORG
 10
0.0
 20
0.0
 30
0.0
  9
$UCSXDIR
 10
1.0
 20
0.0
 30
0.0
  9
$UCSYDIR
 10
0.0
 20
1.0
 30
0.0
  9
$PUCSNAME
  2

  9
$PUCSORG
 10
0.0
 20
0.0
 30
0.0
  9
$PUCSXDIR
 10
1.0
 20
0.0
 30
0.0
  9
$PUCSYDIR
 10
0.0
 20
1.0
 30
0.0
  9
$USERI1
 70
     0
  9
$USERI2
 70
     0
  9
$USERI3
 70
     0
  9
$USERI4
 70
     0
  9
$USERI5
 70
     0
  9
$USERR1
 40
0.0
  9
$USERR2
 40
0.0
  9
$USERR3
 40
0.0
  9
$USERR4
 40
0.0
  9
$USERR5
 40
0.0
  9
$WORLDVIEW
 70
     1
  9
$SHADEDGE
 70
     3
  9
$SHADEDIF
 70
    70
  9
$TILEMODE
 70
     1
  9
$MAXACTVP
 70
    64
  9
$PLIMCHECK
 70
     0
  9
$PEXTMIN
 10
1.0000000000000000E+20
 20
1.0000000000000000E+20
 30
1.0000000000000000E+20
  9
$PEXTMAX
 10
-1.0000000000000000E+20
 20
-1.0000000000000000E+20
 30
-1.0000000000000000E+20
  9
$PLIMMIN
 10
0.0
 20
0.0
  9
$PLIMMAX
 10
12.0
 20
9.0
  9
$UNITMODE
 70
     0
  9
$VISRETAIN
 70
     1
  9
$PLINEGEN
 70
     0
  9
$PSLTSCALE
 70
     1
  0
ENDSEC
  0
SECTION
  2
TABLES
  0
TABLE
  2
VPORT
 70
     1
  0
VPORT
  2
*ACTIVE
 70
     0
 10
0.0
 20
0.0
 11
1.0
 21
1.0
 12
0.0
 22
0.0
 13
0.0
 23
0.0
 14
1.0
 24
1.0
 15
0.0
 25
0.0
 16
0.0
 26
0.0
 36
67.2773677217736008
 17
2998.5616455078129547
 27
98.3931123569837069
 37
0.0
 40
23.4863712605307384
 41
2.1481900452488678
 42
50.0
 43
0.0
 44
0.0
 50
0.0
 51
0.0
 71
     0
 72
   100
 73
     1
 74
     1
 75
     0
 76
     0
 77
     0
 78
     0
  0
ENDTAB
  0
TABLE
  2
LTYPE
 70
     3
  0
LTYPE
  2
CONTINUOUS
 70
     0
  3
Solid line
 72
    65
 73
     0
 40
0.0
  0
LTYPE
  2
PHANTOM2
 70
     0
  3
___ _ _ ___ _ _ ___ _ _ ___ _ _
 72
    65
 73
     6
 40
1.25
 49
0.625
 49
-0.125
 49
0.125
 49
-0.125
 49
0.125
 49
-0.125
  0
ENDTAB
  0
TABLE
  2
LAYER
 70
     2
  0
LAYER
  2
0
 70
     0
 62
   255
  6
CONTINUOUS
  0
LAYER
  2
DEFPOINTS
 70
     0
 62
     7
  6
CONTINUOUS
  0
ENDTAB
  0
TABLE
  2
STYLE
 70
     1
  0
STYLE
  2
STANDARD
 70
     0
 40
0.0
 41
0.8
 50
0.0
 71
     0
 42
0.2
  3
txt
  4

  0
ENDTAB
  0
TABLE
  2
VIEW
 70
     0
  0
ENDTAB
  0
TABLE
  2
UCS
 70
     0
  0
ENDTAB
  0
TABLE
  2
APPID
 70
     9
  0
APPID
  2
ACAD
 70
     0
  0
APPID
  2
ACAD_MLEADERVER
 70
     0
  0
APPID
  2
ACAD_EXEMPT_FROM_CAD_STANDARDS
 70
     0
  0
APPID
  2
ACAD_NAV_VCDISPLAY
 70
     0
  0
APPID
  2
ACAECLAYERSTANDARD
 70
     0
  0
APPID
  2
ACCMTRANSPARENCY
 70
     0
  0
APPID
  2
ACAD_DSTYLE_DIMJAG
 70
     0
  0
APPID
  2
ACAD_DSTYLE_DIMTALN
 70
     0
  0
APPID
  2
ACDBATTR
 70
     0
  0
ENDTAB
  0
TABLE
  2
DIMSTYLE
 70
     2
  0
DIMSTYLE
  2
STANDARD
 70
     0
  3

  4

  5

  6

  7

 40
1.0
 41
0.1875
 42
0.0625
 43
0.38
 44
0.125
 45
0.0
 46
0.0
 47
0.01
 48
0.01
140
0.15625
141
0.09
142
0.0
143
25.3999999999999986
144
1.0
145
0.0
146
1.0
147
0.09
 71
     1
 72
     0
 73
     1
 74
     1
 75
     0
 76
     0
 77
     0
 78
     4
170
     0
171
     2
172
     0
173
     0
174
     0
175
     0
176
     0
177
     0
178
     0
  0
ENDTAB
  0
ENDSEC
  0
SECTION
  2
BLOCKS
  0
BLOCK
  8
0
  2
$MODEL_SPACE
 70
     0
 10
0.0
 20
0.0
 30
0.0
  3
$MODEL_SPACE
  1

  0
ENDBLK
  5
21
  8
0
  0
BLOCK
 67
     1
  8
0
  2
$PAPER_SPACE
 70
     0
 10
0.0
 20
0.0
 30
0.0
  3
$PAPER_SPACE
  1

  0
ENDBLK
  5
1D
 67
     1
  8
0
  0
ENDSEC
  0
SECTION
  2
ENTITIES
  0
ATTDEF
  5
3930
  8
DEFPOINTS
 10
2998.5572026008758257
 20
103.4690854927760029
 30
0.0
 40
0.001
  1
K-25788
  3

  2
MODELNUMBER
 70
     0
1001
ACDBATTR
1070
     0
1070
     1
  0
ATTDEF
  5
3931
  8
DEFPOINTS
 10
2998.5572026008758257
 20
103.4674188261092951
 30
0.0
 40
0.001
  1
CAIRN
  3

  2
TRADENAME
 70
     0
1001
ACDBATTR
1070
     0
1070
     1
  0
ATTDEF
  5
3932
  8
DEFPOINTS
 10
2998.5572026008758257
 20
103.4657521594426015
 30
0.0
 40
0.001
  1
KITCHEN SINK
  3

  2
PRODUCT
 70
     0
1001
ACDBATTR
1070
     0
1070
     1
  0
LINE
  5
5D74
  8
0
 10
2989.8490555096241224
 20
94.6561374677858112
 30
0.0
 11
2989.8490555096241224
 21
102.9561374677857941
 31
0.0
  0
LINE
  5
5D75
  8
0
 10
2989.8490555096241224
 20
102.9561374677857941
 30
0.0
 11
2989.8101029893241503
 21
103.4013668123858025
 31
0.0
  0
LINE
  5
5D76
  8
0
 10
2990.6484074095242249
 20
98.7265366602858165
 30
0.0
 11
2991.0322886965250291
 21
94.3387534723858039
 31
0.0
  0
LINE
  5
5D77
  8
0
 10
2991.8563329633238936
 20
93.4294259411857979
 30
0.0
 11
2991.7985549838240331
 21
93.5533312179858001
 31
0.0
  0
LINE
  5
5D78
  8
0
 10
2994.2240555096241224
 20
98.8164133183857842
 30
0.0
 11
2994.2240555096241224
 21
100.6339190716857956
 31
0.0
  0
LINE
  5
5D79
  8
0
 10
3001.9258232069978476
 20
93.4279520316858054
 30
0.0
 11
3004.8656298751238864
 21
93.5283443854858092
 31
0.0
  0
LINE
  5
5D7A
  8
0
 10
2992.0341602460239301
 20
93.3161374677858078
 30
0.0
 11
2992.8152840394241139
 21
93.3161374677858078
 31
0.0
  0
LINE
  5
5D7B
  8
0
 10
3005.1624298393239769
 20
93.3161374677858078
 30
0.0
 11
3005.924008340574801
 21
93.3161374677858078
 31
0.0
  0
LINE
  5
5D7C
  8
0
 10
2988.6064420521252032
 20
94.7212600832858129
 30
0.0
 11
2989.8490555096241224
 21
94.6561374677858112
 31
0.0
  0
LINE
  5
5D7D
  8
0
 10
2994.1340555096239768
 20
98.7265366602858165
 30
0.0
 11
2989.8490555096241224
 21
98.7265366602858165
 31
0.0
  0
LINE
  5
5D7E
  8
0
 10
2989.8490555096241224
 20
100.7263078556858034
 30
0.0
 11
2994.1340555096239768
 21
100.7263078556858034
 31
0.0
  0
LINE
  5
5D7F
  8
0
 10
3006.9484615847241002
 20
94.3683451470858046
 30
0.0
 11
3007.319917040224027
 21
101.4561374677857941
 31
0.0
  0
LINE
  5
5D80
  8
0
 10
3006.1018373813240032
 20
93.4294259411857979
 30
0.0
 11
3006.1462712423240191
 21
93.5247146635857831
 31
0.0
  0
LINE
  5
5D81
  8
0
 10
3009.1101029893238774
 20
103.4013668123858025
 30
0.0
 11
3009.1490555096238495
 21
102.9561374677857941
 31
0.0
  0
ARC
  5
5D82
  8
0
 10
2988.6421236798450991
 20
95.1012959106619178
 30
0.0
 40
0.3817072289399713
 50
216.0819650230818922
 51
264.6362139768137922
  0
ARC
  5
5D83
  8
0
 10
2989.7458662198710044
 20
103.3912646797809032
 30
0.0
 40
0.0650262687718255
 50
8.9373647772931157
 51
86.0626352227071862
  0
ARC
  5
5D84
  8
0
 10
2992.7795794204571393
 20
93.5753374910977556
 30
0.0
 40
0.2616476101563751
 50
277.8430942249690929
 51
321.2552080724591974
  0
ARC
  5
5D85
  8
0
 10
2992.0446396688789719
 20
93.5287975638984932
 30
0.0
 40
0.2129181409356789
 50
207.8211282401493065
 51
267.178871759861579
  0
ARC
  5
5D86
  8
0
 10
2991.3263121210011377
 20
96.311639846779471
 30
0.0
 40
3.352257061676033
 50
180.0245209685903944
 51
183.5074788670013106
  0
ARC
  5
5D87
  8
0
 10
2994.1285271249630568
 20
98.8220727164389245
 30
0.0
 40
0.0956958779794027
 50
273.3118413225678864
 51
356.6095829547867879
  0
ARC
  5
5D88
  8
0
 10
2994.1288694242580277
 20
100.6312249786621038
 30
0.0
 40
0.0952242037746923
 50
1.621234454356473
 51
86.8780217691335537
  0
ARC
  5
5D89
  8
0
 10
3005.9125782523128692
 20
93.5302927464601055
 30
0.0
 40
0.2144600902306275
 50
273.0551430797480066
 51
331.9443435990078797
  0
ARC
  5
5D8A
  8
0
 10
3005.1731668066900056
 20
93.5308931660289034
 30
0.0
 40
0.2150239343727728
 50
213.6675917710151111
 51
267.1378123461277028
  0
ARC
  5
5D8B
  8
0
 10
3009.0502988951438965
 20
103.3961214838183054
 30
0.0
 40
0.0600336834646459
 50
5.0125008676777867
 51
88.6086664112134343
  0
LINE
  5
5D8C
  8
0
 10
2996.5356012911738617
 20
93.3161374677858078
 30
0.0
 11
3001.4335097279740694
 21
93.3161374677858078
 31
0.0
  0
LINE
  5
5D8D
  8
0
 10
2995.9783420133740037
 20
93.4279520316858054
 30
0.0
 11
3001.9258232069978476
 21
93.4279520316858054
 31
0.0
  0
LINE
  5
5D8E
  8
0
 10
2993.1119852035571967
 20
93.5280474171206038
 30
0.0
 11
2995.9783420133740037
 21
93.4279520316858054
 31
0.0
  0
ARC
  5
5D8F
  8
0
 10
2995.9172728312569234
 20
91.6790602842600038
 30
0.0
 40
1.7499576535345249
 50
69.3083141390051338
 51
88.0001133279340735
  0
ARC
  5
5D90
  8
0
 10
3002.1041799323220403
 20
91.5029349175621292
 30
0.0
 40
1.933262013059021
 50
95.2934572172498235
 51
110.2985049765024002
  0
LINE
  5
5D91
  8
0
 10
2987.9740553663241371
 20
96.3102051759451001
 30
0.0
 11
2987.9740553663241371
 21
102.9261543804857979
 31
0.0
  0
LINE
  5
5D92
  8
0
 10
2987.9740553663241371
 20
102.9561374677857941
 30
0.0
 11
2987.9966602258241437
 21
103.2666052586858001
 31
0.0
  0
LINE
  5
5D93
  8
0
 10
2987.9740553663241371
 20
102.9561374677857941
 30
0.0
 11
3009.1490555096238495
 21
102.9561374677857941
 31
0.0
  0
LINE
  5
5D94
  8
0
 10
3009.0517565709478731
 20
103.4561374677857941
 30
0.0
 11
2988.197371398624
 21
103.4561374677857941
 31
0.0
  0
ARC
  5
5D95
  8
0
 10
2988.2271834218968252
 20
103.2235262248179026
 30
0.0
 40
0.2345138526541291
 50
97.3033529275612779
 51
169.4149395282753119
  0
ARC
  5
5D96
  8
0
 10
2988.0089268896740577
 20
102.9246120816304995
 30
0.0
 40
0.0349056131086017
 50
115.4232802681895009
 51
177.4675708062889896
  0
ARC
  5
5D97
  8
0
 10
2990.5979419509831132
 20
96.1926239112880666
 30
0.0
 40
2.619022213726192
 50
181.8833004157770858
 51
210.1673779580407029
  0
ARC
  5
5D98
  8
0
 10
2993.2389695394617775
 20
93.2591759749589357
 30
0.0
 40
0.297349750252735
 50
115.2807306283778956
 51
149.1657017741387961
  0
ARC
  5
5D99
  8
0
 10
2991.8726771674978409
 20
94.415531086148107
 30
0.0
 40
0.8438883718362644
 50
185.2200325631002897
 51
263.2348221351580264
  0
ARC
  5
5D9A
  8
0
 10
3006.3747635140312013
 20
93.3327081629900164
 30
0.0
 40
0.2984547109708802
 50
124.5558989879800009
 51
139.9590111407187862
  0
ARC
  5
5D9B
  8
0
 10
3006.1091290327372008
 20
94.4135143220593847
 30
0.0
 40
0.8405470761315825
 50
276.5820149984207887
 51
356.9195653983335887
  0
ARC
  5
5D9C
  8
0
 10
3007.8983937261468782
 20
102.7665895277545047
 30
0.0
 40
0.1898044166780322
 50
92.9789094543210553
 51
149.8361899034096894
  0
ARC
  5
5D9D
  8
0
 10
3010.4131378297870469
 20
101.308377132840306
 30
0.0
 40
3.096747966728123
 50
149.8886261266933957
 51
177.2651118575350893
  0
ARC
  5
5D9E
  8
0
 10
3004.7336556792520241
 20
93.2536907457239863
 30
0.0
 40
0.3047159500429961
 50
31.2324738819337
 51
64.3351862099829646
  0
ARC
  5
5D9F
  8
0
 10
2991.7294959935061343
 20
93.5064419706944392
 30
0.0
 40
0.0834730235185191
 50
34.1754784228504889
 51
58.3741700177983702
  0
LINE
  5
5DA1
  8
0
 10
2990.4095982621229268
 20
101.4561374508100045
 30
0.0
 11
2990.4734501003240439
 21
100.7263078556858034
 31
0.0
  0
LINE
  5
5DA2
  8
0
 10
2989.8490555096241224
 20
102.5863430888857977
 30
0.0
 11
2990.0216995751538889
 21
102.5712386903363011
 31
0.0
  0
ARC
  5
5DA3
  8
0
 10
2985.2449256705649532
 20
100.7721859580573067
 30
0.0
 40
5.2097632021454379
 50
7.5437177415112551
 51
18.8258956964892512
  0
ARC
  5
5DA4
  8
0
 10
2990.0013604254709207
 20
102.3847205819061941
 30
0.0
 40
0.1876237878899269
 50
21.45334422425897
 51
83.7766846350532575
  0
ENDSEC
  0
EOF
