  0
SECTION
  2
HEADER
  9
$ACADVER
  1
AC1009
  9
$INSBASE
 10
2991.8765577894960188
 20
81.8605058624635404
 30
0.0
  9
$EXTMIN
 10
2974.0265577807958834
 20
71.2730058624635205
 30
0.0
  9
$EXTMAX
 10
3009.7265577981961542
 20
92.4480058624635603
 30
0.0
  9
$LIMMIN
 10
0.0
 20
0.0
  9
$LIMMAX
 10
11.6929133858000007
 20
8.2677165353999982
  9
$ORTHOMODE
 70
     1
  9
$REGENMODE
 70
     1
  9
$FILLMODE
 70
     1
  9
$QTEXTMODE
 70
     0
  9
$MIRRTEXT
 70
     0
  9
$DRAGMODE
 70
     2
  9
$LTSCALE
 40
0.6431102362
  9
$OSMODE
 70
  4095
  9
$ATTMODE
 70
     1
  9
$TEXTSIZE
 40
0.2
  9
$TRACEWID
 40
0.05
  9
$TEXTSTYLE
  7
STANDARD
  9
$CLAYER
  8
0
  9
$CELTYPE
  6
BYLAYER
  9
$CECOLOR
 62
   256
  9
$DIMSCALE
 40
1.0
  9
$DIMASZ
 40
0.1875
  9
$DIMEXO
 40
0.0625
  9
$DIMDLI
 40
0.4443307087
  9
$DIMRND
 40
0.0
  9
$DIMDLE
 40
0.0
  9
$DIMEXE
 40
0.125
  9
$DIMTP
 40
0.01
  9
$DIMTM
 40
0.01
  9
$DIMTXT
 40
2.0
  9
$DIMCEN
 40
0.1052362205
  9
$DIMTSZ
 40
0.0
  9
$DIMTOL
 70
     1
  9
$DIMLIM
 70
     0
  9
$DIMTIH
 70
     1
  9
$DIMTOH
 70
     1
  9
$DIMSE1
 70
     0
  9
$DIMSE2
 70
     0
  9
$DIMTAD
 70
     0
  9
$DIMZIN
 70
     0
  9
$DIMBLK
  1

  9
$DIMASO
 70
     1
  9
$DIMSHO
 70
     1
  9
$DIMPOST
  1
\X
  9
$DIMAPOST
  1

  9
$DIMALT
 70
     1
  9
$DIMALTD
 70
     2
  9
$DIMALTF
 40
25.3999999999999986
  9
$DIMLFAC
 40
1.0
  9
$DIMTOFL
 70
     0
  9
$DIMTVP
 40
0.0
  9
$DIMTIX
 70
     0
  9
$DIMSOXD
 70
     0
  9
$DIMSAH
 70
     0
  9
$DIMBLK1
  1

  9
$DIMBLK2
  1

  9
$DIMSTYLE
  2
STANDARD
  9
$DIMCLRD
 70
     0
  9
$DIMCLRE
 70
     0
  9
$DIMCLRT
 70
     0
  9
$DIMTFAC
 40
1.0
  9
$DIMGAP
 40
0.09
  9
$LUNITS
 70
     2
  9
$LUPREC
 70
     4
  9
$SKETCHINC
 40
0.1
  9
$FILLETRAD
 40
0.0
  9
$AUNITS
 70
     0
  9
$AUPREC
 70
     0
  9
$MENU
  1
.
  9
$ELEVATION
 40
0.0
  9
$PELEVATION
 40
0.0
  9
$THICKNESS
 40
0.0
  9
$LIMCHECK
 70
     0
  9
$BLIPMODE
 70
     0
  9
$CHAMFERA
 40
0.0
  9
$CHAMFERB
 40
0.0
  9
$SKPOLY
 70
     0
  9
$TDCREATE
 40
2458060.468368056230247
  9
$TDUPDATE
 40
2458778.615243055857718
  9
$TDINDWG
 40
0.2820788194
  9
$TDUSRTIMER
 40
0.2820788194
  9
$USRTIMER
 70
     1
  9
$ANGBASE
 50
0.0
  9
$ANGDIR
 70
     0
  9
$PDMODE
 70
     0
  9
$PDSIZE
 40
0.3125
  9
$PLINEWID
 40
0.0
  9
$COORDS
 70
     1
  9
$SPLFRAME
 70
     0
  9
$SPLINETYPE
 70
     6
  9
$SPLINESEGS
 70
     8
  9
$ATTDIA
 70
     1
  9
$ATTREQ
 70
     1
  9
$HANDLING
 70
     1
  9
$HANDSEED
  5
5E59
  9
$SURFTAB1
 70
     6
  9
$SURFTAB2
 70
     6
  9
$SURFTYPE
 70
     6
  9
$SURFU
 70
     6
  9
$SURFV
 70
     6
  9
$UCSNAME
  2

  9
$UCSORG
 10
0.0
 20
0.0
 30
0.0
  9
$UCSXDIR
 10
1.0
 20
0.0
 30
0.0
  9
$UCSYDIR
 10
0.0
 20
1.0
 30
0.0
  9
$PUCSNAME
  2

  9
$PUCSORG
 10
0.0
 20
0.0
 30
0.0
  9
$PUCSXDIR
 10
1.0
 20
0.0
 30
0.0
  9
$PUCSYDIR
 10
0.0
 20
1.0
 30
0.0
  9
$USERI1
 70
     0
  9
$USERI2
 70
     0
  9
$USERI3
 70
     0
  9
$USERI4
 70
     0
  9
$USERI5
 70
     0
  9
$USERR1
 40
0.0
  9
$USERR2
 40
0.0
  9
$USERR3
 40
0.0
  9
$USERR4
 40
0.0
  9
$USERR5
 40
0.0
  9
$WORLDVIEW
 70
     1
  9
$SHADEDGE
 70
     3
  9
$SHADEDIF
 70
    70
  9
$TILEMODE
 70
     1
  9
$MAXACTVP
 70
    64
  9
$PLIMCHECK
 70
     0
  9
$PEXTMIN
 10
1.0000000000000000E+20
 20
1.0000000000000000E+20
 30
1.0000000000000000E+20
  9
$PEXTMAX
 10
-1.0000000000000000E+20
 20
-1.0000000000000000E+20
 30
-1.0000000000000000E+20
  9
$PLIMMIN
 10
0.0
 20
0.0
  9
$PLIMMAX
 10
12.0
 20
9.0
  9
$UNITMODE
 70
     0
  9
$VISRETAIN
 70
     1
  9
$PLINEGEN
 70
     0
  9
$PSLTSCALE
 70
     1
  0
ENDSEC
  0
SECTION
  2
TABLES
  0
TABLE
  2
VPORT
 70
     1
  0
VPORT
  2
*ACTIVE
 70
     0
 10
0.0
 20
0.0
 11
1.0
 21
1.0
 12
0.0
 22
0.0
 13
0.0
 23
0.0
 14
1.0
 24
1.0
 15
0.0
 25
0.0
 16
0.0
 26
0.0
 36
118.9126133485066958
 17
2991.8765869140629547
 27
81.860504150390625
 37
0.0
 40
41.5107643057363376
 41
2.1481900452488678
 42
50.0
 43
0.0
 44
0.0
 50
0.0
 51
0.0
 71
     0
 72
   100
 73
     1
 74
     1
 75
     0
 76
     0
 77
     0
 78
     0
  0
ENDTAB
  0
TABLE
  2
LTYPE
 70
     2
  0
LTYPE
  2
CONTINUOUS
 70
     0
  3
Solid line
 72
    65
 73
     0
 40
0.0
  0
LTYPE
  2
PHANTOM2
 70
     0
  3
___ _ _ ___ _ _ ___ _ _ ___ _ _
 72
    65
 73
     6
 40
1.25
 49
0.625
 49
-0.125
 49
0.125
 49
-0.125
 49
0.125
 49
-0.125
  0
ENDTAB
  0
TABLE
  2
LAYER
 70
     2
  0
LAYER
  2
0
 70
     0
 62
   255
  6
CONTINUOUS
  0
LAYER
  2
DEFPOINTS
 70
     0
 62
     7
  6
CONTINUOUS
  0
ENDTAB
  0
TABLE
  2
STYLE
 70
     1
  0
STYLE
  2
STANDARD
 70
     0
 40
0.0
 41
0.8
 50
0.0
 71
     0
 42
0.2
  3
txt
  4

  0
ENDTAB
  0
TABLE
  2
VIEW
 70
     0
  0
ENDTAB
  0
TABLE
  2
UCS
 70
     0
  0
ENDTAB
  0
TABLE
  2
APPID
 70
     9
  0
APPID
  2
ACAD
 70
     0
  0
APPID
  2
ACAD_MLEADERVER
 70
     0
  0
APPID
  2
ACAD_EXEMPT_FROM_CAD_STANDARDS
 70
     0
  0
APPID
  2
ACAD_NAV_VCDISPLAY
 70
     0
  0
APPID
  2
ACAECLAYERSTANDARD
 70
     0
  0
APPID
  2
ACCMTRANSPARENCY
 70
     0
  0
APPID
  2
ACAD_DSTYLE_DIMJAG
 70
     0
  0
APPID
  2
ACAD_DSTYLE_DIMTALN
 70
     0
  0
APPID
  2
ACDBATTR
 70
     0
  0
ENDTAB
  0
TABLE
  2
DIMSTYLE
 70
     1
  0
DIMSTYLE
  2
STANDARD
 70
     0
  3

  4

  5

  6

  7

 40
1.0
 41
0.1875
 42
0.0625
 43
0.38
 44
0.125
 45
0.0
 46
0.0
 47
0.01
 48
0.01
140
0.15625
141
0.09
142
0.0
143
25.3999999999999986
144
1.0
145
0.0
146
1.0
147
0.09
 71
     1
 72
     0
 73
     1
 74
     1
 75
     0
 76
     0
 77
     0
 78
     4
170
     0
171
     2
172
     0
173
     0
174
     0
175
     0
176
     0
177
     0
178
     0
  0
ENDTAB
  0
ENDSEC
  0
SECTION
  2
BLOCKS
  0
BLOCK
  8
0
  2
$MODEL_SPACE
 70
     0
 10
0.0
 20
0.0
 30
0.0
  3
$MODEL_SPACE
  1

  0
ENDBLK
  5
21
  8
0
  0
BLOCK
 67
     1
  8
0
  2
$PAPER_SPACE
 70
     0
 10
0.0
 20
0.0
 30
0.0
  3
$PAPER_SPACE
  1

  0
ENDBLK
  5
1D
 67
     1
  8
0
  0
ENDSEC
  0
SECTION
  2
ENTITIES
  0
ATTDEF
  5
3930
  8
DEFPOINTS
 10
2991.8732453544180316
 20
81.8649601643846125
 30
0.0
 40
0.001
  1
K-25788
  3

  2
MODELNUMBER
 70
     0
1001
ACDBATTR
1070
     0
1070
     1
  0
ATTDEF
  5
3931
  8
DEFPOINTS
 10
2991.8732453544180316
 20
81.8632934977179332
 30
0.0
 40
0.001
  1
CAIRN
  3

  2
TRADENAME
 70
     0
1001
ACDBATTR
1070
     0
1070
     1
  0
ATTDEF
  5
3932
  8
DEFPOINTS
 10
2991.8732453544180316
 20
81.8616268310512964
 30
0.0
 40
0.001
  1
KITCHEN SINK
  3

  2
PRODUCT
 70
     0
1001
ACDBATTR
1070
     0
1070
     1
  0
LINE
  5
5D68
  8
0
 10
2974.8765577894960188
 20
73.2077775443635232
 30
0.0
 11
2974.8765577894960188
 21
89.8950058624635346
 31
0.0
  0
LINE
  5
5D69
  8
0
 10
3009.1993948998951964
 20
71.2730058624635348
 30
0.0
 11
2974.5537206790959317
 21
71.2730058624635348
 31
0.0
  0
LINE
  5
5D6A
  8
0
 10
2974.8167861087958954
 20
73.1480058618635383
 30
0.0
 11
2974.0265577807958834
 21
73.1480058624635348
 31
0.0
  0
LINE
  5
5D6B
  8
0
 10
2978.2060943331948693
 20
90.9616357946635361
 30
0.0
 11
3005.5470212457958041
 21
90.9616357946635361
 31
0.0
  0
LINE
  5
5D6C
  8
0
 10
2977.4295577894949929
 20
92.4480058624635461
 30
0.0
 11
3006.3235577894961352
 21
92.4480058624635461
 31
0.0
  0
ARC
  5
5D6D
  8
0
 10
2977.5536256807299651
 20
89.770937971228733
 30
0.0
 40
2.679941293371126
 50
92.6534567092326
 51
177.3465432907553918
  0
ARC
  5
5D6E
  8
0
 10
2974.5760940323830255
 20
71.5667024911777929
 30
0.0
 40
0.2945475796122201
 50
207.7421670345374025
 51
265.6437101956767037
  0
ARC
  5
5D6F
  8
0
 10
2979.9191989362370805
 20
73.2550118930782048
 30
0.0
 40
5.893612650775748
 50
181.0403348840814033
 51
198.0428651959173862
  0
ARC
  5
5D70
  8
0
 10
2974.0975317238489879
 20
73.0786432762634917
 30
0.0
 40
0.0697037361068345
 50
95.6709987363757079
 51
175.3354862095035003
  0
ARC
  5
5D71
  8
0
 10
2974.816879753494959
 20
73.2076838984640261
 30
0.0
 40
0.0596781094743292
 50
269.9100923762406978
 51
0.0899076243666743
  0
ARC
  5
5D72
  8
0
 10
2978.3499409424198348
 20
89.239661833147224
 30
0.0
 40
1.727971692802198
 50
94.7751664989450546
 51
175.2261317782165122
  0
LINE
  5
5D73
  8
0
 10
2976.6279637218958669
 20
89.383469423763529
 30
0.0
 11
2976.6279637218958669
 21
74.9372978117149131
 31
0.0
  0
ARC
  5
5D74
  8
0
 10
2978.2714758153160801
 20
75.00294408810025
 30
0.0
 40
1.644822615002574
 50
182.2873310442687114
 51
267.7253607458167721
  0
LINE
  5
5D75
  8
0
 10
2978.2061936006962242
 20
73.3594174934635248
 30
0.0
 11
3005.546921978294904
 21
73.3594174934635248
 31
0.0
  0
ARC
  5
5D76
  8
0
 10
2978.6261334799769429
 20
75.5874473270870055
 30
0.0
 40
1.0791004918738309
 50
184.2296515331420892
 51
265.8636588854450906
  0
LINE
  5
5D77
  8
0
 10
2977.5499719812360127
 20
75.507859010166726
 30
0.0
 11
2977.5499719812360127
 21
89.0409621360231256
 31
0.0
  0
ARC
  5
5D78
  8
0
 10
2978.6149441133061373
 20
88.9739158528131924
 30
0.0
 40
1.0670805246927031
 50
93.5310818032514533
 51
176.3976466351446959
  0
LINE
  5
5D79
  8
0
 10
2978.5492226253959416
 20
90.0389705613635414
 30
0.0
 11
3005.2038929535951866
 21
90.0389705613635556
 31
0.0
  0
LINE
  5
5D7A
  8
0
 10
2978.5482978764948712
 20
74.5111576400635442
 30
0.0
 11
3005.2048177024948927
 21
74.5111576400635442
 31
0.0
  0
LINE
  5
5D7B
  8
0
 10
3008.8765577894960188
 20
73.2077775443635232
 30
0.0
 11
3008.8765577894960188
 21
89.8950058624635346
 31
0.0
  0
LINE
  5
5D7C
  8
0
 10
3008.936329470194778
 20
73.1480058618635383
 30
0.0
 11
3009.7265577981961542
 21
73.1480058624635348
 31
0.0
  0
ARC
  5
5D7D
  8
0
 10
3006.199489898261163
 20
89.770937971228733
 30
0.0
 40
2.679941293371126
 50
2.6534567092445611
 51
87.3465432907673858
  0
ARC
  5
5D7E
  8
0
 10
3009.1770215466090121
 20
71.5667024911777929
 30
0.0
 40
0.2945475796122201
 50
274.3562898043232963
 51
332.2578329654626259
  0
ARC
  5
5D7F
  8
0
 10
3003.8339166427549571
 20
73.2550118930782048
 30
0.0
 40
5.893612650775748
 50
341.9571348040826138
 51
358.9596651159176872
  0
ARC
  5
5D80
  8
0
 10
3009.6555838551421402
 20
73.0786432762634917
 30
0.0
 40
0.0697037361068345
 50
4.6645137904964447
 51
84.3290012636242778
  0
ARC
  5
5D81
  8
0
 10
3008.9362358254961691
 20
73.2076838984640261
 30
0.0
 40
0.0596781094743292
 50
179.9100923756340933
 51
270.0899076237593022
  0
ARC
  5
5D82
  8
0
 10
3005.4031746365708386
 20
89.239661833147224
 30
0.0
 40
1.727971692802198
 50
4.7738682217834922
 51
85.2248335010549454
  0
LINE
  5
5D83
  8
0
 10
3007.1251518570961707
 20
89.383469423763529
 30
0.0
 11
3007.1251518570961707
 21
74.9372978117149131
 31
0.0
  0
ARC
  5
5D84
  8
0
 10
3005.4816397636741385
 20
75.00294408810025
 30
0.0
 40
1.644822615002574
 50
272.2746392541832279
 51
357.7126689557313171
  0
ARC
  5
5D85
  8
0
 10
3005.1269820990141852
 20
75.5874473270870055
 30
0.0
 40
1.0791004918738309
 50
274.1363411145549094
 51
355.770348466857115
  0
LINE
  5
5D86
  8
0
 10
3006.2031435977551155
 20
75.507859010166726
 30
0.0
 11
3006.2031435977551155
 21
89.0409621360231256
 31
0.0
  0
ARC
  5
5D87
  8
0
 10
3005.1381714656849908
 20
88.9739158528131924
 30
0.0
 40
1.0670805246927031
 50
3.6023533648553201
 51
86.4689181967485467
  0
CIRCLE
  5
5D88
  8
0
 10
3001.4965577894959097
 20
82.283505862463528
 30
0.0
 40
0.31
  0
CIRCLE
  5
5D89
  8
0
 10
3001.4965577894959097
 20
82.283505862463528
 30
0.0
 40
0.2760925586
  0
CIRCLE
  5
5D8A
  8
0
 10
3001.4965577894959097
 20
82.283505862463528
 30
0.0
 40
2.25
  0
CIRCLE
  5
5D8B
  8
0
 10
3001.4965577894959097
 20
82.283505862463528
 30
0.0
 40
1.6780895467000001
  0
ENDSEC
  0
EOF
