  0
SECTION
  2
HEADER
  9
$ACADVER
  1
AC1009
  9
$INSBASE
 10
2931.0241886968051404
 20
107.8993068493125946
 30
0.0
  9
$EXTMIN
 10
2913.174188688105005
 20
97.7593068493124804
 30
0.0
  9
$EXTMAX
 10
2948.874188705504821
 20
107.8993068493125946
 30
0.0
  9
$LIMMIN
 10
0.0
 20
0.0
  9
$LIMMAX
 10
11.6929133858000007
 20
8.2677165353999982
  9
$ORTHOMODE
 70
     1
  9
$REGENMODE
 70
     1
  9
$FILLMODE
 70
     1
  9
$QTEXTMODE
 70
     0
  9
$MIRRTEXT
 70
     0
  9
$DRAGMODE
 70
     2
  9
$LTSCALE
 40
0.6431102362
  9
$OSMODE
 70
  4095
  9
$ATTMODE
 70
     1
  9
$TEXTSIZE
 40
0.2
  9
$TRACEWID
 40
0.05
  9
$TEXTSTYLE
  7
STANDARD
  9
$CLAYER
  8
0
  9
$CELTYPE
  6
BYLAYER
  9
$CECOLOR
 62
   256
  9
$DIMSCALE
 40
1.0
  9
$DIMASZ
 40
0.1875
  9
$DIMEXO
 40
0.0625
  9
$DIMDLI
 40
0.4443307087
  9
$DIMRND
 40
0.0
  9
$DIMDLE
 40
0.0
  9
$DIMEXE
 40
0.125
  9
$DIMTP
 40
0.01
  9
$DIMTM
 40
0.01
  9
$DIMTXT
 40
2.0
  9
$DIMCEN
 40
0.1052362205
  9
$DIMTSZ
 40
0.0
  9
$DIMTOL
 70
     1
  9
$DIMLIM
 70
     0
  9
$DIMTIH
 70
     1
  9
$DIMTOH
 70
     1
  9
$DIMSE1
 70
     0
  9
$DIMSE2
 70
     0
  9
$DIMTAD
 70
     0
  9
$DIMZIN
 70
     0
  9
$DIMBLK
  1

  9
$DIMASO
 70
     1
  9
$DIMSHO
 70
     1
  9
$DIMPOST
  1
\X
  9
$DIMAPOST
  1

  9
$DIMALT
 70
     1
  9
$DIMALTD
 70
     2
  9
$DIMALTF
 40
25.3999999999999986
  9
$DIMLFAC
 40
1.0
  9
$DIMTOFL
 70
     0
  9
$DIMTVP
 40
0.0
  9
$DIMTIX
 70
     0
  9
$DIMSOXD
 70
     0
  9
$DIMSAH
 70
     0
  9
$DIMBLK1
  1

  9
$DIMBLK2
  1

  9
$DIMSTYLE
  2
STANDARD
  9
$DIMCLRD
 70
     0
  9
$DIMCLRE
 70
     0
  9
$DIMCLRT
 70
     0
  9
$DIMTFAC
 40
1.0
  9
$DIMGAP
 40
0.09
  9
$LUNITS
 70
     2
  9
$LUPREC
 70
     4
  9
$SKETCHINC
 40
0.1
  9
$FILLETRAD
 40
0.0
  9
$AUNITS
 70
     0
  9
$AUPREC
 70
     0
  9
$MENU
  1
.
  9
$ELEVATION
 40
0.0
  9
$PELEVATION
 40
0.0
  9
$THICKNESS
 40
0.0
  9
$LIMCHECK
 70
     0
  9
$BLIPMODE
 70
     0
  9
$CHAMFERA
 40
0.0
  9
$CHAMFERB
 40
0.0
  9
$SKPOLY
 70
     0
  9
$TDCREATE
 40
2458060.468368056230247
  9
$TDUPDATE
 40
2458778.6151504628360271
  9
$TDINDWG
 40
0.2809908565
  9
$TDUSRTIMER
 40
0.2809908565
  9
$USRTIMER
 70
     1
  9
$ANGBASE
 50
0.0
  9
$ANGDIR
 70
     0
  9
$PDMODE
 70
     0
  9
$PDSIZE
 40
0.3125
  9
$PLINEWID
 40
0.0
  9
$COORDS
 70
     1
  9
$SPLFRAME
 70
     0
  9
$SPLINETYPE
 70
     6
  9
$SPLINESEGS
 70
     8
  9
$ATTDIA
 70
     1
  9
$ATTREQ
 70
     1
  9
$HANDLING
 70
     1
  9
$HANDSEED
  5
5E09
  9
$SURFTAB1
 70
     6
  9
$SURFTAB2
 70
     6
  9
$SURFTYPE
 70
     6
  9
$SURFU
 70
     6
  9
$SURFV
 70
     6
  9
$UCSNAME
  2

  9
$UCSORG
 10
0.0
 20
0.0
 30
0.0
  9
$UCSXDIR
 10
1.0
 20
0.0
 30
0.0
  9
$UCSYDIR
 10
0.0
 20
1.0
 30
0.0
  9
$PUCSNAME
  2

  9
$PUCSORG
 10
0.0
 20
0.0
 30
0.0
  9
$PUCSXDIR
 10
1.0
 20
0.0
 30
0.0
  9
$PUCSYDIR
 10
0.0
 20
1.0
 30
0.0
  9
$USERI1
 70
     0
  9
$USERI2
 70
     0
  9
$USERI3
 70
     0
  9
$USERI4
 70
     0
  9
$USERI5
 70
     0
  9
$USERR1
 40
0.0
  9
$USERR2
 40
0.0
  9
$USERR3
 40
0.0
  9
$USERR4
 40
0.0
  9
$USERR5
 40
0.0
  9
$WORLDVIEW
 70
     1
  9
$SHADEDGE
 70
     3
  9
$SHADEDIF
 70
    70
  9
$TILEMODE
 70
     1
  9
$MAXACTVP
 70
    64
  9
$PLIMCHECK
 70
     0
  9
$PEXTMIN
 10
1.0000000000000000E+20
 20
1.0000000000000000E+20
 30
1.0000000000000000E+20
  9
$PEXTMAX
 10
-1.0000000000000000E+20
 20
-1.0000000000000000E+20
 30
-1.0000000000000000E+20
  9
$PLIMMIN
 10
0.0
 20
0.0
  9
$PLIMMAX
 10
12.0
 20
9.0
  9
$UNITMODE
 70
     0
  9
$VISRETAIN
 70
     1
  9
$PLINEGEN
 70
     0
  9
$PSLTSCALE
 70
     1
  0
ENDSEC
  0
SECTION
  2
TABLES
  0
TABLE
  2
VPORT
 70
     1
  0
VPORT
  2
*ACTIVE
 70
     0
 10
0.0
 20
0.0
 11
1.0
 21
1.0
 12
0.0
 22
0.0
 13
0.0
 23
0.0
 14
1.0
 24
1.0
 15
0.0
 25
0.0
 16
0.0
 26
0.0
 36
106.321231333617007
 17
2931.024169921875
 27
102.8293075561523011
 37
0.0
 40
37.1142459163815772
 41
2.1481900452488678
 42
50.0
 43
0.0
 44
0.0
 50
0.0
 51
0.0
 71
     0
 72
   100
 73
     1
 74
     1
 75
     0
 76
     0
 77
     0
 78
     0
  0
ENDTAB
  0
TABLE
  2
LTYPE
 70
     2
  0
LTYPE
  2
CONTINUOUS
 70
     0
  3
Solid line
 72
    65
 73
     0
 40
0.0
  0
LTYPE
  2
PHANTOM2
 70
     0
  3
___ _ _ ___ _ _ ___ _ _ ___ _ _
 72
    65
 73
     6
 40
1.25
 49
0.625
 49
-0.125
 49
0.125
 49
-0.125
 49
0.125
 49
-0.125
  0
ENDTAB
  0
TABLE
  2
LAYER
 70
     2
  0
LAYER
  2
0
 70
     0
 62
   255
  6
CONTINUOUS
  0
LAYER
  2
DEFPOINTS
 70
     0
 62
     7
  6
CONTINUOUS
  0
ENDTAB
  0
TABLE
  2
STYLE
 70
     1
  0
STYLE
  2
STANDARD
 70
     0
 40
0.0
 41
0.8
 50
0.0
 71
     0
 42
0.2
  3
txt
  4

  0
ENDTAB
  0
TABLE
  2
VIEW
 70
     0
  0
ENDTAB
  0
TABLE
  2
UCS
 70
     0
  0
ENDTAB
  0
TABLE
  2
APPID
 70
     9
  0
APPID
  2
ACAD
 70
     0
  0
APPID
  2
ACAD_MLEADERVER
 70
     0
  0
APPID
  2
ACAD_EXEMPT_FROM_CAD_STANDARDS
 70
     0
  0
APPID
  2
ACAD_NAV_VCDISPLAY
 70
     0
  0
APPID
  2
ACAECLAYERSTANDARD
 70
     0
  0
APPID
  2
ACCMTRANSPARENCY
 70
     0
  0
APPID
  2
ACAD_DSTYLE_DIMJAG
 70
     0
  0
APPID
  2
ACAD_DSTYLE_DIMTALN
 70
     0
  0
APPID
  2
ACDBATTR
 70
     0
  0
ENDTAB
  0
TABLE
  2
DIMSTYLE
 70
     1
  0
DIMSTYLE
  2
STANDARD
 70
     0
  3

  4

  5

  6

  7

 40
1.0
 41
0.1875
 42
0.0625
 43
0.38
 44
0.125
 45
0.0
 46
0.0
 47
0.01
 48
0.01
140
0.15625
141
0.09
142
0.0
143
25.3999999999999986
144
1.0
145
0.0
146
1.0
147
0.09
 71
     1
 72
     0
 73
     1
 74
     1
 75
     0
 76
     0
 77
     0
 78
     4
170
     0
171
     2
172
     0
173
     0
174
     0
175
     0
176
     0
177
     0
178
     0
  0
ENDTAB
  0
ENDSEC
  0
SECTION
  2
BLOCKS
  0
BLOCK
  8
0
  2
$MODEL_SPACE
 70
     0
 10
0.0
 20
0.0
 30
0.0
  3
$MODEL_SPACE
  1

  0
ENDBLK
  5
21
  8
0
  0
BLOCK
 67
     1
  8
0
  2
$PAPER_SPACE
 70
     0
 10
0.0
 20
0.0
 30
0.0
  3
$PAPER_SPACE
  1

  0
ENDBLK
  5
1D
 67
     1
  8
0
  0
ENDSEC
  0
SECTION
  2
ENTITIES
  0
ATTDEF
  5
3930
  8
DEFPOINTS
 10
2931.0187229498419583
 20
107.8974229141375929
 30
0.0
 40
0.001
  1
K-25788
  3

  2
MODELNUMBER
 70
     0
1001
ACDBATTR
1070
     0
1070
     1
  0
ATTDEF
  5
3931
  8
DEFPOINTS
 10
2931.0187229498419583
 20
107.8957562474708993
 30
0.0
 40
0.001
  1
CAIRN
  3

  2
TRADENAME
 70
     0
1001
ACDBATTR
1070
     0
1070
     1
  0
ATTDEF
  5
3932
  8
DEFPOINTS
 10
2931.0187229498419583
 20
107.8940895808043052
 30
0.0
 40
0.001
  1
KITCHEN SINK
  3

  2
PRODUCT
 70
     0
1001
ACDBATTR
1070
     0
1070
     1
  0
LINE
  5
5A45
  8
0
 10
2913.4630374896050853
 20
99.0993068493126259
 30
0.0
 11
2913.4630374896050853
 21
107.3693068493125935
 31
0.0
  0
LINE
  5
5A46
  8
0
 10
2913.6412285895048626
 20
107.3693068481126005
 30
0.0
 11
2913.6412285895048626
 21
99.0993068493126259
 31
0.0
  0
LINE
  5
5A47
  8
0
 10
2913.9279906647047937
 20
99.0993068493126259
 30
0.0
 11
2913.9279906647047937
 21
107.3693068493125935
 31
0.0
  0
LINE
  5
5A48
  8
0
 10
2913.9893867289051741
 20
107.3693068493125935
 30
0.0
 11
2913.9893867289051741
 21
99.0993068493126259
 31
0.0
  0
LINE
  5
5A49
  8
0
 10
2914.2949906647049829
 20
99.0993068493126259
 30
0.0
 11
2914.2949906647049829
 21
107.2321282477125948
 31
0.0
  0
LINE
  5
5A4A
  8
0
 10
2914.3563867289049085
 20
107.2321282477125948
 30
0.0
 11
2914.3563867289049085
 21
99.0993068493126259
 31
0.0
  0
LINE
  5
5A4B
  8
0
 10
2914.6619906647051721
 20
99.0993068493126259
 30
0.0
 11
2914.6619906647051721
 21
107.2321282477125948
 31
0.0
  0
LINE
  5
5A4C
  8
0
 10
2914.7233867289050977
 20
107.2321282477125948
 30
0.0
 11
2914.7233867289050977
 21
99.0993068493126259
 31
0.0
  0
ARC
  5
5A4D
  8
0
 10
2914.1421886968050785
 20
98.8911153178991356
 30
0.0
 40
0.2582482432591002
 50
53.7232296974303409
 51
126.2767703025696022
  0
LINE
  5
5A4E
  8
0
 10
2913.174188688105005
 20
99.3486928512126894
 30
0.0
 11
2913.174188688105005
 21
107.3693237620125984
 31
0.0
  0
LINE
  5
5A4F
  8
0
 10
2913.174188688105005
 20
107.3993068493125946
 30
0.0
 11
2913.1967935476050116
 21
107.7097746402126006
 31
0.0
  0
LINE
  5
5A50
  8
0
 10
2914.0205974805048754
 20
107.3693068493125935
 30
0.0
 11
2914.0205974805048754
 21
107.2921282426126055
 31
0.0
  0
LINE
  5
5A51
  8
0
 10
2917.3162381376050689
 20
97.8725953227126411
 30
0.0
 11
2916.9729679342049167
 21
98.6087406494126242
 31
0.0
  0
LINE
  5
5A52
  8
0
 10
2918.6608007662048294
 20
98.3849353175126282
 30
0.0
 11
2918.4218927030051418
 21
97.8725953227126411
 31
0.0
  0
LINE
  5
5A53
  8
0
 10
2944.7434698259048673
 20
97.9092921761126149
 30
0.0
 11
2944.7065512549052073
 21
97.9080029512126231
 31
0.0
  0
LINE
  5
5A54
  8
0
 10
2917.4940654198048833
 20
97.7593068493126225
 30
0.0
 11
2918.2440654208048727
 21
97.7593068493126225
 31
0.0
  0
LINE
  5
5A55
  8
0
 10
2938.1952344784049274
 20
97.7593068493126225
 30
0.0
 11
2943.0931429152051351
 21
97.7593068493126225
 31
0.0
  0
LINE
  5
5A56
  8
0
 10
2943.7613201666040368
 20
97.7593068493126225
 30
0.0
 11
2944.5113201675048913
 21
97.7593068493126225
 31
0.0
  0
LINE
  5
5A57
  8
0
 10
2937.6379752006050694
 20
97.8711214132126202
 30
0.0
 11
2943.5832099970048148
 21
97.8711214132126202
 31
0.0
  0
LINE
  5
5A58
  8
0
 10
2918.8037413969050249
 20
98.5288273504126266
 30
0.0
 11
2937.6379752006050694
 21
97.8711214132126202
 31
0.0
  0
LINE
  5
5A59
  8
0
 10
2913.4240780989048289
 20
99.0993068493126259
 30
0.0
 11
2913.6412285895048626
 21
99.0993068493126259
 31
0.0
  0
LINE
  5
5A5A
  8
0
 10
2913.9279906647047937
 20
99.0993068493126259
 30
0.0
 11
2913.9893867289051741
 21
99.0993068493126259
 31
0.0
  0
LINE
  5
5A5B
  8
0
 10
2914.2949906647049829
 20
99.0993068493126259
 30
0.0
 11
2914.3563867289049085
 21
99.0993068493126259
 31
0.0
  0
LINE
  5
5A5C
  8
0
 10
2914.6619906647051721
 20
99.0993068493126259
 30
0.0
 11
2914.7233867289050977
 21
99.0993068493126259
 31
0.0
  0
LINE
  5
5A5D
  8
0
 10
2915.0289906647049065
 20
99.0993068493126259
 30
0.0
 11
2915.0903867289048321
 21
99.0993068493126259
 31
0.0
  0
LINE
  5
5A5E
  8
0
 10
2915.3959906647050957
 20
99.0993068493126259
 30
0.0
 11
2915.4573867289050213
 21
99.0993068493126259
 31
0.0
  0
LINE
  5
5A5F
  8
0
 10
2915.7629906647048301
 20
99.0993068493126259
 30
0.0
 11
2915.8243867289052105
 21
99.0993068493126259
 31
0.0
  0
LINE
  5
5A60
  8
0
 10
2916.1299906647050193
 20
99.0993068493126259
 30
0.0
 11
2916.1913867289049449
 21
99.0993068493126259
 31
0.0
  0
LINE
  5
5A61
  8
0
 10
2916.4969906647052085
 20
99.0993068493126259
 30
0.0
 11
2916.5583867289051341
 21
99.0993068493126259
 31
0.0
  0
LINE
  5
5A62
  8
0
 10
2916.8639906647049429
 20
99.0993068493126259
 30
0.0
 11
2916.9253867289048685
 21
99.0993068493126259
 31
0.0
  0
LINE
  5
5A63
  8
0
 10
2917.2309906647051321
 20
99.0993068493126259
 30
0.0
 11
2917.2923867289050577
 21
99.0993068493126259
 31
0.0
  0
LINE
  5
5A64
  8
0
 10
2917.5979906647048665
 20
99.0993068493126259
 30
0.0
 11
2917.6593867289047921
 21
99.0993068493126259
 31
0.0
  0
LINE
  5
5A65
  8
0
 10
2917.9649906647050557
 20
99.0993068493126259
 30
0.0
 11
2918.0263867289049813
 21
99.0993068493126259
 31
0.0
  0
LINE
  5
5A66
  8
0
 10
2918.3319906647047901
 20
99.0993068493126259
 30
0.0
 11
2918.3933867289051705
 21
99.0993068493126259
 31
0.0
  0
LINE
  5
5A67
  8
0
 10
2918.6989906647049793
 20
99.0993068493126259
 30
0.0
 11
2918.7603867289049049
 21
99.0993068493126259
 31
0.0
  0
LINE
  5
5A68
  8
0
 10
2919.0659906647051685
 20
99.0993068493126259
 30
0.0
 11
2919.1273867289050941
 21
99.0993068493126259
 31
0.0
  0
LINE
  5
5A69
  8
0
 10
2919.4329906647049029
 20
99.0993068493126259
 30
0.0
 11
2919.4943867289048285
 21
99.0993068493126259
 31
0.0
  0
LINE
  5
5A6A
  8
0
 10
2919.7999906647050921
 20
99.0993068493126259
 30
0.0
 11
2919.8613867289050177
 21
99.0993068493126259
 31
0.0
  0
LINE
  5
5A6B
  8
0
 10
2920.1669906647048265
 20
99.0993068493126259
 30
0.0
 11
2920.2283867289052068
 21
99.0993068493126259
 31
0.0
  0
LINE
  5
5A6C
  8
0
 10
2920.5339906647050157
 20
99.0993068493126259
 30
0.0
 11
2920.5953867289049413
 21
99.0993068493126259
 31
0.0
  0
LINE
  5
5A6D
  8
0
 10
2920.9009906647052048
 20
99.0993068493126259
 30
0.0
 11
2920.9623867289051304
 21
99.0993068493126259
 31
0.0
  0
LINE
  5
5A6E
  8
0
 10
2921.2679906647049393
 20
99.0993068493126259
 30
0.0
 11
2921.3293867289048649
 21
99.0993068493126259
 31
0.0
  0
LINE
  5
5A6F
  8
0
 10
2921.6349906647051284
 20
99.0993068493126259
 30
0.0
 11
2921.696386728905054
 21
99.0993068493126259
 31
0.0
  0
LINE
  5
5A70
  8
0
 10
2922.0019906647048629
 20
99.0993068493126259
 30
0.0
 11
2922.0633867289047885
 21
99.0993068493126259
 31
0.0
  0
LINE
  5
5A71
  8
0
 10
2922.3689906647041425
 20
99.0993068493126259
 30
0.0
 11
2922.4303867289049776
 21
99.0993068493126259
 31
0.0
  0
LINE
  5
5A72
  8
0
 10
2922.7359906647047865
 20
99.0993068493126259
 30
0.0
 11
2922.7973867289051668
 21
99.0993068493126259
 31
0.0
  0
LINE
  5
5A73
  8
0
 10
2923.1029906647049756
 20
99.0993068493126259
 30
0.0
 11
2923.1643867289049012
 21
99.0993068493126259
 31
0.0
  0
LINE
  5
5A74
  8
0
 10
2923.4699906647051648
 20
99.0993068493126259
 30
0.0
 11
2923.5313867289050904
 21
99.0993068493126259
 31
0.0
  0
LINE
  5
5A75
  8
0
 10
2923.8369906647048992
 20
99.0993068493126259
 30
0.0
 11
2923.8983867289048248
 21
99.0993068493126259
 31
0.0
  0
LINE
  5
5A76
  8
0
 10
2924.2039906647050884
 20
99.0993068493126259
 30
0.0
 11
2924.265386728905014
 21
99.0993068493126259
 31
0.0
  0
LINE
  5
5A77
  8
0
 10
2924.5709906647048228
 20
99.0993068493126259
 30
0.0
 11
2924.6323867289052032
 21
99.0993068493126259
 31
0.0
  0
LINE
  5
5A78
  8
0
 10
2924.937990664705012
 20
99.0993068493126259
 30
0.0
 11
2924.9993867289049376
 21
99.0993068493126259
 31
0.0
  0
LINE
  5
5A79
  8
0
 10
2925.3049906647052012
 20
99.0993068493126259
 30
0.0
 11
2925.3663867289051268
 21
99.0993068493126259
 31
0.0
  0
LINE
  5
5A7A
  8
0
 10
2925.6719906647049356
 20
99.0993068493126259
 30
0.0
 11
2925.7333867289048612
 21
99.0993068493126259
 31
0.0
  0
LINE
  5
5A7B
  8
0
 10
2926.0389906647051248
 20
99.0993068493126259
 30
0.0
 11
2926.1003867289050504
 21
99.0993068493126259
 31
0.0
  0
LINE
  5
5A7C
  8
0
 10
2926.4059906647048592
 20
99.0993068493126259
 30
0.0
 11
2926.4673867289047848
 21
99.0993068493126259
 31
0.0
  0
LINE
  5
5A7D
  8
0
 10
2926.7729906647050484
 20
99.0993068493126259
 30
0.0
 11
2926.834386728904974
 21
99.0993068493126259
 31
0.0
  0
LINE
  5
5A7E
  8
0
 10
2927.1399906647047828
 20
99.0993068493126259
 30
0.0
 11
2927.2013867289051632
 21
99.0993068493126259
 31
0.0
  0
LINE
  5
5A7F
  8
0
 10
2927.506990664704972
 20
99.0993068493126259
 30
0.0
 11
2927.5683867289048976
 21
99.0993068493126259
 31
0.0
  0
LINE
  5
5A80
  8
0
 10
2927.8739906647051612
 20
99.0993068493126259
 30
0.0
 11
2927.9353867289041773
 21
99.0993068493126259
 31
0.0
  0
LINE
  5
5A81
  8
0
 10
2928.2409906647048956
 20
99.0993068493126259
 30
0.0
 11
2928.3023867289048212
 21
99.0993068493126259
 31
0.0
  0
LINE
  5
5A82
  8
0
 10
2928.6079906647050848
 20
99.0993068493126259
 30
0.0
 11
2928.6693867289050104
 21
99.0993068493126259
 31
0.0
  0
LINE
  5
5A83
  8
0
 10
2928.9749906647048192
 20
99.0993068493126259
 30
0.0
 11
2929.0363867289051996
 21
99.0993068493126259
 31
0.0
  0
LINE
  5
5A84
  8
0
 10
2929.3419906647050084
 20
99.0993068493126259
 30
0.0
 11
2929.403386728904934
 21
99.0993068493126259
 31
0.0
  0
LINE
  5
5A85
  8
0
 10
2929.7089906647051976
 20
99.0993068493126259
 30
0.0
 11
2929.7703867289051232
 21
99.0993068493126259
 31
0.0
  0
LINE
  5
5A86
  8
0
 10
2930.075990664704932
 20
99.0993068493126259
 30
0.0
 11
2930.1373867289048576
 21
99.0993068493126259
 31
0.0
  0
LINE
  5
5A87
  8
0
 10
2930.4429906647051212
 20
99.0993068493126259
 30
0.0
 11
2930.5043867289050468
 21
99.0993068493126259
 31
0.0
  0
LINE
  5
5A88
  8
0
 10
2930.8099906647048556
 20
99.0993068493126259
 30
0.0
 11
2930.8713867289047812
 21
99.0993068493126259
 31
0.0
  0
LINE
  5
5A89
  8
0
 10
2914.0522598214051868
 20
107.2621236786125962
 30
0.0
 11
2947.9961175722060034
 21
107.2621236786125962
 31
0.0
  0
LINE
  5
5A8A
  8
0
 10
2913.174188688105005
 20
107.3993068493125946
 30
0.0
 11
2948.874188705504821
 21
107.3993068493125946
 31
0.0
  0
LINE
  5
5A8B
  8
0
 10
2948.6508726732049581
 20
107.8993068493125946
 30
0.0
 11
2913.3975047204048678
 21
107.8993068493125946
 31
0.0
  0
LINE
  5
5A8C
  8
0
 10
2944.6891474498052048
 20
97.8725953227126411
 30
0.0
 11
2944.706551254875194
 21
97.9080029512115857
 31
0.0
  0
LINE
  5
5A8D
  8
0
 10
2945.5530030578051992
 20
98.7048182675126213
 30
0.0
 11
2945.5744693836631996
 21
99.1144201654607713
 31
0.0
  0
ARC
  5
5A8E
  8
0
 10
2917.3466753556558615
 20
99.4538988106725981
 30
0.0
 40
0.8898278079291118
 50
203.4841293592230898
 51
242.8548074761330895
  0
ARC
  5
5A8F
  8
0
 10
2917.5113058597798954
 20
97.9825796156998052
 30
0.0
 40
0.2239374040191151
 50
209.4154429682218108
 51
265.584557031787881
  0
ARC
  5
5A90
  8
0
 10
2918.2282174613569623
 20
97.9803938590994505
 30
0.0
 40
0.2216542886006617
 50
274.1000631786661188
 51
330.8999368213405887
  0
ARC
  5
5A91
  8
0
 10
2937.5769060184879891
 20
96.1222296657868469
 30
0.0
 40
1.7499576535345249
 50
69.3083141390051338
 51
88.0001133279340735
  0
ARC
  5
5A92
  8
0
 10
2943.7112219225550689
 20
96.1230707392370221
 30
0.0
 40
1.7490826930826739
 50
94.1233371636358527
 51
110.6937765315430937
  0
ARC
  5
5A93
  8
0
 10
2943.7792099729199435
 20
97.9859645979285432
 30
0.0
 40
0.2273626620938885
 50
213.7292287587073929
 51
265.4870734395727823
  0
ARC
  5
5A94
  8
0
 10
2944.5005554716431106
 20
97.9724147337208393
 30
0.0
 40
0.2133795890489648
 50
272.891717715321704
 51
332.1082822846877889
  0
ARC
  5
5A95
  8
0
 10
2913.4187815818918352
 20
107.675734187915296
 30
0.0
 40
0.2245828126972063
 50
95.4363261518341375
 51
171.2819663039942952
  0
ARC
  5
5A96
  8
0
 10
2913.2090602114549256
 20
107.3677814631573995
 30
0.0
 40
0.0349056131086017
 50
115.4232802681895009
 51
177.4675708062889896
  0
ARC
  5
5A97
  8
0
 10
2913.4378795243251261
 20
99.3630260530860596
 30
0.0
 40
0.2640800972858964
 50
183.1113125398875923
 51
267.0042276803288246
  0
ARC
  5
5A98
  8
0
 10
2913.9887675243257945
 20
107.3674769629132015
 30
0.0
 40
0.0318825123633467
 50
3.2902807134247301
 51
86.7075351292012044
  0
ARC
  5
5A99
  8
0
 10
2914.0528287948741308
 20
107.2944322261129031
 30
0.0
 40
0.0323135570989654
 50
184.0887061089601957
 51
268.991090237835806
  0
ARC
  5
5A9A
  8
0
 10
2916.7017873871118354
 20
98.4811013775207584
 30
0.0
 40
0.299717655220344
 50
25.2054300539208889
 51
37.1453650160975926
  0
ARC
  5
5A9B
  8
0
 10
2944.6476876634119435
 20
98.8164173592925721
 30
0.0
 40
0.912167923471917
 50
276.0274527169844987
 51
352.9725472837791926
  0
ARC
  5
5A9C
  8
0
 10
2943.4386888861890839
 20
97.7757706573911065
 30
0.0
 40
0.1731419015879841
 50
29.0021551423831205
 51
33.4156480422282272
  0
ARC
  5
5A9D
  8
0
 10
2918.9858036247801465
 20
98.2050251270436974
 30
0.0
 40
0.3714761563228639
 50
119.347466587640497
 51
151.0326235741977996
  0
ARC
  5
5A9E
  8
0
 10
2914.3360089337929821
 20
107.2292585330369974
 30
0.0
 40
0.0411185318479527
 50
126.9387705613712996
 51
175.9980012865808874
  0
ARC
  5
5A9F
  8
0
 10
2914.3183445188451515
 20
107.2308723251226041
 30
0.0
 40
0.0380629358802231
 50
1.8908716812886279
 51
55.1894611677468276
  0
ARC
  5
5AA0
  8
0
 10
2914.7030089337931713
 20
107.2292585330369974
 30
0.0
 40
0.0411185318479527
 50
126.9387705613712996
 51
175.9980012865808874
  0
ARC
  5
5AA1
  8
0
 10
2914.6853445188439764
 20
107.2308723251226041
 30
0.0
 40
0.0380629358802231
 50
1.8908716812886279
 51
55.1894611677468276
  0
LINE
  5
5AA2
  8
0
 10
2915.0289906647049065
 20
99.0993068493126259
 30
0.0
 11
2915.0289906647049065
 21
107.2321282477125948
 31
0.0
  0
LINE
  5
5AA3
  8
0
 10
2915.0903867289048321
 20
107.2321282477125948
 30
0.0
 11
2915.0903867289048321
 21
99.0993068493126259
 31
0.0
  0
LINE
  5
5AA4
  8
0
 10
2915.3959906647050957
 20
99.0993068493126259
 30
0.0
 11
2915.3959906647050957
 21
107.2321282477125948
 31
0.0
  0
LINE
  5
5AA5
  8
0
 10
2915.4573867289050213
 20
107.2321282477125948
 30
0.0
 11
2915.4573867289050213
 21
99.0993068493126259
 31
0.0
  0
ARC
  5
5AA6
  8
0
 10
2915.2431886968051913
 20
98.8911153178991356
 30
0.0
 40
0.2582482432591002
 50
53.7232296974303409
 51
126.2767703025696022
  0
ARC
  5
5AA7
  8
0
 10
2915.0700089337938152
 20
107.2292585330369974
 30
0.0
 40
0.0411185318479527
 50
126.9387705613712996
 51
175.9980012865808874
  0
ARC
  5
5AA8
  8
0
 10
2915.0523445188450751
 20
107.2308723251226041
 30
0.0
 40
0.0380629358802231
 50
1.8908716812886279
 51
55.1894611677468276
  0
ARC
  5
5AA9
  8
0
 10
2915.4370089337930949
 20
107.2292585330369974
 30
0.0
 40
0.0411185318479527
 50
126.9387705613712996
 51
175.9980012865808874
  0
ARC
  5
5AAA
  8
0
 10
2915.4193445188448095
 20
107.2308723251226041
 30
0.0
 40
0.0380629358802231
 50
1.8908716812886279
 51
55.1894611677468276
  0
LINE
  5
5AAB
  8
0
 10
2915.7629906647048301
 20
99.0993068493126259
 30
0.0
 11
2915.7629906647048301
 21
107.2321282477125948
 31
0.0
  0
LINE
  5
5AAC
  8
0
 10
2915.8243867289052105
 20
107.2321282477125948
 30
0.0
 11
2915.8243867289052105
 21
99.0993068493126259
 31
0.0
  0
LINE
  5
5AAD
  8
0
 10
2916.1299906647050193
 20
99.0993068493126259
 30
0.0
 11
2916.1299906647050193
 21
107.2321282477125948
 31
0.0
  0
LINE
  5
5AAE
  8
0
 10
2916.1913867289049449
 20
107.2321282477125948
 30
0.0
 11
2916.1913867289049449
 21
99.0993068493126259
 31
0.0
  0
ARC
  5
5AAF
  8
0
 10
2915.9771886968051149
 20
98.8911153178991356
 30
0.0
 40
0.2582482432591002
 50
53.7232296974303409
 51
126.2767703025696022
  0
ARC
  5
5AB0
  8
0
 10
2915.8040089337941936
 20
107.2292585330369974
 30
0.0
 40
0.0411185318479527
 50
126.9387705613712996
 51
175.9980012865808874
  0
ARC
  5
5AB1
  8
0
 10
2915.7863445188449987
 20
107.2308723251226041
 30
0.0
 40
0.0380629358802231
 50
1.8908716812886279
 51
55.1894611677468276
  0
ARC
  5
5AB2
  8
0
 10
2916.1710089337930185
 20
107.2292585330369974
 30
0.0
 40
0.0411185318479527
 50
126.9387705613712996
 51
175.9980012865808874
  0
ARC
  5
5AB3
  8
0
 10
2916.1533445188451878
 20
107.2308723251226041
 30
0.0
 40
0.0380629358802231
 50
1.8908716812886279
 51
55.1894611677468276
  0
LINE
  5
5AB4
  8
0
 10
2916.4969906647052085
 20
99.0993068493126259
 30
0.0
 11
2916.4969906647052085
 21
107.2321282477125948
 31
0.0
  0
LINE
  5
5AB5
  8
0
 10
2916.5583867289051341
 20
107.2321282477125948
 30
0.0
 11
2916.5583867289051341
 21
99.0993068493126259
 31
0.0
  0
LINE
  5
5AB6
  8
0
 10
2916.8639906647049429
 20
99.0993068493126259
 30
0.0
 11
2916.8639906647049429
 21
107.2321282477125948
 31
0.0
  0
LINE
  5
5AB7
  8
0
 10
2916.9253867289048685
 20
107.2321282477125948
 30
0.0
 11
2916.9253867289048685
 21
99.0993068493126259
 31
0.0
  0
ARC
  5
5AB8
  8
0
 10
2916.7111886968050385
 20
98.8911153178991356
 30
0.0
 40
0.2582482432591002
 50
53.7232296974303409
 51
126.2767703025696022
  0
ARC
  5
5AB9
  8
0
 10
2916.5380089337932077
 20
107.2292585330369974
 30
0.0
 40
0.0411185318479527
 50
126.9387705613712996
 51
175.9980012865808874
  0
ARC
  5
5ABA
  8
0
 10
2916.5203445188449223
 20
107.2308723251226041
 30
0.0
 40
0.0380629358802231
 50
1.8908716812886279
 51
55.1894611677468276
  0
ARC
  5
5ABB
  8
0
 10
2916.9050089337938516
 20
107.2292585330369974
 30
0.0
 40
0.0411185318479527
 50
126.9387705613712996
 51
175.9980012865808874
  0
ARC
  5
5ABC
  8
0
 10
2916.887344518844202
 20
107.2308723251226041
 30
0.0
 40
0.0380629358802231
 50
1.8908716812886279
 51
55.1894611677468276
  0
LINE
  5
5ABD
  8
0
 10
2917.2309906647051321
 20
99.0993068493126259
 30
0.0
 11
2917.2309906647051321
 21
107.2321282477125948
 31
0.0
  0
LINE
  5
5ABE
  8
0
 10
2917.2923867289050577
 20
107.2321282477125948
 30
0.0
 11
2917.2923867289050577
 21
99.0993068493126259
 31
0.0
  0
LINE
  5
5ABF
  8
0
 10
2917.5979906647048665
 20
99.0993068493126259
 30
0.0
 11
2917.5979906647048665
 21
107.2321282477125948
 31
0.0
  0
LINE
  5
5AC0
  8
0
 10
2917.6593867289047921
 20
107.2321282477125948
 30
0.0
 11
2917.6593867289047921
 21
99.0993068493126259
 31
0.0
  0
ARC
  5
5AC1
  8
0
 10
2917.4451886968049621
 20
98.8911153178991356
 30
0.0
 40
0.2582482432591002
 50
53.7232296974303409
 51
126.2767703025696022
  0
ARC
  5
5AC2
  8
0
 10
2917.2720089337931313
 20
107.2292585330369974
 30
0.0
 40
0.0411185318479527
 50
126.9387705613712996
 51
175.9980012865808874
  0
ARC
  5
5AC3
  8
0
 10
2917.2543445188448459
 20
107.2308723251226041
 30
0.0
 40
0.0380629358802231
 50
1.8908716812886279
 51
55.1894611677468276
  0
ARC
  5
5AC4
  8
0
 10
2917.6390089337928657
 20
107.2292585330369974
 30
0.0
 40
0.0411185318479527
 50
126.9387705613712996
 51
175.9980012865808874
  0
ARC
  5
5AC5
  8
0
 10
2917.6213445188450351
 20
107.2308723251226041
 30
0.0
 40
0.0380629358802231
 50
1.8908716812886279
 51
55.1894611677468276
  0
LINE
  5
5AC6
  8
0
 10
2917.9649906647050557
 20
99.0993068493126259
 30
0.0
 11
2917.9649906647050557
 21
107.2321282477125948
 31
0.0
  0
LINE
  5
5AC7
  8
0
 10
2918.0263867289049813
 20
107.2321282477125948
 30
0.0
 11
2918.0263867289049813
 21
99.0993068493126259
 31
0.0
  0
LINE
  5
5AC8
  8
0
 10
2918.3319906647047901
 20
99.0993068493126259
 30
0.0
 11
2918.3319906647047901
 21
107.2321282477125948
 31
0.0
  0
LINE
  5
5AC9
  8
0
 10
2918.3933867289051705
 20
107.2321282477125948
 30
0.0
 11
2918.3933867289051705
 21
99.0993068493126259
 31
0.0
  0
ARC
  5
5ACA
  8
0
 10
2918.1791886968048857
 20
98.8911153178991356
 30
0.0
 40
0.2582482432591002
 50
53.7232296974303409
 51
126.2767703025696022
  0
ARC
  5
5ACB
  8
0
 10
2918.0060089337930549
 20
107.2292585330369974
 30
0.0
 40
0.0411185318479527
 50
126.9387705613712996
 51
175.9980012865808874
  0
ARC
  5
5ACC
  8
0
 10
2917.9883445188452242
 20
107.2308723251226041
 30
0.0
 40
0.0380629358802231
 50
1.8908716812886279
 51
55.1894611677468276
  0
ARC
  5
5ACD
  8
0
 10
2918.3730089337927893
 20
107.2292585330369974
 30
0.0
 40
0.0411185318479527
 50
126.9387705613712996
 51
175.9980012865808874
  0
ARC
  5
5ACE
  8
0
 10
2918.3553445188449587
 20
107.2308723251226041
 30
0.0
 40
0.0380629358802231
 50
1.8908716812886279
 51
55.1894611677468276
  0
LINE
  5
5ACF
  8
0
 10
2918.6989906647049793
 20
99.0993068493126259
 30
0.0
 11
2918.6989906647049793
 21
107.2321282477125948
 31
0.0
  0
LINE
  5
5AD0
  8
0
 10
2918.7603867289049049
 20
107.2321282477125948
 30
0.0
 11
2918.7603867289049049
 21
99.0993068493126259
 31
0.0
  0
LINE
  5
5AD1
  8
0
 10
2919.0659906647051685
 20
99.0993068493126259
 30
0.0
 11
2919.0659906647051685
 21
107.2321282477125948
 31
0.0
  0
LINE
  5
5AD2
  8
0
 10
2919.1273867289050941
 20
107.2321282477125948
 30
0.0
 11
2919.1273867289050941
 21
99.0993068493126259
 31
0.0
  0
ARC
  5
5AD3
  8
0
 10
2918.9131886968048093
 20
98.8911153178991356
 30
0.0
 40
0.2582482432591002
 50
53.7232296974303409
 51
126.2767703025696022
  0
ARC
  5
5AD4
  8
0
 10
2918.740008933793888
 20
107.2292585330369974
 30
0.0
 40
0.0411185318479527
 50
126.9387705613712996
 51
175.9980012865808874
  0
ARC
  5
5AD5
  8
0
 10
2918.7223445188451478
 20
107.2308723251226041
 30
0.0
 40
0.0380629358802231
 50
1.8908716812886279
 51
55.1894611677468276
  0
ARC
  5
5AD6
  8
0
 10
2919.1070089337931677
 20
107.2292585330369974
 30
0.0
 40
0.0411185318479527
 50
126.9387705613712996
 51
175.9980012865808874
  0
ARC
  5
5AD7
  8
0
 10
2919.0893445188448823
 20
107.2308723251226041
 30
0.0
 40
0.0380629358802231
 50
1.8908716812886279
 51
55.1894611677468276
  0
LINE
  5
5AD8
  8
0
 10
2919.0659906647051685
 20
99.0993068493126259
 30
0.0
 11
2919.0659906647051685
 21
107.2321282477125948
 31
0.0
  0
LINE
  5
5AD9
  8
0
 10
2919.1273867289050941
 20
107.2321282477125948
 30
0.0
 11
2919.1273867289050941
 21
99.0993068493126259
 31
0.0
  0
LINE
  5
5ADA
  8
0
 10
2919.4329906647049029
 20
99.0993068493126259
 30
0.0
 11
2919.4329906647049029
 21
107.2321282477125948
 31
0.0
  0
LINE
  5
5ADB
  8
0
 10
2919.4943867289048285
 20
107.2321282477125948
 30
0.0
 11
2919.4943867289048285
 21
99.0993068493126259
 31
0.0
  0
ARC
  5
5ADC
  8
0
 10
2919.280188696804089
 20
98.8911153178991356
 30
0.0
 40
0.2582482432591002
 50
53.7232296974303409
 51
126.2767703025696022
  0
ARC
  5
5ADD
  8
0
 10
2919.1070089337931677
 20
107.2292585330369974
 30
0.0
 40
0.0411185318479527
 50
126.9387705613712996
 51
175.9980012865808874
  0
ARC
  5
5ADE
  8
0
 10
2919.0893445188448823
 20
107.2308723251226041
 30
0.0
 40
0.0380629358802231
 50
1.8908716812886279
 51
55.1894611677468276
  0
ARC
  5
5ADF
  8
0
 10
2919.4740089337929021
 20
107.2292585330369974
 30
0.0
 40
0.0411185318479527
 50
126.9387705613712996
 51
175.9980012865808874
  0
ARC
  5
5AE0
  8
0
 10
2919.4563445188450714
 20
107.2308723251226041
 30
0.0
 40
0.0380629358802231
 50
1.8908716812886279
 51
55.1894611677468276
  0
LINE
  5
5AE1
  8
0
 10
2919.7999906647050921
 20
99.0993068493126259
 30
0.0
 11
2919.7999906647050921
 21
107.2321282477125948
 31
0.0
  0
LINE
  5
5AE2
  8
0
 10
2919.8613867289050177
 20
107.2321282477125948
 30
0.0
 11
2919.8613867289050177
 21
99.0993068493126259
 31
0.0
  0
LINE
  5
5AE3
  8
0
 10
2920.1669906647048265
 20
99.0993068493126259
 30
0.0
 11
2920.1669906647048265
 21
107.2321282477125948
 31
0.0
  0
LINE
  5
5AE4
  8
0
 10
2920.2283867289052068
 20
107.2321282477125948
 30
0.0
 11
2920.2283867289052068
 21
99.0993068493126259
 31
0.0
  0
ARC
  5
5AE5
  8
0
 10
2920.0141886968049221
 20
98.8911153178991356
 30
0.0
 40
0.2582482432591002
 50
53.7232296974303409
 51
126.2767703025696022
  0
ARC
  5
5AE6
  8
0
 10
2919.8410089337930913
 20
107.2292585330369974
 30
0.0
 40
0.0411185318479527
 50
126.9387705613712996
 51
175.9980012865808874
  0
ARC
  5
5AE7
  8
0
 10
2919.8233445188438964
 20
107.2308723251226041
 30
0.0
 40
0.0380629358802231
 50
1.8908716812886279
 51
55.1894611677468276
  0
ARC
  5
5AE8
  8
0
 10
2920.2080089337928257
 20
107.2292585330369974
 30
0.0
 40
0.0411185318479527
 50
126.9387705613712996
 51
175.9980012865808874
  0
ARC
  5
5AE9
  8
0
 10
2920.190344518844995
 20
107.2308723251226041
 30
0.0
 40
0.0380629358802231
 50
1.8908716812886279
 51
55.1894611677468276
  0
LINE
  5
5AEA
  8
0
 10
2920.5339906647050157
 20
99.0993068493126259
 30
0.0
 11
2920.5339906647050157
 21
107.2321282477125948
 31
0.0
  0
LINE
  5
5AEB
  8
0
 10
2920.5953867289049413
 20
107.2321282477125948
 30
0.0
 11
2920.5953867289049413
 21
99.0993068493126259
 31
0.0
  0
LINE
  5
5AEC
  8
0
 10
2920.9009906647052048
 20
99.0993068493126259
 30
0.0
 11
2920.9009906647052048
 21
107.2321282477125948
 31
0.0
  0
LINE
  5
5AED
  8
0
 10
2920.9623867289051304
 20
107.2321282477125948
 30
0.0
 11
2920.9623867289051304
 21
99.0993068493126259
 31
0.0
  0
ARC
  5
5AEE
  8
0
 10
2920.7481886968048457
 20
98.8911153178991356
 30
0.0
 40
0.2582482432591002
 50
53.7232296974303409
 51
126.2767703025696022
  0
ARC
  5
5AEF
  8
0
 10
2920.5750089337930149
 20
107.2292585330369974
 30
0.0
 40
0.0411185318479527
 50
126.9387705613712996
 51
175.9980012865808874
  0
ARC
  5
5AF0
  8
0
 10
2920.55734451884382
 20
107.2308723251226041
 30
0.0
 40
0.0380629358802231
 50
1.8908716812886279
 51
55.1894611677468276
  0
ARC
  5
5AF1
  8
0
 10
2920.9420089337932041
 20
107.2292585330369974
 30
0.0
 40
0.0411185318479527
 50
126.9387705613712996
 51
175.9980012865808874
  0
ARC
  5
5AF2
  8
0
 10
2920.9243445188449186
 20
107.2308723251226041
 30
0.0
 40
0.0380629358802231
 50
1.8908716812886279
 51
55.1894611677468276
  0
LINE
  5
5AF3
  8
0
 10
2921.2679906647049393
 20
99.0993068493126259
 30
0.0
 11
2921.2679906647049393
 21
107.2321282477125948
 31
0.0
  0
LINE
  5
5AF4
  8
0
 10
2921.3293867289048649
 20
107.2321282477125948
 30
0.0
 11
2921.3293867289048649
 21
99.0993068493126259
 31
0.0
  0
LINE
  5
5AF5
  8
0
 10
2921.6349906647051284
 20
99.0993068493126259
 30
0.0
 11
2921.6349906647051284
 21
107.2321282477125948
 31
0.0
  0
LINE
  5
5AF6
  8
0
 10
2921.696386728905054
 20
107.2321282477125948
 30
0.0
 11
2921.696386728905054
 21
99.0993068493126259
 31
0.0
  0
ARC
  5
5AF7
  8
0
 10
2921.482188696805224
 20
98.8911153178991356
 30
0.0
 40
0.2582482432591002
 50
53.7232296974303409
 51
126.2767703025696022
  0
ARC
  5
5AF8
  8
0
 10
2921.309008933793848
 20
107.2292585330369974
 30
0.0
 40
0.0411185318479527
 50
126.9387705613712996
 51
175.9980012865808874
  0
ARC
  5
5AF9
  8
0
 10
2921.2913445188451078
 20
107.2308723251226041
 30
0.0
 40
0.0380629358802231
 50
1.8908716812886279
 51
55.1894611677468276
  0
ARC
  5
5AFA
  8
0
 10
2921.6760089337931277
 20
107.2292585330369974
 30
0.0
 40
0.0411185318479527
 50
126.9387705613712996
 51
175.9980012865808874
  0
ARC
  5
5AFB
  8
0
 10
2921.6583445188439327
 20
107.2308723251226041
 30
0.0
 40
0.0380629358802231
 50
1.8908716812886279
 51
55.1894611677468276
  0
LINE
  5
5AFC
  8
0
 10
2922.0019906647048629
 20
99.0993068493126259
 30
0.0
 11
2922.0019906647048629
 21
107.2321282477125948
 31
0.0
  0
LINE
  5
5AFD
  8
0
 10
2922.0633867289047885
 20
107.2321282477125948
 30
0.0
 11
2922.0633867289047885
 21
99.0993068493126259
 31
0.0
  0
LINE
  5
5AFE
  8
0
 10
2922.3689906647041425
 20
99.0993068493126259
 30
0.0
 11
2922.3689906647041425
 21
107.2321282477125948
 31
0.0
  0
LINE
  5
5AFF
  8
0
 10
2922.4303867289049776
 20
107.2321282477125948
 30
0.0
 11
2922.4303867289049776
 21
99.0993068493126259
 31
0.0
  0
ARC
  5
5B00
  8
0
 10
2922.2161886968051476
 20
98.8911153178991356
 30
0.0
 40
0.2582482432591002
 50
53.7232296974303409
 51
126.2767703025696022
  0
ARC
  5
5B01
  8
0
 10
2922.0430089337942263
 20
107.2292585330369974
 30
0.0
 40
0.0411185318479527
 50
126.9387705613712996
 51
175.9980012865808874
  0
ARC
  5
5B02
  8
0
 10
2922.0253445188450314
 20
107.2308723251226041
 30
0.0
 40
0.0380629358802231
 50
1.8908716812886279
 51
55.1894611677468276
  0
ARC
  5
5B03
  8
0
 10
2922.4100089337930513
 20
107.2292585330369974
 30
0.0
 40
0.0411185318479527
 50
126.9387705613712996
 51
175.9980012865808874
  0
ARC
  5
5B04
  8
0
 10
2922.3923445188438563
 20
107.2308723251226041
 30
0.0
 40
0.0380629358802231
 50
1.8908716812886279
 51
55.1894611677468276
  0
LINE
  5
5B05
  8
0
 10
2922.7359906647047865
 20
99.0993068493126259
 30
0.0
 11
2922.7359906647047865
 21
107.2321282477125948
 31
0.0
  0
LINE
  5
5B06
  8
0
 10
2922.7973867289051668
 20
107.2321282477125948
 30
0.0
 11
2922.7973867289051668
 21
99.0993068493126259
 31
0.0
  0
LINE
  5
5B07
  8
0
 10
2923.1029906647049756
 20
99.0993068493126259
 30
0.0
 11
2923.1029906647049756
 21
107.2321282477125948
 31
0.0
  0
LINE
  5
5B08
  8
0
 10
2923.1643867289049012
 20
107.2321282477125948
 30
0.0
 11
2923.1643867289049012
 21
99.0993068493126259
 31
0.0
  0
ARC
  5
5B09
  8
0
 10
2922.9501886968050712
 20
98.8911153178991356
 30
0.0
 40
0.2582482432591002
 50
53.7232296974303409
 51
126.2767703025696022
  0
ARC
  5
5B0A
  8
0
 10
2922.7770089337941499
 20
107.2292585330369974
 30
0.0
 40
0.0411185318479527
 50
126.9387705613712996
 51
175.9980012865808874
  0
ARC
  5
5B0B
  8
0
 10
2922.759344518844955
 20
107.2308723251226041
 30
0.0
 40
0.0380629358802231
 50
1.8908716812886279
 51
55.1894611677468276
  0
ARC
  5
5B0C
  8
0
 10
2923.1440089337929749
 20
107.2292585330369974
 30
0.0
 40
0.0411185318479527
 50
126.9387705613712996
 51
175.9980012865808874
  0
ARC
  5
5B0D
  8
0
 10
2923.1263445188451442
 20
107.2308723251226041
 30
0.0
 40
0.0380629358802231
 50
1.8908716812886279
 51
55.1894611677468276
  0
LINE
  5
5B0E
  8
0
 10
2923.4699906647051648
 20
99.0993068493126259
 30
0.0
 11
2923.4699906647051648
 21
107.2321282477125948
 31
0.0
  0
LINE
  5
5B0F
  8
0
 10
2923.5313867289050904
 20
107.2321282477125948
 30
0.0
 11
2923.5313867289050904
 21
99.0993068493126259
 31
0.0
  0
LINE
  5
5B10
  8
0
 10
2923.8369906647048992
 20
99.0993068493126259
 30
0.0
 11
2923.8369906647048992
 21
107.2321282477125948
 31
0.0
  0
LINE
  5
5B11
  8
0
 10
2923.8983867289048248
 20
107.2321282477125948
 30
0.0
 11
2923.8983867289048248
 21
99.0993068493126259
 31
0.0
  0
ARC
  5
5B12
  8
0
 10
2923.6841886968049948
 20
98.8911153178991356
 30
0.0
 40
0.2582482432591002
 50
53.7232296974303409
 51
126.2767703025696022
  0
ARC
  5
5B13
  8
0
 10
2923.5110089337940735
 20
107.2292585330369974
 30
0.0
 40
0.0411185318479527
 50
126.9387705613712996
 51
175.9980012865808874
  0
ARC
  5
5B14
  8
0
 10
2923.4933445188448786
 20
107.2308723251226041
 30
0.0
 40
0.0380629358802231
 50
1.8908716812886279
 51
55.1894611677468276
  0
ARC
  5
5B15
  8
0
 10
2923.8780089337928985
 20
107.2292585330369974
 30
0.0
 40
0.0411185318479527
 50
126.9387705613712996
 51
175.9980012865808874
  0
ARC
  5
5B16
  8
0
 10
2923.8603445188450678
 20
107.2308723251226041
 30
0.0
 40
0.0380629358802231
 50
1.8908716812886279
 51
55.1894611677468276
  0
LINE
  5
5B17
  8
0
 10
2924.2039906647050884
 20
99.0993068493126259
 30
0.0
 11
2924.2039906647050884
 21
107.2321282477125948
 31
0.0
  0
LINE
  5
5B18
  8
0
 10
2924.265386728905014
 20
107.2321282477125948
 30
0.0
 11
2924.265386728905014
 21
99.0993068493126259
 31
0.0
  0
LINE
  5
5B19
  8
0
 10
2924.5709906647048228
 20
99.0993068493126259
 30
0.0
 11
2924.5709906647048228
 21
107.2321282477125948
 31
0.0
  0
LINE
  5
5B1A
  8
0
 10
2924.6323867289052032
 20
107.2321282477125948
 30
0.0
 11
2924.6323867289052032
 21
99.0993068493126259
 31
0.0
  0
ARC
  5
5B1B
  8
0
 10
2924.4181886968049184
 20
98.8911153178991356
 30
0.0
 40
0.2582482432591002
 50
53.7232296974303409
 51
126.2767703025696022
  0
ARC
  5
5B1C
  8
0
 10
2924.2450089337930876
 20
107.2292585330369974
 30
0.0
 40
0.0411185318479527
 50
126.9387705613712996
 51
175.9980012865808874
  0
ARC
  5
5B1D
  8
0
 10
2924.2273445188448022
 20
107.2308723251226041
 30
0.0
 40
0.0380629358802231
 50
1.8908716812886279
 51
55.1894611677468276
  0
ARC
  5
5B1E
  8
0
 10
2924.6120089337928221
 20
107.2292585330369974
 30
0.0
 40
0.0411185318479527
 50
126.9387705613712996
 51
175.9980012865808874
  0
ARC
  5
5B1F
  8
0
 10
2924.5943445188440819
 20
107.2308723251226041
 30
0.0
 40
0.0380629358802231
 50
1.8908716812886279
 51
55.1894611677468276
  0
LINE
  5
5B20
  8
0
 10
2924.937990664705012
 20
99.0993068493126259
 30
0.0
 11
2924.937990664705012
 21
107.2321282477125948
 31
0.0
  0
LINE
  5
5B21
  8
0
 10
2924.9993867289049376
 20
107.2321282477125948
 30
0.0
 11
2924.9993867289049376
 21
99.0993068493126259
 31
0.0
  0
LINE
  5
5B22
  8
0
 10
2925.3049906647052012
 20
99.0993068493126259
 30
0.0
 11
2925.3049906647052012
 21
107.2321282477125948
 31
0.0
  0
LINE
  5
5B23
  8
0
 10
2925.3663867289051268
 20
107.2321282477125948
 30
0.0
 11
2925.3663867289051268
 21
99.0993068493126259
 31
0.0
  0
ARC
  5
5B24
  8
0
 10
2925.152188696804842
 20
98.8911153178991356
 30
0.0
 40
0.2582482432591002
 50
53.7232296974303409
 51
126.2767703025696022
  0
ARC
  5
5B25
  8
0
 10
2924.9790089337930112
 20
107.2292585330369974
 30
0.0
 40
0.0411185318479527
 50
126.9387705613712996
 51
175.9980012865808874
  0
ARC
  5
5B26
  8
0
 10
2924.9613445188451806
 20
107.2308723251226041
 30
0.0
 40
0.0380629358802231
 50
1.8908716812886279
 51
55.1894611677468276
  0
ARC
  5
5B27
  8
0
 10
2925.3460089337932004
 20
107.2292585330369974
 30
0.0
 40
0.0411185318479527
 50
126.9387705613712996
 51
175.9980012865808874
  0
ARC
  5
5B28
  8
0
 10
2925.3283445188440055
 20
107.2308723251226041
 30
0.0
 40
0.0380629358802231
 50
1.8908716812886279
 51
55.1894611677468276
  0
LINE
  5
5B29
  8
0
 10
2925.6719906647049356
 20
99.0993068493126259
 30
0.0
 11
2925.6719906647049356
 21
107.2321282477125948
 31
0.0
  0
LINE
  5
5B2A
  8
0
 10
2925.7333867289048612
 20
107.2321282477125948
 30
0.0
 11
2925.7333867289048612
 21
99.0993068493126259
 31
0.0
  0
LINE
  5
5B2B
  8
0
 10
2926.0389906647051248
 20
99.0993068493126259
 30
0.0
 11
2926.0389906647051248
 21
107.2321282477125948
 31
0.0
  0
LINE
  5
5B2C
  8
0
 10
2926.1003867289050504
 20
107.2321282477125948
 30
0.0
 11
2926.1003867289050504
 21
99.0993068493126259
 31
0.0
  0
ARC
  5
5B2D
  8
0
 10
2925.8861886968052204
 20
98.8911153178991356
 30
0.0
 40
0.2582482432591002
 50
53.7232296974303409
 51
126.2767703025696022
  0
ARC
  5
5B2E
  8
0
 10
2925.7130089337938443
 20
107.2292585330369974
 30
0.0
 40
0.0411185318479527
 50
126.9387705613712996
 51
175.9980012865808874
  0
ARC
  5
5B2F
  8
0
 10
2925.6953445188451042
 20
107.2308723251226041
 30
0.0
 40
0.0380629358802231
 50
1.8908716812886279
 51
55.1894611677468276
  0
ARC
  5
5B30
  8
0
 10
2926.080008933793124
 20
107.2292585330369974
 30
0.0
 40
0.0411185318479527
 50
126.9387705613712996
 51
175.9980012865808874
  0
ARC
  5
5B31
  8
0
 10
2926.0623445188448386
 20
107.2308723251226041
 30
0.0
 40
0.0380629358802231
 50
1.8908716812886279
 51
55.1894611677468276
  0
LINE
  5
5B32
  8
0
 10
2926.4059906647048592
 20
99.0993068493126259
 30
0.0
 11
2926.4059906647048592
 21
107.2321282477125948
 31
0.0
  0
LINE
  5
5B33
  8
0
 10
2926.4673867289047848
 20
107.2321282477125948
 30
0.0
 11
2926.4673867289047848
 21
99.0993068493126259
 31
0.0
  0
LINE
  5
5B34
  8
0
 10
2926.7729906647050484
 20
99.0993068493126259
 30
0.0
 11
2926.7729906647050484
 21
107.2321282477125948
 31
0.0
  0
LINE
  5
5B35
  8
0
 10
2926.834386728904974
 20
107.2321282477125948
 30
0.0
 11
2926.834386728904974
 21
99.0993068493126259
 31
0.0
  0
ARC
  5
5B36
  8
0
 10
2926.620188696805144
 20
98.8911153178991356
 30
0.0
 40
0.2582482432591002
 50
53.7232296974303409
 51
126.2767703025696022
  0
ARC
  5
5B37
  8
0
 10
2926.4470089337942227
 20
107.2292585330369974
 30
0.0
 40
0.0411185318479527
 50
126.9387705613712996
 51
175.9980012865808874
  0
ARC
  5
5B38
  8
0
 10
2926.4293445188450278
 20
107.2308723251226041
 30
0.0
 40
0.0380629358802231
 50
1.8908716812886279
 51
55.1894611677468276
  0
ARC
  5
5B39
  8
0
 10
2926.8140089337930476
 20
107.2292585330369974
 30
0.0
 40
0.0411185318479527
 50
126.9387705613712996
 51
175.9980012865808874
  0
ARC
  5
5B3A
  8
0
 10
2926.7963445188438527
 20
107.2308723251226041
 30
0.0
 40
0.0380629358802231
 50
1.8908716812886279
 51
55.1894611677468276
  0
LINE
  5
5B3B
  8
0
 10
2927.1399906647047828
 20
99.0993068493126259
 30
0.0
 11
2927.1399906647047828
 21
107.2321282477125948
 31
0.0
  0
LINE
  5
5B3C
  8
0
 10
2927.2013867289051632
 20
107.2321282477125948
 30
0.0
 11
2927.2013867289051632
 21
99.0993068493126259
 31
0.0
  0
LINE
  5
5B3D
  8
0
 10
2927.506990664704972
 20
99.0993068493126259
 30
0.0
 11
2927.506990664704972
 21
107.2321282477125948
 31
0.0
  0
LINE
  5
5B3E
  8
0
 10
2927.5683867289048976
 20
107.2321282477125948
 30
0.0
 11
2927.5683867289048976
 21
99.0993068493126259
 31
0.0
  0
ARC
  5
5B3F
  8
0
 10
2927.3541886968050676
 20
98.8911153178991356
 30
0.0
 40
0.2582482432591002
 50
53.7232296974303409
 51
126.2767703025696022
  0
ARC
  5
5B40
  8
0
 10
2927.181008933792782
 20
107.2292585330369974
 30
0.0
 40
0.0411185318479527
 50
126.9387705613712996
 51
175.9980012865808874
  0
ARC
  5
5B41
  8
0
 10
2927.1633445188449514
 20
107.2308723251226041
 30
0.0
 40
0.0380629358802231
 50
1.8908716812886279
 51
55.1894611677468276
  0
ARC
  5
5B42
  8
0
 10
2927.5480089337938807
 20
107.2292585330369974
 30
0.0
 40
0.0411185318479527
 50
126.9387705613712996
 51
175.9980012865808874
  0
ARC
  5
5B43
  8
0
 10
2927.5303445188451406
 20
107.2308723251226041
 30
0.0
 40
0.0380629358802231
 50
1.8908716812886279
 51
55.1894611677468276
  0
LINE
  5
5B44
  8
0
 10
2927.8739906647051612
 20
99.0993068493126259
 30
0.0
 11
2927.8739906647051612
 21
107.2321282477125948
 31
0.0
  0
LINE
  5
5B45
  8
0
 10
2927.9353867289041773
 20
107.2321282477125948
 30
0.0
 11
2927.9353867289041773
 21
99.0993068493126259
 31
0.0
  0
LINE
  5
5B46
  8
0
 10
2928.2409906647048956
 20
99.0993068493126259
 30
0.0
 11
2928.2409906647048956
 21
107.2321282477125948
 31
0.0
  0
LINE
  5
5B47
  8
0
 10
2928.3023867289048212
 20
107.2321282477125948
 30
0.0
 11
2928.3023867289048212
 21
99.0993068493126259
 31
0.0
  0
ARC
  5
5B48
  8
0
 10
2928.0881886968049912
 20
98.8911153178991356
 30
0.0
 40
0.2582482432591002
 50
53.7232296974303409
 51
126.2767703025696022
  0
ARC
  5
5B49
  8
0
 10
2927.9150089337931604
 20
107.2292585330369974
 30
0.0
 40
0.0411185318479527
 50
126.9387705613712996
 51
175.9980012865808874
  0
ARC
  5
5B4A
  8
0
 10
2927.897344518844875
 20
107.2308723251226041
 30
0.0
 40
0.0380629358802231
 50
1.8908716812886279
 51
55.1894611677468276
  0
ARC
  5
5B4B
  8
0
 10
2928.2820089337928948
 20
107.2292585330369974
 30
0.0
 40
0.0411185318479527
 50
126.9387705613712996
 51
175.9980012865808874
  0
ARC
  5
5B4C
  8
0
 10
2928.2643445188450642
 20
107.2308723251226041
 30
0.0
 40
0.0380629358802231
 50
1.8908716812886279
 51
55.1894611677468276
  0
LINE
  5
5B4D
  8
0
 10
2928.6079906647050848
 20
99.0993068493126259
 30
0.0
 11
2928.6079906647050848
 21
107.2321282477125948
 31
0.0
  0
LINE
  5
5B4E
  8
0
 10
2928.6693867289050104
 20
107.2321282477125948
 30
0.0
 11
2928.6693867289050104
 21
99.0993068493126259
 31
0.0
  0
LINE
  5
5B4F
  8
0
 10
2928.9749906647048192
 20
99.0993068493126259
 30
0.0
 11
2928.9749906647048192
 21
107.2321282477125948
 31
0.0
  0
LINE
  5
5B50
  8
0
 10
2929.0363867289051996
 20
107.2321282477125948
 30
0.0
 11
2929.0363867289051996
 21
99.0993068493126259
 31
0.0
  0
ARC
  5
5B51
  8
0
 10
2928.8221886968049148
 20
98.8911153178991356
 30
0.0
 40
0.2582482432591002
 50
53.7232296974303409
 51
126.2767703025696022
  0
ARC
  5
5B52
  8
0
 10
2928.649008933793084
 20
107.2292585330369974
 30
0.0
 40
0.0411185318479527
 50
126.9387705613712996
 51
175.9980012865808874
  0
ARC
  5
5B53
  8
0
 10
2928.6313445188447986
 20
107.2308723251226041
 30
0.0
 40
0.0380629358802231
 50
1.8908716812886279
 51
55.1894611677468276
  0
ARC
  5
5B54
  8
0
 10
2929.0160089337928184
 20
107.2292585330369974
 30
0.0
 40
0.0411185318479527
 50
126.9387705613712996
 51
175.9980012865808874
  0
ARC
  5
5B55
  8
0
 10
2928.9983445188449878
 20
107.2308723251226041
 30
0.0
 40
0.0380629358802231
 50
1.8908716812886279
 51
55.1894611677468276
  0
LINE
  5
5B56
  8
0
 10
2929.3419906647050084
 20
99.0993068493126259
 30
0.0
 11
2929.3419906647050084
 21
107.2321282477125948
 31
0.0
  0
LINE
  5
5B57
  8
0
 10
2929.403386728904934
 20
107.2321282477125948
 30
0.0
 11
2929.403386728904934
 21
99.0993068493126259
 31
0.0
  0
LINE
  5
5B58
  8
0
 10
2929.7089906647051976
 20
99.0993068493126259
 30
0.0
 11
2929.7089906647051976
 21
107.2321282477125948
 31
0.0
  0
LINE
  5
5B59
  8
0
 10
2929.7703867289051232
 20
107.2321282477125948
 30
0.0
 11
2929.7703867289051232
 21
99.0993068493126259
 31
0.0
  0
ARC
  5
5B5A
  8
0
 10
2929.5561886968048384
 20
98.8911153178991356
 30
0.0
 40
0.2582482432591002
 50
53.7232296974303409
 51
126.2767703025696022
  0
ARC
  5
5B5B
  8
0
 10
2929.3830089337930076
 20
107.2292585330369974
 30
0.0
 40
0.0411185318479527
 50
126.9387705613712996
 51
175.9980012865808874
  0
ARC
  5
5B5C
  8
0
 10
2929.3653445188451769
 20
107.2308723251226041
 30
0.0
 40
0.0380629358802231
 50
1.8908716812886279
 51
55.1894611677468276
  0
ARC
  5
5B5D
  8
0
 10
2929.7500089337941063
 20
107.2292585330369974
 30
0.0
 40
0.0411185318479527
 50
126.9387705613712996
 51
175.9980012865808874
  0
ARC
  5
5B5E
  8
0
 10
2929.7323445188449114
 20
107.2308723251226041
 30
0.0
 40
0.0380629358802231
 50
1.8908716812886279
 51
55.1894611677468276
  0
LINE
  5
5B5F
  8
0
 10
2930.075990664704932
 20
99.0993068493126259
 30
0.0
 11
2930.075990664704932
 21
107.2321282477125948
 31
0.0
  0
LINE
  5
5B60
  8
0
 10
2930.1373867289048576
 20
107.2321282477125948
 30
0.0
 11
2930.1373867289048576
 21
99.0993068493126259
 31
0.0
  0
LINE
  5
5B61
  8
0
 10
2930.4429906647051212
 20
99.0993068493126259
 30
0.0
 11
2930.4429906647051212
 21
107.2321282477125948
 31
0.0
  0
LINE
  5
5B62
  8
0
 10
2930.5043867289050468
 20
107.2321282477125948
 30
0.0
 11
2930.5043867289050468
 21
99.0993068493126259
 31
0.0
  0
ARC
  5
5B63
  8
0
 10
2930.2901886968052168
 20
98.8911153178991356
 30
0.0
 40
0.2582482432591002
 50
53.7232296974303409
 51
126.2767703025696022
  0
ARC
  5
5B64
  8
0
 10
2930.1170089337929312
 20
107.2292585330369974
 30
0.0
 40
0.0411185318479527
 50
126.9387705613712996
 51
175.9980012865808874
  0
ARC
  5
5B65
  8
0
 10
2930.0993445188451005
 20
107.2308723251226041
 30
0.0
 40
0.0380629358802231
 50
1.8908716812886279
 51
55.1894611677468276
  0
ARC
  5
5B66
  8
0
 10
2930.4840089337940299
 20
107.2292585330369974
 30
0.0
 40
0.0411185318479527
 50
126.9387705613712996
 51
175.9980012865808874
  0
ARC
  5
5B67
  8
0
 10
2930.4663445188439255
 20
107.2308723251226041
 30
0.0
 40
0.0380629358802231
 50
1.8908716812886279
 51
55.1894611677468276
  0
LINE
  5
5B68
  8
0
 10
2930.8099906647048556
 20
99.0993068493126259
 30
0.0
 11
2930.8099906647048556
 21
107.234543132762596
 31
0.0
  0
LINE
  5
5B69
  8
0
 10
2930.8713867289047812
 20
107.234543132762596
 30
0.0
 11
2930.8713867289047812
 21
99.0993068493126259
 31
0.0
  0
ARC
  5
5B6A
  8
0
 10
2931.0213474034881074
 20
98.9113302709342719
 30
0.0
 40
0.240464961980508
 50
89.3229870066708855
 51
128.5815543453126111
  0
ARC
  5
5B6B
  8
0
 10
2930.8510089337928548
 20
107.2316734180869986
 30
0.0
 40
0.0411185318479527
 50
126.9387705613712996
 51
175.9980012865808874
  0
ARC
  5
5B6C
  8
0
 10
2930.8333445188450241
 20
107.2332872101726053
 30
0.0
 40
0.0380629358802231
 50
1.8908716812886279
 51
55.1894611677468276
  0
ARC
  5
5B6D
  8
0
 10
2913.5980918170471341
 20
107.3662973742074058
 30
0.0
 40
0.0432416242899316
 50
3.9908227410510602
 51
49.7624358863629084
  0
ARC
  5
5B6E
  8
0
 10
2913.7846096271050556
 20
98.9198739989667359
 30
0.0
 40
0.2296829765709677
 50
51.3723797571946506
 51
128.6276202428053068
  0
ARC
  5
5B6F
  8
0
 10
2914.5091886968048129
 20
98.8911153178991356
 30
0.0
 40
0.2582482432591002
 50
53.7232296974303409
 51
126.2767703025696022
  0
ARC
  5
5B70
  8
0
 10
2914.8761886968050021
 20
98.8911153178991356
 30
0.0
 40
0.2582482432591002
 50
53.7232296974303409
 51
126.2767703025696022
  0
ARC
  5
5B71
  8
0
 10
2915.6101886968049257
 20
98.8911153178991356
 30
0.0
 40
0.2582482432591002
 50
53.7232296974303409
 51
126.2767703025696022
  0
ARC
  5
5B72
  8
0
 10
2916.3441886968048493
 20
98.8911153178991356
 30
0.0
 40
0.2582482432591002
 50
53.7232296974303409
 51
126.2767703025696022
  0
ARC
  5
5B73
  8
0
 10
2917.0781886968047729
 20
98.8911153178991356
 30
0.0
 40
0.2582482432591002
 50
53.7232296974303409
 51
126.2767703025696022
  0
ARC
  5
5B74
  8
0
 10
2917.8121886968051513
 20
98.8911153178991356
 30
0.0
 40
0.2582482432591002
 50
53.7232296974303409
 51
126.2767703025696022
  0
ARC
  5
5B75
  8
0
 10
2918.5461886968050749
 20
98.8911153178991356
 30
0.0
 40
0.2582482432591002
 50
53.7232296974303409
 51
126.2767703025696022
  0
ARC
  5
5B76
  8
0
 10
2919.6471886968051876
 20
98.8911153178991356
 30
0.0
 40
0.2582482432591002
 50
53.7232296974303409
 51
126.2767703025696022
  0
ARC
  5
5B77
  8
0
 10
2920.3811886968051112
 20
98.8911153178991356
 30
0.0
 40
0.2582482432591002
 50
53.7232296974303409
 51
126.2767703025696022
  0
ARC
  5
5B78
  8
0
 10
2921.1151886968050349
 20
98.8911153178991356
 30
0.0
 40
0.2582482432591002
 50
53.7232296974303409
 51
126.2767703025696022
  0
ARC
  5
5B79
  8
0
 10
2921.8491886968049585
 20
98.8911153178991356
 30
0.0
 40
0.2582482432591002
 50
53.7232296974303409
 51
126.2767703025696022
  0
ARC
  5
5B7A
  8
0
 10
2922.5831886968048821
 20
98.8911153178991356
 30
0.0
 40
0.2582482432591002
 50
53.7232296974303409
 51
126.2767703025696022
  0
ARC
  5
5B7B
  8
0
 10
2923.3171886968048057
 20
98.8911153178991356
 30
0.0
 40
0.2582482432591002
 50
53.7232296974303409
 51
126.2767703025696022
  0
ARC
  5
5B7C
  8
0
 10
2924.051188696805184
 20
98.8911153178991356
 30
0.0
 40
0.2582482432591002
 50
53.7232296974303409
 51
126.2767703025696022
  0
ARC
  5
5B7D
  8
0
 10
2924.7851886968051076
 20
98.8911153178991356
 30
0.0
 40
0.2582482432591002
 50
53.7232296974303409
 51
126.2767703025696022
  0
ARC
  5
5B7E
  8
0
 10
2925.5191886968050312
 20
98.8911153178991356
 30
0.0
 40
0.2582482432591002
 50
53.7232296974303409
 51
126.2767703025696022
  0
ARC
  5
5B7F
  8
0
 10
2926.2531886968049548
 20
98.8911153178991356
 30
0.0
 40
0.2582482432591002
 50
53.7232296974303409
 51
126.2767703025696022
  0
ARC
  5
5B80
  8
0
 10
2926.9871886968048784
 20
98.8911153178991356
 30
0.0
 40
0.2582482432591002
 50
53.7232296974303409
 51
126.2767703025696022
  0
ARC
  5
5B81
  8
0
 10
2927.721188696804802
 20
98.8911153178991356
 30
0.0
 40
0.2582482432591002
 50
53.7232296974303409
 51
126.2767703025696022
  0
ARC
  5
5B82
  8
0
 10
2928.4551886968051804
 20
98.8911153178991356
 30
0.0
 40
0.2582482432591002
 50
53.7232296974303409
 51
126.2767703025696022
  0
ARC
  5
5B83
  8
0
 10
2929.189188696805104
 20
98.8911153178991356
 30
0.0
 40
0.2582482432591002
 50
53.7232296974303409
 51
126.2767703025696022
  0
ARC
  5
5B84
  8
0
 10
2929.9231886968041181
 20
98.8911153178991356
 30
0.0
 40
0.2582482432591002
 50
53.7232296974303409
 51
126.2767703025696022
  0
ARC
  5
5B85
  8
0
 10
2930.6571886968049512
 20
98.8911153178991356
 30
0.0
 40
0.2582482432591002
 50
53.7232296974303409
 51
126.2767703025696022
  0
ARC
  5
5B86
  8
0
 10
2913.5061742620619043
 20
107.3662973742074058
 30
0.0
 40
0.0432416242899316
 50
130.2375641136370916
 51
176.0091772589489096
  0
ARC
  5
5B87
  8
0
 10
2913.9462499564479003
 20
107.3662973742074058
 30
0.0
 40
0.0432416242899316
 50
3.9908227410510602
 51
49.7624358863629084
  0
ARC
  5
5B88
  8
0
 10
2913.9711274371620675
 20
107.3662973742074058
 30
0.0
 40
0.0432416242899316
 50
130.2375641136370916
 51
176.0091772589489096
  0
LINE
  5
5B89
  8
0
 10
2948.5853399040051954
 20
99.0993068493126259
 30
0.0
 11
2948.5853399040051954
 21
107.3693068493125935
 31
0.0
  0
LINE
  5
5B8A
  8
0
 10
2948.4071488041049633
 20
107.3693068481126005
 30
0.0
 11
2948.4071488041049633
 21
99.0993068493126259
 31
0.0
  0
LINE
  5
5B8B
  8
0
 10
2948.1203867289050322
 20
99.0993068493126259
 30
0.0
 11
2948.1203867289050322
 21
107.3693068493125935
 31
0.0
  0
LINE
  5
5B8C
  8
0
 10
2948.0589906647051066
 20
107.3693068493125935
 30
0.0
 11
2948.0589906647051066
 21
99.0993068493126259
 31
0.0
  0
LINE
  5
5B8D
  8
0
 10
2947.753386728904843
 20
99.0993068493126259
 30
0.0
 11
2947.753386728904843
 21
107.2321282477125948
 31
0.0
  0
LINE
  5
5B8E
  8
0
 10
2947.6919906647049174
 20
107.2321282477125948
 30
0.0
 11
2947.6919906647049174
 21
99.0993068493126259
 31
0.0
  0
LINE
  5
5B8F
  8
0
 10
2947.3863867289051086
 20
99.0993068493126259
 30
0.0
 11
2947.3863867289051086
 21
107.2321282477125948
 31
0.0
  0
LINE
  5
5B90
  8
0
 10
2947.324990664705183
 20
107.2321282477125948
 30
0.0
 11
2947.324990664705183
 21
99.0993068493126259
 31
0.0
  0
ARC
  5
5B91
  8
0
 10
2947.9061886968052022
 20
98.8911153178991356
 30
0.0
 40
0.2582482432591002
 50
53.7232296974303409
 51
126.2767703025696022
  0
LINE
  5
5B92
  8
0
 10
2948.874188705504821
 20
99.3486928512126894
 30
0.0
 11
2948.874188705504821
 21
107.3693237620125984
 31
0.0
  0
LINE
  5
5B93
  8
0
 10
2948.874188705504821
 20
107.3993068493125946
 30
0.0
 11
2948.8515838460048144
 21
107.7097746402126006
 31
0.0
  0
LINE
  5
5B94
  8
0
 10
2948.0277799131049505
 20
107.3693068493125935
 30
0.0
 11
2948.0277799131049505
 21
107.2921282426126055
 31
0.0
  0
LINE
  5
5B95
  8
0
 10
2948.624299294704997
 20
99.0993068493126259
 30
0.0
 11
2948.4071488041049633
 21
99.0993068493126259
 31
0.0
  0
LINE
  5
5B96
  8
0
 10
2948.1203867289050322
 20
99.0993068493126259
 30
0.0
 11
2948.0589906647051066
 21
99.0993068493126259
 31
0.0
  0
LINE
  5
5B97
  8
0
 10
2947.753386728904843
 20
99.0993068493126259
 30
0.0
 11
2947.6919906647049174
 21
99.0993068493126259
 31
0.0
  0
LINE
  5
5B98
  8
0
 10
2947.3863867289051086
 20
99.0993068493126259
 30
0.0
 11
2947.324990664705183
 21
99.0993068493126259
 31
0.0
  0
LINE
  5
5B99
  8
0
 10
2947.0193867289049194
 20
99.0993068493126259
 30
0.0
 11
2946.9579906647049938
 21
99.0993068493126259
 31
0.0
  0
LINE
  5
5B9A
  8
0
 10
2946.652386728905185
 20
99.0993068493126259
 30
0.0
 11
2946.5909906647048047
 21
99.0993068493126259
 31
0.0
  0
LINE
  5
5B9B
  8
0
 10
2946.2853867289049958
 20
99.0993068493126259
 30
0.0
 11
2946.2239906647050702
 21
99.0993068493126259
 31
0.0
  0
LINE
  5
5B9C
  8
0
 10
2945.9183867289048067
 20
99.0993068493126259
 30
0.0
 11
2945.8569906647048811
 21
99.0993068493126259
 31
0.0
  0
LINE
  5
5B9D
  8
0
 10
2945.5513867289050722
 20
99.0993068493126259
 30
0.0
 11
2945.4899906647051466
 21
99.0993068493126259
 31
0.0
  0
LINE
  5
5B9E
  8
0
 10
2945.1843867289048831
 20
99.0993068493126259
 30
0.0
 11
2945.1229906647049575
 21
99.0993068493126259
 31
0.0
  0
LINE
  5
5B9F
  8
0
 10
2944.8173867289051486
 20
99.0993068493126259
 30
0.0
 11
2944.755990664705223
 21
99.0993068493126259
 31
0.0
  0
LINE
  5
5BA0
  8
0
 10
2944.4503867289049595
 20
99.0993068493126259
 30
0.0
 11
2944.3889906647050339
 21
99.0993068493126259
 31
0.0
  0
LINE
  5
5BA1
  8
0
 10
2944.083386728905225
 20
99.0993068493126259
 30
0.0
 11
2944.0219906647048447
 21
99.0993068493126259
 31
0.0
  0
LINE
  5
5BA2
  8
0
 10
2943.7163867289050359
 20
99.0993068493126259
 30
0.0
 11
2943.6549906647051102
 21
99.0993068493126259
 31
0.0
  0
LINE
  5
5BA3
  8
0
 10
2943.3493867289048467
 20
99.0993068493126259
 30
0.0
 11
2943.2879906647049211
 21
99.0993068493126259
 31
0.0
  0
LINE
  5
5BA4
  8
0
 10
2942.9823867289051122
 20
99.0993068493126259
 30
0.0
 11
2942.9209906647051866
 21
99.0993068493126259
 31
0.0
  0
LINE
  5
5BA5
  8
0
 10
2942.6153867289049231
 20
99.0993068493126259
 30
0.0
 11
2942.5539906647049975
 21
99.0993068493126259
 31
0.0
  0
LINE
  5
5BA6
  8
0
 10
2942.2483867289051886
 20
99.0993068493126259
 30
0.0
 11
2942.1869906647048083
 21
99.0993068493126259
 31
0.0
  0
LINE
  5
5BA7
  8
0
 10
2941.8813867289049995
 20
99.0993068493126259
 30
0.0
 11
2941.8199906647050739
 21
99.0993068493126259
 31
0.0
  0
LINE
  5
5BA8
  8
0
 10
2941.5143867289048103
 20
99.0993068493126259
 30
0.0
 11
2941.4529906647048847
 21
99.0993068493126259
 31
0.0
  0
LINE
  5
5BA9
  8
0
 10
2941.1473867289050759
 20
99.0993068493126259
 30
0.0
 11
2941.0859906647051503
 21
99.0993068493126259
 31
0.0
  0
LINE
  5
5BAA
  8
0
 10
2940.7803867289048867
 20
99.0993068493126259
 30
0.0
 11
2940.7189906647049611
 21
99.0993068493126259
 31
0.0
  0
LINE
  5
5BAB
  8
0
 10
2940.4133867289051523
 20
99.0993068493126259
 30
0.0
 11
2940.3519906647052267
 21
99.0993068493126259
 31
0.0
  0
LINE
  5
5BAC
  8
0
 10
2940.0463867289049631
 20
99.0993068493126259
 30
0.0
 11
2939.9849906647050375
 21
99.0993068493126259
 31
0.0
  0
LINE
  5
5BAD
  8
0
 10
2939.6793867289047739
 20
99.0993068493126259
 30
0.0
 11
2939.6179906647048483
 21
99.0993068493126259
 31
0.0
  0
LINE
  5
5BAE
  8
0
 10
2939.3123867289050395
 20
99.0993068493126259
 30
0.0
 11
2939.2509906647051139
 21
99.0993068493126259
 31
0.0
  0
LINE
  5
5BAF
  8
0
 10
2938.9453867289048503
 20
99.0993068493126259
 30
0.0
 11
2938.8839906647049247
 21
99.0993068493126259
 31
0.0
  0
LINE
  5
5BB0
  8
0
 10
2938.5783867289042064
 20
99.0993068493126259
 30
0.0
 11
2938.5169906647051903
 21
99.0993068493126259
 31
0.0
  0
LINE
  5
5BB1
  8
0
 10
2938.2113867289049267
 20
99.0993068493126259
 30
0.0
 11
2938.1499906647050011
 21
99.0993068493126259
 31
0.0
  0
LINE
  5
5BB2
  8
0
 10
2937.8443867289051923
 20
99.0993068493126259
 30
0.0
 11
2937.7829906647048119
 21
99.0993068493126259
 31
0.0
  0
LINE
  5
5BB3
  8
0
 10
2937.4773867289050031
 20
99.0993068493126259
 30
0.0
 11
2937.4159906647050775
 21
99.0993068493126259
 31
0.0
  0
LINE
  5
5BB4
  8
0
 10
2937.1103867289048139
 20
99.0993068493126259
 30
0.0
 11
2937.0489906647048883
 21
99.0993068493126259
 31
0.0
  0
LINE
  5
5BB5
  8
0
 10
2936.7433867289050795
 20
99.0993068493126259
 30
0.0
 11
2936.6819906647051539
 21
99.0993068493126259
 31
0.0
  0
LINE
  5
5BB6
  8
0
 10
2936.3763867289048903
 20
99.0993068493126259
 30
0.0
 11
2936.3149906647049647
 21
99.0993068493126259
 31
0.0
  0
LINE
  5
5BB7
  8
0
 10
2936.0093867289051559
 20
99.0993068493126259
 30
0.0
 11
2935.9479906647047756
 21
99.0993068493126259
 31
0.0
  0
LINE
  5
5BB8
  8
0
 10
2935.6423867289049667
 20
99.0993068493126259
 30
0.0
 11
2935.5809906647050411
 21
99.0993068493126259
 31
0.0
  0
LINE
  5
5BB9
  8
0
 10
2935.2753867289047776
 20
99.0993068493126259
 30
0.0
 11
2935.213990664704852
 21
99.0993068493126259
 31
0.0
  0
LINE
  5
5BBA
  8
0
 10
2934.9083867289050431
 20
99.0993068493126259
 30
0.0
 11
2934.8469906647051175
 21
99.0993068493126259
 31
0.0
  0
LINE
  5
5BBB
  8
0
 10
2934.541386728904854
 20
99.0993068493126259
 30
0.0
 11
2934.4799906647049283
 21
99.0993068493126259
 31
0.0
  0
LINE
  5
5BBC
  8
0
 10
2934.1743867289051195
 20
99.0993068493126259
 30
0.0
 11
2934.1129906647051939
 21
99.0993068493126259
 31
0.0
  0
LINE
  5
5BBD
  8
0
 10
2933.8073867289049304
 20
99.0993068493126259
 30
0.0
 11
2933.7459906647040953
 21
99.0993068493126259
 31
0.0
  0
LINE
  5
5BBE
  8
0
 10
2933.4403867289051959
 20
99.0993068493126259
 30
0.0
 11
2933.3789906647048156
 21
99.0993068493126259
 31
0.0
  0
LINE
  5
5BBF
  8
0
 10
2933.0733867289050067
 20
99.0993068493126259
 30
0.0
 11
2933.0119906647041716
 21
99.0993068493126259
 31
0.0
  0
LINE
  5
5BC0
  8
0
 10
2932.7063867289048176
 20
99.0993068493126259
 30
0.0
 11
2932.644990664704892
 21
99.0993068493126259
 31
0.0
  0
LINE
  5
5BC1
  8
0
 10
2932.3393867289050831
 20
99.0993068493126259
 30
0.0
 11
2932.2779906647051575
 21
99.0993068493126259
 31
0.0
  0
LINE
  5
5BC2
  8
0
 10
2931.972386728904894
 20
99.0993068493126259
 30
0.0
 11
2931.9109906647049684
 21
99.0993068493126259
 31
0.0
  0
LINE
  5
5BC3
  8
0
 10
2931.6053867289051595
 20
99.0993068493126259
 30
0.0
 11
2931.5439906647047792
 21
99.0993068493126259
 31
0.0
  0
LINE
  5
5BC4
  8
0
 10
2931.2383867289049704
 20
99.0993068493126259
 30
0.0
 11
2931.1769906647050448
 21
99.0993068493126259
 31
0.0
  0
ARC
  5
5BC5
  8
0
 10
2948.6295958117179907
 20
107.675734187915296
 30
0.0
 40
0.2245828126972063
 50
8.7180336960056533
 51
84.5636738481658767
  0
ARC
  5
5BC6
  8
0
 10
2948.8393171821549004
 20
107.3677814631573995
 30
0.0
 40
0.0349056131086017
 50
2.5324291937109522
 51
64.5767197318104422
  0
ARC
  5
5BC7
  8
0
 10
2948.6104978692851546
 20
99.3630260530860596
 30
0.0
 40
0.2640800972858964
 50
272.9957723196711754
 51
356.888687460112294
  0
ARC
  5
5BC8
  8
0
 10
2948.0596098692840314
 20
107.3674769629132015
 30
0.0
 40
0.0318825123633467
 50
93.2924648707987956
 51
176.7097192865753073
  0
ARC
  5
5BC9
  8
0
 10
2947.9955485987361499
 20
107.2944322261129031
 30
0.0
 40
0.0323135570989654
 50
271.0089097621640803
 51
355.9112938910398043
  0
ARC
  5
5BCA
  8
0
 10
2947.7123684598159343
 20
107.2292585330369974
 30
0.0
 40
0.0411185318479527
 50
4.0019987134190984
 51
53.0612294386287218
  0
ARC
  5
5BCB
  8
0
 10
2947.7300328747651292
 20
107.2308723251226041
 30
0.0
 40
0.0380629358802231
 50
124.8105388322531013
 51
178.1091283187114129
  0
ARC
  5
5BCC
  8
0
 10
2947.3453684598161999
 20
107.2292585330369974
 30
0.0
 40
0.0411185318479527
 50
4.0019987134190984
 51
53.0612294386287218
  0
ARC
  5
5BCD
  8
0
 10
2947.3630328747649401
 20
107.2308723251226041
 30
0.0
 40
0.0380629358802231
 50
124.8105388322531013
 51
178.1091283187114129
  0
LINE
  5
5BCE
  8
0
 10
2947.0193867289049194
 20
99.0993068493126259
 30
0.0
 11
2947.0193867289049194
 21
107.2321282477125948
 31
0.0
  0
LINE
  5
5BCF
  8
0
 10
2946.9579906647049938
 20
107.2321282477125948
 30
0.0
 11
2946.9579906647049938
 21
99.0993068493126259
 31
0.0
  0
LINE
  5
5BD0
  8
0
 10
2946.652386728905185
 20
99.0993068493126259
 30
0.0
 11
2946.652386728905185
 21
107.2321282477125948
 31
0.0
  0
LINE
  5
5BD1
  8
0
 10
2946.5909906647048047
 20
107.2321282477125948
 30
0.0
 11
2946.5909906647048047
 21
99.0993068493126259
 31
0.0
  0
ARC
  5
5BD2
  8
0
 10
2946.8051886968050894
 20
98.8911153178991356
 30
0.0
 40
0.2582482432591002
 50
53.7232296974303409
 51
126.2767703025696022
  0
ARC
  5
5BD3
  8
0
 10
2946.9783684598169202
 20
107.2292585330369974
 30
0.0
 40
0.0411185318479527
 50
4.0019987134190984
 51
53.0612294386287218
  0
ARC
  5
5BD4
  8
0
 10
2946.9960328747661151
 20
107.2308723251226041
 30
0.0
 40
0.0380629358802231
 50
124.8105388322531013
 51
178.1091283187114129
  0
ARC
  5
5BD5
  8
0
 10
2946.6113684598158216
 20
107.2292585330369974
 30
0.0
 40
0.0411185318479527
 50
4.0019987134190984
 51
53.0612294386287218
  0
ARC
  5
5BD6
  8
0
 10
2946.6290328747650165
 20
107.2308723251226041
 30
0.0
 40
0.0380629358802231
 50
124.8105388322531013
 51
178.1091283187114129
  0
LINE
  5
5BD7
  8
0
 10
2946.2853867289049958
 20
99.0993068493126259
 30
0.0
 11
2946.2853867289049958
 21
107.2321282477125948
 31
0.0
  0
LINE
  5
5BD8
  8
0
 10
2946.2239906647050702
 20
107.2321282477125948
 30
0.0
 11
2946.2239906647050702
 21
99.0993068493126259
 31
0.0
  0
LINE
  5
5BD9
  8
0
 10
2945.9183867289048067
 20
99.0993068493126259
 30
0.0
 11
2945.9183867289048067
 21
107.2321282477125948
 31
0.0
  0
LINE
  5
5BDA
  8
0
 10
2945.8569906647048811
 20
107.2321282477125948
 30
0.0
 11
2945.8569906647048811
 21
99.0993068493126259
 31
0.0
  0
ARC
  5
5BDB
  8
0
 10
2946.0711886968051658
 20
98.8911153178991356
 30
0.0
 40
0.2582482432591002
 50
53.7232296974303409
 51
126.2767703025696022
  0
ARC
  5
5BDC
  8
0
 10
2946.2443684598169966
 20
107.2292585330369974
 30
0.0
 40
0.0411185318479527
 50
4.0019987134190984
 51
53.0612294386287218
  0
ARC
  5
5BDD
  8
0
 10
2946.2620328747648273
 20
107.2308723251226041
 30
0.0
 40
0.0380629358802231
 50
124.8105388322531013
 51
178.1091283187114129
  0
ARC
  5
5BDE
  8
0
 10
2945.8773684598168074
 20
107.2292585330369974
 30
0.0
 40
0.0411185318479527
 50
4.0019987134190984
 51
53.0612294386287218
  0
ARC
  5
5BDF
  8
0
 10
2945.8950328747650929
 20
107.2308723251226041
 30
0.0
 40
0.0380629358802231
 50
124.8105388322531013
 51
178.1091283187114129
  0
LINE
  5
5BE0
  8
0
 10
2945.5513867289050722
 20
99.0993068493126259
 30
0.0
 11
2945.5513867289050722
 21
107.2321282477125948
 31
0.0
  0
LINE
  5
5BE1
  8
0
 10
2945.4899906647051466
 20
107.2321282477125948
 30
0.0
 11
2945.4899906647051466
 21
99.0993068493126259
 31
0.0
  0
LINE
  5
5BE2
  8
0
 10
2945.1843867289048831
 20
99.0993068493126259
 30
0.0
 11
2945.1843867289048831
 21
107.2321282477125948
 31
0.0
  0
LINE
  5
5BE3
  8
0
 10
2945.1229906647049575
 20
107.2321282477125948
 30
0.0
 11
2945.1229906647049575
 21
99.0993068493126259
 31
0.0
  0
ARC
  5
5BE4
  8
0
 10
2945.3371886968047875
 20
98.8911153178991356
 30
0.0
 40
0.2582482432591002
 50
53.7232296974303409
 51
126.2767703025696022
  0
ARC
  5
5BE5
  8
0
 10
2945.5103684598161635
 20
107.2292585330369974
 30
0.0
 40
0.0411185318479527
 50
4.0019987134190984
 51
53.0612294386287218
  0
ARC
  5
5BE6
  8
0
 10
2945.5280328747649037
 20
107.2308723251226041
 30
0.0
 40
0.0380629358802231
 50
124.8105388322531013
 51
178.1091283187114129
  0
ARC
  5
5BE7
  8
0
 10
2945.1433684598168838
 20
107.2292585330369974
 30
0.0
 40
0.0411185318479527
 50
4.0019987134190984
 51
53.0612294386287218
  0
ARC
  5
5BE8
  8
0
 10
2945.1610328747651693
 20
107.2308723251226041
 30
0.0
 40
0.0380629358802231
 50
124.8105388322531013
 51
178.1091283187114129
  0
LINE
  5
5BE9
  8
0
 10
2944.8173867289051486
 20
99.0993068493126259
 30
0.0
 11
2944.8173867289051486
 21
107.2321282477125948
 31
0.0
  0
LINE
  5
5BEA
  8
0
 10
2944.755990664705223
 20
107.2321282477125948
 30
0.0
 11
2944.755990664705223
 21
99.0993068493126259
 31
0.0
  0
LINE
  5
5BEB
  8
0
 10
2944.4503867289049595
 20
99.0993068493126259
 30
0.0
 11
2944.4503867289049595
 21
107.2321282477125948
 31
0.0
  0
LINE
  5
5BEC
  8
0
 10
2944.3889906647050339
 20
107.2321282477125948
 30
0.0
 11
2944.3889906647050339
 21
99.0993068493126259
 31
0.0
  0
ARC
  5
5BED
  8
0
 10
2944.6031886968048639
 20
98.8911153178991356
 30
0.0
 40
0.2582482432591002
 50
53.7232296974303409
 51
126.2767703025696022
  0
ARC
  5
5BEE
  8
0
 10
2944.7763684598157852
 20
107.2292585330369974
 30
0.0
 40
0.0411185318479527
 50
4.0019987134190984
 51
53.0612294386287218
  0
ARC
  5
5BEF
  8
0
 10
2944.7940328747649801
 20
107.2308723251226041
 30
0.0
 40
0.0380629358802231
 50
124.8105388322531013
 51
178.1091283187114129
  0
ARC
  5
5BF0
  8
0
 10
2944.4093684598169602
 20
107.2292585330369974
 30
0.0
 40
0.0411185318479527
 50
4.0019987134190984
 51
53.0612294386287218
  0
ARC
  5
5BF1
  8
0
 10
2944.4270328747647909
 20
107.2308723251226041
 30
0.0
 40
0.0380629358802231
 50
124.8105388322531013
 51
178.1091283187114129
  0
LINE
  5
5BF2
  8
0
 10
2944.083386728905225
 20
99.0993068493126259
 30
0.0
 11
2944.083386728905225
 21
107.2321282477125948
 31
0.0
  0
LINE
  5
5BF3
  8
0
 10
2944.0219906647048447
 20
107.2321282477125948
 30
0.0
 11
2944.0219906647048447
 21
99.0993068493126259
 31
0.0
  0
LINE
  5
5BF4
  8
0
 10
2943.7163867289050359
 20
99.0993068493126259
 30
0.0
 11
2943.7163867289050359
 21
107.2321282477125948
 31
0.0
  0
LINE
  5
5BF5
  8
0
 10
2943.6549906647051102
 20
107.2321282477125948
 30
0.0
 11
2943.6549906647051102
 21
99.0993068493126259
 31
0.0
  0
ARC
  5
5BF6
  8
0
 10
2943.8691886968049403
 20
98.8911153178991356
 30
0.0
 40
0.2582482432591002
 50
53.7232296974303409
 51
126.2767703025696022
  0
ARC
  5
5BF7
  8
0
 10
2944.0423684598158616
 20
107.2292585330369974
 30
0.0
 40
0.0411185318479527
 50
4.0019987134190984
 51
53.0612294386287218
  0
ARC
  5
5BF8
  8
0
 10
2944.0600328747650565
 20
107.2308723251226041
 30
0.0
 40
0.0380629358802231
 50
124.8105388322531013
 51
178.1091283187114129
  0
ARC
  5
5BF9
  8
0
 10
2943.6753684598161271
 20
107.2292585330369974
 30
0.0
 40
0.0411185318479527
 50
4.0019987134190984
 51
53.0612294386287218
  0
ARC
  5
5BFA
  8
0
 10
2943.6930328747648673
 20
107.2308723251226041
 30
0.0
 40
0.0380629358802231
 50
124.8105388322531013
 51
178.1091283187114129
  0
LINE
  5
5BFB
  8
0
 10
2943.3493867289048467
 20
99.0993068493126259
 30
0.0
 11
2943.3493867289048467
 21
107.2321282477125948
 31
0.0
  0
LINE
  5
5BFC
  8
0
 10
2943.2879906647049211
 20
107.2321282477125948
 30
0.0
 11
2943.2879906647049211
 21
99.0993068493126259
 31
0.0
  0
LINE
  5
5BFD
  8
0
 10
2942.9823867289051122
 20
99.0993068493126259
 30
0.0
 11
2942.9823867289051122
 21
107.2321282477125948
 31
0.0
  0
LINE
  5
5BFE
  8
0
 10
2942.9209906647051866
 20
107.2321282477125948
 30
0.0
 11
2942.9209906647051866
 21
99.0993068493126259
 31
0.0
  0
ARC
  5
5BFF
  8
0
 10
2943.1351886968050167
 20
98.8911153178991356
 30
0.0
 40
0.2582482432591002
 50
53.7232296974303409
 51
126.2767703025696022
  0
ARC
  5
5C00
  8
0
 10
2943.3083684598168475
 20
107.2292585330369974
 30
0.0
 40
0.0411185318479527
 50
4.0019987134190984
 51
53.0612294386287218
  0
ARC
  5
5C01
  8
0
 10
2943.3260328747651329
 20
107.2308723251226041
 30
0.0
 40
0.0380629358802231
 50
124.8105388322531013
 51
178.1091283187114129
  0
ARC
  5
5C02
  8
0
 10
2942.941368459817113
 20
107.2292585330369974
 30
0.0
 40
0.0411185318479527
 50
4.0019987134190984
 51
53.0612294386287218
  0
ARC
  5
5C03
  8
0
 10
2942.9590328747649437
 20
107.2308723251226041
 30
0.0
 40
0.0380629358802231
 50
124.8105388322531013
 51
178.1091283187114129
  0
LINE
  5
5C04
  8
0
 10
2942.9823867289051122
 20
99.0993068493126259
 30
0.0
 11
2942.9823867289051122
 21
107.2321282477125948
 31
0.0
  0
LINE
  5
5C05
  8
0
 10
2942.9209906647051866
 20
107.2321282477125948
 30
0.0
 11
2942.9209906647051866
 21
99.0993068493126259
 31
0.0
  0
LINE
  5
5C06
  8
0
 10
2942.6153867289049231
 20
99.0993068493126259
 30
0.0
 11
2942.6153867289049231
 21
107.2321282477125948
 31
0.0
  0
LINE
  5
5C07
  8
0
 10
2942.5539906647049975
 20
107.2321282477125948
 30
0.0
 11
2942.5539906647049975
 21
99.0993068493126259
 31
0.0
  0
ARC
  5
5C08
  8
0
 10
2942.7681886968048275
 20
98.8911153178991356
 30
0.0
 40
0.2582482432591002
 50
53.7232296974303409
 51
126.2767703025696022
  0
ARC
  5
5C09
  8
0
 10
2942.941368459817113
 20
107.2292585330369974
 30
0.0
 40
0.0411185318479527
 50
4.0019987134190984
 51
53.0612294386287218
  0
ARC
  5
5C0A
  8
0
 10
2942.9590328747649437
 20
107.2308723251226041
 30
0.0
 40
0.0380629358802231
 50
124.8105388322531013
 51
178.1091283187114129
  0
ARC
  5
5C0B
  8
0
 10
2942.5743684598160144
 20
107.2292585330369974
 30
0.0
 40
0.0411185318479527
 50
4.0019987134190984
 51
53.0612294386287218
  0
ARC
  5
5C0C
  8
0
 10
2942.5920328747652093
 20
107.2308723251226041
 30
0.0
 40
0.0380629358802231
 50
124.8105388322531013
 51
178.1091283187114129
  0
LINE
  5
5C0D
  8
0
 10
2942.2483867289051886
 20
99.0993068493126259
 30
0.0
 11
2942.2483867289051886
 21
107.2321282477125948
 31
0.0
  0
LINE
  5
5C0E
  8
0
 10
2942.1869906647048083
 20
107.2321282477125948
 30
0.0
 11
2942.1869906647048083
 21
99.0993068493126259
 31
0.0
  0
LINE
  5
5C0F
  8
0
 10
2941.8813867289049995
 20
99.0993068493126259
 30
0.0
 11
2941.8813867289049995
 21
107.2321282477125948
 31
0.0
  0
LINE
  5
5C10
  8
0
 10
2941.8199906647050739
 20
107.2321282477125948
 30
0.0
 11
2941.8199906647050739
 21
99.0993068493126259
 31
0.0
  0
ARC
  5
5C11
  8
0
 10
2942.0341886968049039
 20
98.8911153178991356
 30
0.0
 40
0.2582482432591002
 50
53.7232296974303409
 51
126.2767703025696022
  0
ARC
  5
5C12
  8
0
 10
2942.2073684598171894
 20
107.2292585330369974
 30
0.0
 40
0.0411185318479527
 50
4.0019987134190984
 51
53.0612294386287218
  0
ARC
  5
5C13
  8
0
 10
2942.2250328747650201
 20
107.2308723251226041
 30
0.0
 40
0.0380629358802231
 50
124.8105388322531013
 51
178.1091283187114129
  0
ARC
  5
5C14
  8
0
 10
2941.8403684598160908
 20
107.2292585330369974
 30
0.0
 40
0.0411185318479527
 50
4.0019987134190984
 51
53.0612294386287218
  0
ARC
  5
5C15
  8
0
 10
2941.8580328747648309
 20
107.2308723251226041
 30
0.0
 40
0.0380629358802231
 50
124.8105388322531013
 51
178.1091283187114129
  0
LINE
  5
5C16
  8
0
 10
2941.5143867289048103
 20
99.0993068493126259
 30
0.0
 11
2941.5143867289048103
 21
107.2321282477125948
 31
0.0
  0
LINE
  5
5C17
  8
0
 10
2941.4529906647048847
 20
107.2321282477125948
 30
0.0
 11
2941.4529906647048847
 21
99.0993068493126259
 31
0.0
  0
LINE
  5
5C18
  8
0
 10
2941.1473867289050759
 20
99.0993068493126259
 30
0.0
 11
2941.1473867289050759
 21
107.2321282477125948
 31
0.0
  0
LINE
  5
5C19
  8
0
 10
2941.0859906647051503
 20
107.2321282477125948
 30
0.0
 11
2941.0859906647051503
 21
99.0993068493126259
 31
0.0
  0
ARC
  5
5C1A
  8
0
 10
2941.3001886968049803
 20
98.8911153178991356
 30
0.0
 40
0.2582482432591002
 50
53.7232296974303409
 51
126.2767703025696022
  0
ARC
  5
5C1B
  8
0
 10
2941.4733684598168111
 20
107.2292585330369974
 30
0.0
 40
0.0411185318479527
 50
4.0019987134190984
 51
53.0612294386287218
  0
ARC
  5
5C1C
  8
0
 10
2941.4910328747650965
 20
107.2308723251226041
 30
0.0
 40
0.0380629358802231
 50
124.8105388322531013
 51
178.1091283187114129
  0
ARC
  5
5C1D
  8
0
 10
2941.1063684598161672
 20
107.2292585330369974
 30
0.0
 40
0.0411185318479527
 50
4.0019987134190984
 51
53.0612294386287218
  0
ARC
  5
5C1E
  8
0
 10
2941.1240328747649073
 20
107.2308723251226041
 30
0.0
 40
0.0380629358802231
 50
124.8105388322531013
 51
178.1091283187114129
  0
LINE
  5
5C1F
  8
0
 10
2940.7803867289048867
 20
99.0993068493126259
 30
0.0
 11
2940.7803867289048867
 21
107.2321282477125948
 31
0.0
  0
LINE
  5
5C20
  8
0
 10
2940.7189906647049611
 20
107.2321282477125948
 30
0.0
 11
2940.7189906647049611
 21
99.0993068493126259
 31
0.0
  0
LINE
  5
5C21
  8
0
 10
2940.4133867289051523
 20
99.0993068493126259
 30
0.0
 11
2940.4133867289051523
 21
107.2321282477125948
 31
0.0
  0
LINE
  5
5C22
  8
0
 10
2940.3519906647052267
 20
107.2321282477125948
 30
0.0
 11
2940.3519906647052267
 21
99.0993068493126259
 31
0.0
  0
ARC
  5
5C23
  8
0
 10
2940.5661886968050567
 20
98.8911153178991356
 30
0.0
 40
0.2582482432591002
 50
53.7232296974303409
 51
126.2767703025696022
  0
ARC
  5
5C24
  8
0
 10
2940.7393684598168875
 20
107.2292585330369974
 30
0.0
 40
0.0411185318479527
 50
4.0019987134190984
 51
53.0612294386287218
  0
ARC
  5
5C25
  8
0
 10
2940.7570328747651729
 20
107.2308723251226041
 30
0.0
 40
0.0380629358802231
 50
124.8105388322531013
 51
178.1091283187114129
  0
ARC
  5
5C26
  8
0
 10
2940.3723684598157888
 20
107.2292585330369974
 30
0.0
 40
0.0411185318479527
 50
4.0019987134190984
 51
53.0612294386287218
  0
ARC
  5
5C27
  8
0
 10
2940.3900328747649837
 20
107.2308723251226041
 30
0.0
 40
0.0380629358802231
 50
124.8105388322531013
 51
178.1091283187114129
  0
LINE
  5
5C28
  8
0
 10
2940.0463867289049631
 20
99.0993068493126259
 30
0.0
 11
2940.0463867289049631
 21
107.2321282477125948
 31
0.0
  0
LINE
  5
5C29
  8
0
 10
2939.9849906647050375
 20
107.2321282477125948
 30
0.0
 11
2939.9849906647050375
 21
99.0993068493126259
 31
0.0
  0
LINE
  5
5C2A
  8
0
 10
2939.6793867289047739
 20
99.0993068493126259
 30
0.0
 11
2939.6793867289047739
 21
107.2321282477125948
 31
0.0
  0
LINE
  5
5C2B
  8
0
 10
2939.6179906647048483
 20
107.2321282477125948
 30
0.0
 11
2939.6179906647048483
 21
99.0993068493126259
 31
0.0
  0
ARC
  5
5C2C
  8
0
 10
2939.8321886968051331
 20
98.8911153178991356
 30
0.0
 40
0.2582482432591002
 50
53.7232296974303409
 51
126.2767703025696022
  0
ARC
  5
5C2D
  8
0
 10
2940.0053684598160544
 20
107.2292585330369974
 30
0.0
 40
0.0411185318479527
 50
4.0019987134190984
 51
53.0612294386287218
  0
ARC
  5
5C2E
  8
0
 10
2940.0230328747661588
 20
107.2308723251226041
 30
0.0
 40
0.0380629358802231
 50
124.8105388322531013
 51
178.1091283187114129
  0
ARC
  5
5C2F
  8
0
 10
2939.6383684598158652
 20
107.2292585330369974
 30
0.0
 40
0.0411185318479527
 50
4.0019987134190984
 51
53.0612294386287218
  0
ARC
  5
5C30
  8
0
 10
2939.6560328747650601
 20
107.2308723251226041
 30
0.0
 40
0.0380629358802231
 50
124.8105388322531013
 51
178.1091283187114129
  0
LINE
  5
5C31
  8
0
 10
2939.3123867289050395
 20
99.0993068493126259
 30
0.0
 11
2939.3123867289050395
 21
107.2321282477125948
 31
0.0
  0
LINE
  5
5C32
  8
0
 10
2939.2509906647051139
 20
107.2321282477125948
 30
0.0
 11
2939.2509906647051139
 21
99.0993068493126259
 31
0.0
  0
LINE
  5
5C33
  8
0
 10
2938.9453867289048503
 20
99.0993068493126259
 30
0.0
 11
2938.9453867289048503
 21
107.2321282477125948
 31
0.0
  0
LINE
  5
5C34
  8
0
 10
2938.8839906647049247
 20
107.2321282477125948
 30
0.0
 11
2938.8839906647049247
 21
99.0993068493126259
 31
0.0
  0
ARC
  5
5C35
  8
0
 10
2939.0981886968052095
 20
98.8911153178991356
 30
0.0
 40
0.2582482432591002
 50
53.7232296974303409
 51
126.2767703025696022
  0
ARC
  5
5C36
  8
0
 10
2939.2713684598170403
 20
107.2292585330369974
 30
0.0
 40
0.0411185318479527
 50
4.0019987134190984
 51
53.0612294386287218
  0
ARC
  5
5C37
  8
0
 10
2939.2890328747648709
 20
107.2308723251226041
 30
0.0
 40
0.0380629358802231
 50
124.8105388322531013
 51
178.1091283187114129
  0
ARC
  5
5C38
  8
0
 10
2938.9043684598159416
 20
107.2292585330369974
 30
0.0
 40
0.0411185318479527
 50
4.0019987134190984
 51
53.0612294386287218
  0
ARC
  5
5C39
  8
0
 10
2938.9220328747651365
 20
107.2308723251226041
 30
0.0
 40
0.0380629358802231
 50
124.8105388322531013
 51
178.1091283187114129
  0
LINE
  5
5C3A
  8
0
 10
2938.5783867289042064
 20
99.0993068493126259
 30
0.0
 11
2938.5783867289042064
 21
107.2321282477125948
 31
0.0
  0
LINE
  5
5C3B
  8
0
 10
2938.5169906647051903
 20
107.2321282477125948
 30
0.0
 11
2938.5169906647051903
 21
99.0993068493126259
 31
0.0
  0
LINE
  5
5C3C
  8
0
 10
2938.2113867289049267
 20
99.0993068493126259
 30
0.0
 11
2938.2113867289049267
 21
107.2321282477125948
 31
0.0
  0
LINE
  5
5C3D
  8
0
 10
2938.1499906647050011
 20
107.2321282477125948
 30
0.0
 11
2938.1499906647050011
 21
99.0993068493126259
 31
0.0
  0
ARC
  5
5C3E
  8
0
 10
2938.3641886968048311
 20
98.8911153178991356
 30
0.0
 40
0.2582482432591002
 50
53.7232296974303409
 51
126.2767703025696022
  0
ARC
  5
5C3F
  8
0
 10
2938.5373684598171167
 20
107.2292585330369974
 30
0.0
 40
0.0411185318479527
 50
4.0019987134190984
 51
53.0612294386287218
  0
ARC
  5
5C40
  8
0
 10
2938.5550328747649473
 20
107.2308723251226041
 30
0.0
 40
0.0380629358802231
 50
124.8105388322531013
 51
178.1091283187114129
  0
ARC
  5
5C41
  8
0
 10
2938.1703684598169275
 20
107.2292585330369974
 30
0.0
 40
0.0411185318479527
 50
4.0019987134190984
 51
53.0612294386287218
  0
ARC
  5
5C42
  8
0
 10
2938.1880328747652129
 20
107.2308723251226041
 30
0.0
 40
0.0380629358802231
 50
124.8105388322531013
 51
178.1091283187114129
  0
LINE
  5
5C43
  8
0
 10
2937.8443867289051923
 20
99.0993068493126259
 30
0.0
 11
2937.8443867289051923
 21
107.2321282477125948
 31
0.0
  0
LINE
  5
5C44
  8
0
 10
2937.7829906647048119
 20
107.2321282477125948
 30
0.0
 11
2937.7829906647048119
 21
99.0993068493126259
 31
0.0
  0
LINE
  5
5C45
  8
0
 10
2937.4773867289050031
 20
99.0993068493126259
 30
0.0
 11
2937.4773867289050031
 21
107.2321282477125948
 31
0.0
  0
LINE
  5
5C46
  8
0
 10
2937.4159906647050775
 20
107.2321282477125948
 30
0.0
 11
2937.4159906647050775
 21
99.0993068493126259
 31
0.0
  0
ARC
  5
5C47
  8
0
 10
2937.6301886968049075
 20
98.8911153178991356
 30
0.0
 40
0.2582482432591002
 50
53.7232296974303409
 51
126.2767703025696022
  0
ARC
  5
5C48
  8
0
 10
2937.8033684598171931
 20
107.2292585330369974
 30
0.0
 40
0.0411185318479527
 50
4.0019987134190984
 51
53.0612294386287218
  0
ARC
  5
5C49
  8
0
 10
2937.8210328747650237
 20
107.2308723251226041
 30
0.0
 40
0.0380629358802231
 50
124.8105388322531013
 51
178.1091283187114129
  0
ARC
  5
5C4A
  8
0
 10
2937.4363684598170039
 20
107.2292585330369974
 30
0.0
 40
0.0411185318479527
 50
4.0019987134190984
 51
53.0612294386287218
  0
ARC
  5
5C4B
  8
0
 10
2937.4540328747648346
 20
107.2308723251226041
 30
0.0
 40
0.0380629358802231
 50
124.8105388322531013
 51
178.1091283187114129
  0
LINE
  5
5C4C
  8
0
 10
2937.1103867289048139
 20
99.0993068493126259
 30
0.0
 11
2937.1103867289048139
 21
107.2321282477125948
 31
0.0
  0
LINE
  5
5C4D
  8
0
 10
2937.0489906647048883
 20
107.2321282477125948
 30
0.0
 11
2937.0489906647048883
 21
99.0993068493126259
 31
0.0
  0
LINE
  5
5C4E
  8
0
 10
2936.7433867289050795
 20
99.0993068493126259
 30
0.0
 11
2936.7433867289050795
 21
107.2321282477125948
 31
0.0
  0
LINE
  5
5C4F
  8
0
 10
2936.6819906647051539
 20
107.2321282477125948
 30
0.0
 11
2936.6819906647051539
 21
99.0993068493126259
 31
0.0
  0
ARC
  5
5C50
  8
0
 10
2936.8961886968049839
 20
98.8911153178991356
 30
0.0
 40
0.2582482432591002
 50
53.7232296974303409
 51
126.2767703025696022
  0
ARC
  5
5C51
  8
0
 10
2937.0693684598159052
 20
107.2292585330369974
 30
0.0
 40
0.0411185318479527
 50
4.0019987134190984
 51
53.0612294386287218
  0
ARC
  5
5C52
  8
0
 10
2937.0870328747660096
 20
107.2308723251226041
 30
0.0
 40
0.0380629358802231
 50
124.8105388322531013
 51
178.1091283187114129
  0
ARC
  5
5C53
  8
0
 10
2936.7023684598161708
 20
107.2292585330369974
 30
0.0
 40
0.0411185318479527
 50
4.0019987134190984
 51
53.0612294386287218
  0
ARC
  5
5C54
  8
0
 10
2936.720032874764911
 20
107.2308723251226041
 30
0.0
 40
0.0380629358802231
 50
124.8105388322531013
 51
178.1091283187114129
  0
LINE
  5
5C55
  8
0
 10
2936.3763867289048903
 20
99.0993068493126259
 30
0.0
 11
2936.3763867289048903
 21
107.2321282477125948
 31
0.0
  0
LINE
  5
5C56
  8
0
 10
2936.3149906647049647
 20
107.2321282477125948
 30
0.0
 11
2936.3149906647049647
 21
99.0993068493126259
 31
0.0
  0
LINE
  5
5C57
  8
0
 10
2936.0093867289051559
 20
99.0993068493126259
 30
0.0
 11
2936.0093867289051559
 21
107.2321282477125948
 31
0.0
  0
LINE
  5
5C58
  8
0
 10
2935.9479906647047756
 20
107.2321282477125948
 30
0.0
 11
2935.9479906647047756
 21
99.0993068493126259
 31
0.0
  0
ARC
  5
5C59
  8
0
 10
2936.1621886968050603
 20
98.8911153178991356
 30
0.0
 40
0.2582482432591002
 50
53.7232296974303409
 51
126.2767703025696022
  0
ARC
  5
5C5A
  8
0
 10
2936.3353684598168911
 20
107.2292585330369974
 30
0.0
 40
0.0411185318479527
 50
4.0019987134190984
 51
53.0612294386287218
  0
ARC
  5
5C5B
  8
0
 10
2936.353032874766086
 20
107.2308723251226041
 30
0.0
 40
0.0380629358802231
 50
124.8105388322531013
 51
178.1091283187114129
  0
ARC
  5
5C5C
  8
0
 10
2935.9683684598157924
 20
107.2292585330369974
 30
0.0
 40
0.0411185318479527
 50
4.0019987134190984
 51
53.0612294386287218
  0
ARC
  5
5C5D
  8
0
 10
2935.9860328747649874
 20
107.2308723251226041
 30
0.0
 40
0.0380629358802231
 50
124.8105388322531013
 51
178.1091283187114129
  0
LINE
  5
5C5E
  8
0
 10
2935.6423867289049667
 20
99.0993068493126259
 30
0.0
 11
2935.6423867289049667
 21
107.2321282477125948
 31
0.0
  0
LINE
  5
5C5F
  8
0
 10
2935.5809906647050411
 20
107.2321282477125948
 30
0.0
 11
2935.5809906647050411
 21
99.0993068493126259
 31
0.0
  0
LINE
  5
5C60
  8
0
 10
2935.2753867289047776
 20
99.0993068493126259
 30
0.0
 11
2935.2753867289047776
 21
107.2321282477125948
 31
0.0
  0
LINE
  5
5C61
  8
0
 10
2935.213990664704852
 20
107.2321282477125948
 30
0.0
 11
2935.213990664704852
 21
99.0993068493126259
 31
0.0
  0
ARC
  5
5C62
  8
0
 10
2935.4281886968051367
 20
98.8911153178991356
 30
0.0
 40
0.2582482432591002
 50
53.7232296974303409
 51
126.2767703025696022
  0
ARC
  5
5C63
  8
0
 10
2935.6013684598169675
 20
107.2292585330369974
 30
0.0
 40
0.0411185318479527
 50
4.0019987134190984
 51
53.0612294386287218
  0
ARC
  5
5C64
  8
0
 10
2935.6190328747647982
 20
107.2308723251226041
 30
0.0
 40
0.0380629358802231
 50
124.8105388322531013
 51
178.1091283187114129
  0
ARC
  5
5C65
  8
0
 10
2935.2343684598167783
 20
107.2292585330369974
 30
0.0
 40
0.0411185318479527
 50
4.0019987134190984
 51
53.0612294386287218
  0
ARC
  5
5C66
  8
0
 10
2935.2520328747650638
 20
107.2308723251226041
 30
0.0
 40
0.0380629358802231
 50
124.8105388322531013
 51
178.1091283187114129
  0
LINE
  5
5C67
  8
0
 10
2934.9083867289050431
 20
99.0993068493126259
 30
0.0
 11
2934.9083867289050431
 21
107.2321282477125948
 31
0.0
  0
LINE
  5
5C68
  8
0
 10
2934.8469906647051175
 20
107.2321282477125948
 30
0.0
 11
2934.8469906647051175
 21
99.0993068493126259
 31
0.0
  0
LINE
  5
5C69
  8
0
 10
2934.541386728904854
 20
99.0993068493126259
 30
0.0
 11
2934.541386728904854
 21
107.2321282477125948
 31
0.0
  0
LINE
  5
5C6A
  8
0
 10
2934.4799906647049283
 20
107.2321282477125948
 30
0.0
 11
2934.4799906647049283
 21
99.0993068493126259
 31
0.0
  0
ARC
  5
5C6B
  8
0
 10
2934.6941886968052131
 20
98.8911153178991356
 30
0.0
 40
0.2582482432591002
 50
53.7232296974303409
 51
126.2767703025696022
  0
ARC
  5
5C6C
  8
0
 10
2934.8673684598161344
 20
107.2292585330369974
 30
0.0
 40
0.0411185318479527
 50
4.0019987134190984
 51
53.0612294386287218
  0
ARC
  5
5C6D
  8
0
 10
2934.8850328747648746
 20
107.2308723251226041
 30
0.0
 40
0.0380629358802231
 50
124.8105388322531013
 51
178.1091283187114129
  0
ARC
  5
5C6E
  8
0
 10
2934.5003684598168547
 20
107.2292585330369974
 30
0.0
 40
0.0411185318479527
 50
4.0019987134190984
 51
53.0612294386287218
  0
ARC
  5
5C6F
  8
0
 10
2934.5180328747651401
 20
107.2308723251226041
 30
0.0
 40
0.0380629358802231
 50
124.8105388322531013
 51
178.1091283187114129
  0
LINE
  5
5C70
  8
0
 10
2934.1743867289051195
 20
99.0993068493126259
 30
0.0
 11
2934.1743867289051195
 21
107.2321282477125948
 31
0.0
  0
LINE
  5
5C71
  8
0
 10
2934.1129906647051939
 20
107.2321282477125948
 30
0.0
 11
2934.1129906647051939
 21
99.0993068493126259
 31
0.0
  0
LINE
  5
5C72
  8
0
 10
2933.8073867289049304
 20
99.0993068493126259
 30
0.0
 11
2933.8073867289049304
 21
107.2321282477125948
 31
0.0
  0
LINE
  5
5C73
  8
0
 10
2933.7459906647040953
 20
107.2321282477125948
 30
0.0
 11
2933.7459906647040953
 21
99.0993068493126259
 31
0.0
  0
ARC
  5
5C74
  8
0
 10
2933.9601886968048348
 20
98.8911153178991356
 30
0.0
 40
0.2582482432591002
 50
53.7232296974303409
 51
126.2767703025696022
  0
ARC
  5
5C75
  8
0
 10
2934.1333684598162108
 20
107.2292585330369974
 30
0.0
 40
0.0411185318479527
 50
4.0019987134190984
 51
53.0612294386287218
  0
ARC
  5
5C76
  8
0
 10
2934.151032874764951
 20
107.2308723251226041
 30
0.0
 40
0.0380629358802231
 50
124.8105388322531013
 51
178.1091283187114129
  0
ARC
  5
5C77
  8
0
 10
2933.7663684598169311
 20
107.2292585330369974
 30
0.0
 40
0.0411185318479527
 50
4.0019987134190984
 51
53.0612294386287218
  0
ARC
  5
5C78
  8
0
 10
2933.7840328747652165
 20
107.2308723251226041
 30
0.0
 40
0.0380629358802231
 50
124.8105388322531013
 51
178.1091283187114129
  0
LINE
  5
5C79
  8
0
 10
2933.4403867289051959
 20
99.0993068493126259
 30
0.0
 11
2933.4403867289051959
 21
107.2321282477125948
 31
0.0
  0
LINE
  5
5C7A
  8
0
 10
2933.3789906647048156
 20
107.2321282477125948
 30
0.0
 11
2933.3789906647048156
 21
99.0993068493126259
 31
0.0
  0
LINE
  5
5C7B
  8
0
 10
2933.0733867289050067
 20
99.0993068493126259
 30
0.0
 11
2933.0733867289050067
 21
107.2321282477125948
 31
0.0
  0
LINE
  5
5C7C
  8
0
 10
2933.0119906647041716
 20
107.2321282477125948
 30
0.0
 11
2933.0119906647041716
 21
99.0993068493126259
 31
0.0
  0
ARC
  5
5C7D
  8
0
 10
2933.2261886968049112
 20
98.8911153178991356
 30
0.0
 40
0.2582482432591002
 50
53.7232296974303409
 51
126.2767703025696022
  0
ARC
  5
5C7E
  8
0
 10
2933.3993684598158325
 20
107.2292585330369974
 30
0.0
 40
0.0411185318479527
 50
4.0019987134190984
 51
53.0612294386287218
  0
ARC
  5
5C7F
  8
0
 10
2933.4170328747650274
 20
107.2308723251226041
 30
0.0
 40
0.0380629358802231
 50
124.8105388322531013
 51
178.1091283187114129
  0
ARC
  5
5C80
  8
0
 10
2933.0323684598170075
 20
107.2292585330369974
 30
0.0
 40
0.0411185318479527
 50
4.0019987134190984
 51
53.0612294386287218
  0
ARC
  5
5C81
  8
0
 10
2933.0500328747648382
 20
107.2308723251226041
 30
0.0
 40
0.0380629358802231
 50
124.8105388322531013
 51
178.1091283187114129
  0
LINE
  5
5C82
  8
0
 10
2932.7063867289048176
 20
99.0993068493126259
 30
0.0
 11
2932.7063867289048176
 21
107.2321282477125948
 31
0.0
  0
LINE
  5
5C83
  8
0
 10
2932.644990664704892
 20
107.2321282477125948
 30
0.0
 11
2932.644990664704892
 21
99.0993068493126259
 31
0.0
  0
LINE
  5
5C84
  8
0
 10
2932.3393867289050831
 20
99.0993068493126259
 30
0.0
 11
2932.3393867289050831
 21
107.2321282477125948
 31
0.0
  0
LINE
  5
5C85
  8
0
 10
2932.2779906647051575
 20
107.2321282477125948
 30
0.0
 11
2932.2779906647051575
 21
99.0993068493126259
 31
0.0
  0
ARC
  5
5C86
  8
0
 10
2932.4921886968049876
 20
98.8911153178991356
 30
0.0
 40
0.2582482432591002
 50
53.7232296974303409
 51
126.2767703025696022
  0
ARC
  5
5C87
  8
0
 10
2932.6653684598168184
 20
107.2292585330369974
 30
0.0
 40
0.0411185318479527
 50
4.0019987134190984
 51
53.0612294386287218
  0
ARC
  5
5C88
  8
0
 10
2932.6830328747651038
 20
107.2308723251226041
 30
0.0
 40
0.0380629358802231
 50
124.8105388322531013
 51
178.1091283187114129
  0
ARC
  5
5C89
  8
0
 10
2932.2983684598170839
 20
107.2292585330369974
 30
0.0
 40
0.0411185318479527
 50
4.0019987134190984
 51
53.0612294386287218
  0
ARC
  5
5C8A
  8
0
 10
2932.3160328747649146
 20
107.2308723251226041
 30
0.0
 40
0.0380629358802231
 50
124.8105388322531013
 51
178.1091283187114129
  0
LINE
  5
5C8B
  8
0
 10
2931.972386728904894
 20
99.0993068493126259
 30
0.0
 11
2931.972386728904894
 21
107.2321282477125948
 31
0.0
  0
LINE
  5
5C8C
  8
0
 10
2931.9109906647049684
 20
107.2321282477125948
 30
0.0
 11
2931.9109906647049684
 21
99.0993068493126259
 31
0.0
  0
LINE
  5
5C8D
  8
0
 10
2931.6053867289051595
 20
99.0993068493126259
 30
0.0
 11
2931.6053867289051595
 21
107.2321282477125948
 31
0.0
  0
LINE
  5
5C8E
  8
0
 10
2931.5439906647047792
 20
107.2321282477125948
 30
0.0
 11
2931.5439906647047792
 21
99.0993068493126259
 31
0.0
  0
ARC
  5
5C8F
  8
0
 10
2931.758188696805064
 20
98.8911153178991356
 30
0.0
 40
0.2582482432591002
 50
53.7232296974303409
 51
126.2767703025696022
  0
ARC
  5
5C90
  8
0
 10
2931.9313684598159853
 20
107.2292585330369974
 30
0.0
 40
0.0411185318479527
 50
4.0019987134190984
 51
53.0612294386287218
  0
ARC
  5
5C91
  8
0
 10
2931.9490328747651802
 20
107.2308723251226041
 30
0.0
 40
0.0380629358802231
 50
124.8105388322531013
 51
178.1091283187114129
  0
ARC
  5
5C92
  8
0
 10
2931.5643684598171603
 20
107.2292585330369974
 30
0.0
 40
0.0411185318479527
 50
4.0019987134190984
 51
53.0612294386287218
  0
ARC
  5
5C93
  8
0
 10
2931.582032874764991
 20
107.2308723251226041
 30
0.0
 40
0.0380629358802231
 50
124.8105388322531013
 51
178.1091283187114129
  0
LINE
  5
5C94
  8
0
 10
2931.2383867289049704
 20
99.0993068493126259
 30
0.0
 11
2931.2383867289049704
 21
107.234543132762596
 31
0.0
  0
LINE
  5
5C95
  8
0
 10
2931.1769906647050448
 20
107.234543132762596
 30
0.0
 11
2931.1769906647050448
 21
99.0993068493126259
 31
0.0
  0
ARC
  5
5C96
  8
0
 10
2931.0270299901221733
 20
98.9113302709342861
 30
0.0
 40
0.2404649619804931
 50
51.4184456546873392
 51
90.6770129933291287
  0
ARC
  5
5C97
  8
0
 10
2931.1973684598160617
 20
107.2316734180869986
 30
0.0
 40
0.0411185318479527
 50
4.0019987134190984
 51
53.0612294386287218
  0
ARC
  5
5C98
  8
0
 10
2931.2150328747648018
 20
107.2332872101726053
 30
0.0
 40
0.0380629358802231
 50
124.8105388322531013
 51
178.1091283187114129
  0
ARC
  5
5C99
  8
0
 10
2948.4502855765617824
 20
107.3662973742074058
 30
0.0
 40
0.0432416242899316
 50
130.2375641136370916
 51
176.0091772589489096
  0
ARC
  5
5C9A
  8
0
 10
2948.2637677665052252
 20
98.9198739989667359
 30
0.0
 40
0.2296829765709677
 50
51.3723797571946506
 51
128.6276202428053068
  0
ARC
  5
5C9B
  8
0
 10
2947.539188696805013
 20
98.8911153178991356
 30
0.0
 40
0.2582482432591002
 50
53.7232296974303409
 51
126.2767703025696022
  0
ARC
  5
5C9C
  8
0
 10
2947.1721886968048238
 20
98.8911153178991356
 30
0.0
 40
0.2582482432591002
 50
53.7232296974303409
 51
126.2767703025696022
  0
ARC
  5
5C9D
  8
0
 10
2946.4381886968049002
 20
98.8911153178991356
 30
0.0
 40
0.2582482432591002
 50
53.7232296974303409
 51
126.2767703025696022
  0
ARC
  5
5C9E
  8
0
 10
2945.7041886968049766
 20
98.8911153178991356
 30
0.0
 40
0.2582482432591002
 50
53.7232296974303409
 51
126.2767703025696022
  0
ARC
  5
5C9F
  8
0
 10
2944.970188696805053
 20
98.8911153178991356
 30
0.0
 40
0.2582482432591002
 50
53.7232296974303409
 51
126.2767703025696022
  0
ARC
  5
5CA0
  8
0
 10
2944.2361886968051294
 20
98.8911153178991356
 30
0.0
 40
0.2582482432591002
 50
53.7232296974303409
 51
126.2767703025696022
  0
ARC
  5
5CA1
  8
0
 10
2943.5021886968052058
 20
98.8911153178991356
 30
0.0
 40
0.2582482432591002
 50
53.7232296974303409
 51
126.2767703025696022
  0
ARC
  5
5CA2
  8
0
 10
2942.4011886968050931
 20
98.8911153178991356
 30
0.0
 40
0.2582482432591002
 50
53.7232296974303409
 51
126.2767703025696022
  0
ARC
  5
5CA3
  8
0
 10
2941.6671886968051695
 20
98.8911153178991356
 30
0.0
 40
0.2582482432591002
 50
53.7232296974303409
 51
126.2767703025696022
  0
ARC
  5
5CA4
  8
0
 10
2940.9331886968047911
 20
98.8911153178991356
 30
0.0
 40
0.2582482432591002
 50
53.7232296974303409
 51
126.2767703025696022
  0
ARC
  5
5CA5
  8
0
 10
2940.1991886968048675
 20
98.8911153178991356
 30
0.0
 40
0.2582482432591002
 50
53.7232296974303409
 51
126.2767703025696022
  0
ARC
  5
5CA6
  8
0
 10
2939.4651886968049439
 20
98.8911153178991356
 30
0.0
 40
0.2582482432591002
 50
53.7232296974303409
 51
126.2767703025696022
  0
ARC
  5
5CA7
  8
0
 10
2938.7311886968041108
 20
98.8911153178991356
 30
0.0
 40
0.2582482432591002
 50
53.7232296974303409
 51
126.2767703025696022
  0
ARC
  5
5CA8
  8
0
 10
2937.9971886968050967
 20
98.8911153178991356
 30
0.0
 40
0.2582482432591002
 50
53.7232296974303409
 51
126.2767703025696022
  0
ARC
  5
5CA9
  8
0
 10
2937.2631886968051731
 20
98.8911153178991356
 30
0.0
 40
0.2582482432591002
 50
53.7232296974303409
 51
126.2767703025696022
  0
ARC
  5
5CAA
  8
0
 10
2936.5291886968047947
 20
98.8911153178991356
 30
0.0
 40
0.2582482432591002
 50
53.7232296974303409
 51
126.2767703025696022
  0
ARC
  5
5CAB
  8
0
 10
2935.7951886968048711
 20
98.8911153178991356
 30
0.0
 40
0.2582482432591002
 50
53.7232296974303409
 51
126.2767703025696022
  0
ARC
  5
5CAC
  8
0
 10
2935.0611886968049475
 20
98.8911153178991356
 30
0.0
 40
0.2582482432591002
 50
53.7232296974303409
 51
126.2767703025696022
  0
ARC
  5
5CAD
  8
0
 10
2934.3271886968050239
 20
98.8911153178991356
 30
0.0
 40
0.2582482432591002
 50
53.7232296974303409
 51
126.2767703025696022
  0
ARC
  5
5CAE
  8
0
 10
2933.5931886968051003
 20
98.8911153178991356
 30
0.0
 40
0.2582482432591002
 50
53.7232296974303409
 51
126.2767703025696022
  0
ARC
  5
5CAF
  8
0
 10
2932.8591886968051767
 20
98.8911153178991356
 30
0.0
 40
0.2582482432591002
 50
53.7232296974303409
 51
126.2767703025696022
  0
ARC
  5
5CB0
  8
0
 10
2932.1251886968047984
 20
98.8911153178991356
 30
0.0
 40
0.2582482432591002
 50
53.7232296974303409
 51
126.2767703025696022
  0
ARC
  5
5CB1
  8
0
 10
2931.3911886968048748
 20
98.8911153178991356
 30
0.0
 40
0.2582482432591002
 50
53.7232296974303409
 51
126.2767703025696022
  0
ARC
  5
5CB2
  8
0
 10
2948.5422031315479217
 20
107.3662973742074058
 30
0.0
 40
0.0432416242899316
 50
3.9908227410510602
 51
49.7624358863629084
  0
ARC
  5
5CB3
  8
0
 10
2948.1021274371628351
 20
107.3662973742074058
 30
0.0
 40
0.0432416242899316
 50
130.2375641136370916
 51
176.0091772589489096
  0
ARC
  5
5CB4
  8
0
 10
2948.0772499564482132
 20
107.3662973742074058
 30
0.0
 40
0.0432416242899316
 50
3.9908227410510602
 51
49.7624358863629084
  0
ENDSEC
  0
EOF
