  0
SECTION
  2
HEADER
  9
$ACADVER
  1
AC1009
  9
$INSBASE
 10
383.78203481836709
 20
10.441309118704361
 30
0.0
  9
$EXTMIN
 10
366.45208305646702
 20
10.441309118704361
 30
0.0
  9
$EXTMAX
 10
401.111986580267
 20
36.045412525404402
 30
0.0
  9
$LIMMIN
 10
0.0
 20
0.0
  9
$LIMMAX
 10
11.692913385800001
 20
8.2677165353999982
  9
$ORTHOMODE
 70
     0
  9
$REGENMODE
 70
     1
  9
$FILLMODE
 70
     1
  9
$QTEXTMODE
 70
     0
  9
$MIRRTEXT
 70
     0
  9
$DRAGMODE
 70
     2
  9
$LTSCALE
 40
0.6431102362
  9
$OSMODE
 70
  3071
  9
$ATTMODE
 70
     1
  9
$TEXTSIZE
 40
0.2
  9
$TRACEWID
 40
0.05
  9
$TEXTSTYLE
  7
STANDARD
  9
$CLAYER
  8
0
  9
$CELTYPE
  6
BYLAYER
  9
$CECOLOR
 62
   256
  9
$DIMSCALE
 40
1.0
  9
$DIMASZ
 40
0.1875
  9
$DIMEXO
 40
0.0625
  9
$DIMDLI
 40
0.4443307087
  9
$DIMRND
 40
0.0
  9
$DIMDLE
 40
0.0
  9
$DIMEXE
 40
0.125
  9
$DIMTP
 40
0.01
  9
$DIMTM
 40
0.01
  9
$DIMTXT
 40
2.0
  9
$DIMCEN
 40
0.1052362205
  9
$DIMTSZ
 40
0.0
  9
$DIMTOL
 70
     1
  9
$DIMLIM
 70
     0
  9
$DIMTIH
 70
     1
  9
$DIMTOH
 70
     1
  9
$DIMSE1
 70
     0
  9
$DIMSE2
 70
     0
  9
$DIMTAD
 70
     0
  9
$DIMZIN
 70
     0
  9
$DIMBLK
  1

  9
$DIMASO
 70
     1
  9
$DIMSHO
 70
     1
  9
$DIMPOST
  1
\X
  9
$DIMAPOST
  1

  9
$DIMALT
 70
     1
  9
$DIMALTD
 70
     2
  9
$DIMALTF
 40
25.399999999999999
  9
$DIMLFAC
 40
1.0
  9
$DIMTOFL
 70
     0
  9
$DIMTVP
 40
0.0
  9
$DIMTIX
 70
     0
  9
$DIMSOXD
 70
     0
  9
$DIMSAH
 70
     0
  9
$DIMBLK1
  1

  9
$DIMBLK2
  1

  9
$DIMSTYLE
  2
STANDARD
  9
$DIMCLRD
 70
     0
  9
$DIMCLRE
 70
     0
  9
$DIMCLRT
 70
     0
  9
$DIMTFAC
 40
1.0
  9
$DIMGAP
 40
0.09
  9
$LUNITS
 70
     2
  9
$LUPREC
 70
     4
  9
$SKETCHINC
 40
0.1
  9
$FILLETRAD
 40
0.0
  9
$AUNITS
 70
     0
  9
$AUPREC
 70
     0
  9
$MENU
  1
.
  9
$ELEVATION
 40
0.0
  9
$PELEVATION
 40
0.0
  9
$THICKNESS
 40
0.0
  9
$LIMCHECK
 70
     0
  9
$BLIPMODE
 70
     0
  9
$CHAMFERA
 40
0.0
  9
$CHAMFERB
 40
0.0
  9
$SKPOLY
 70
     0
  9
$TDCREATE
 40
2458071.6087475121
  9
$TDUPDATE
 40
2458297.5084214821
  9
$TDINDWG
 40
0.0439291898
  9
$TDUSRTIMER
 40
0.0439291898
  9
$USRTIMER
 70
     1
  9
$ANGBASE
 50
0.0
  9
$ANGDIR
 70
     0
  9
$PDMODE
 70
     0
  9
$PDSIZE
 40
0.3125
  9
$PLINEWID
 40
0.0
  9
$COORDS
 70
     1
  9
$SPLFRAME
 70
     0
  9
$SPLINETYPE
 70
     6
  9
$SPLINESEGS
 70
     8
  9
$ATTDIA
 70
     1
  9
$ATTREQ
 70
     1
  9
$HANDLING
 70
     1
  9
$HANDSEED
  5
1328
  9
$SURFTAB1
 70
     6
  9
$SURFTAB2
 70
     6
  9
$SURFTYPE
 70
     6
  9
$SURFU
 70
     6
  9
$SURFV
 70
     6
  9
$UCSNAME
  2

  9
$UCSORG
 10
0.0
 20
0.0
 30
0.0
  9
$UCSXDIR
 10
1.0
 20
0.0
 30
0.0
  9
$UCSYDIR
 10
0.0
 20
1.0
 30
0.0
  9
$PUCSNAME
  2

  9
$PUCSORG
 10
0.0
 20
0.0
 30
0.0
  9
$PUCSXDIR
 10
1.0
 20
0.0
 30
0.0
  9
$PUCSYDIR
 10
0.0
 20
1.0
 30
0.0
  9
$USERI1
 70
     0
  9
$USERI2
 70
     0
  9
$USERI3
 70
     0
  9
$USERI4
 70
     0
  9
$USERI5
 70
     0
  9
$USERR1
 40
0.0
  9
$USERR2
 40
0.0
  9
$USERR3
 40
0.0
  9
$USERR4
 40
0.0
  9
$USERR5
 40
0.0
  9
$WORLDVIEW
 70
     1
  9
$SHADEDGE
 70
     3
  9
$SHADEDIF
 70
    70
  9
$TILEMODE
 70
     1
  9
$MAXACTVP
 70
    64
  9
$PLIMCHECK
 70
     0
  9
$PEXTMIN
 10
1.0000000000000000E+020
 20
1.0000000000000000E+020
 30
1.0000000000000000E+020
  9
$PEXTMAX
 10
-1.0000000000000000E+020
 20
-1.0000000000000000E+020
 30
-1.0000000000000000E+020
  9
$PLIMMIN
 10
0.0
 20
0.0
  9
$PLIMMAX
 10
12.0
 20
9.0
  9
$UNITMODE
 70
     0
  9
$VISRETAIN
 70
     1
  9
$PLINEGEN
 70
     0
  9
$PSLTSCALE
 70
     1
  0
ENDSEC
  0
SECTION
  2
TABLES
  0
TABLE
  2
VPORT
 70
     1
  0
VPORT
  2
*ACTIVE
 70
     0
 10
0.0
 20
0.0
 11
1.0
 21
1.0
 12
0.0
 22
0.0
 13
0.0
 23
0.0
 14
1.0
 24
1.0
 15
0.0
 25
0.0
 16
0.0
 26
0.0
 36
121.279693801533
 17
383.78203481836709
 27
23.243360822054381
 37
0.0
 40
43.108767191036023
 41
2.1006711409395971
 42
50.0
 43
0.0
 44
0.0
 50
0.0
 51
0.0
 71
     0
 72
   100
 73
     1
 74
     1
 75
     0
 76
     0
 77
     0
 78
     0
  0
ENDTAB
  0
TABLE
  2
LTYPE
 70
     2
  0
LTYPE
  2
CONTINUOUS
 70
     0
  3
Solid line
 72
    65
 73
     0
 40
0.0
  0
LTYPE
  2
PHANTOM2
 70
     0
  3
___ _ _ ___ _ _ ___ _ _ ___ _ _
 72
    65
 73
     6
 40
1.25
 49
0.625
 49
-0.125
 49
0.125
 49
-0.125
 49
0.125
 49
-0.125
  0
ENDTAB
  0
TABLE
  2
LAYER
 70
     2
  0
LAYER
  2
0
 70
     0
 62
   255
  6
CONTINUOUS
  0
LAYER
  2
DEFPOINTS
 70
     0
 62
     7
  6
CONTINUOUS
  0
ENDTAB
  0
TABLE
  2
STYLE
 70
     1
  0
STYLE
  2
STANDARD
 70
     0
 40
0.0
 41
0.8
 50
0.0
 71
     0
 42
0.2
  3
txt
  4

  0
ENDTAB
  0
TABLE
  2
VIEW
 70
     0
  0
ENDTAB
  0
TABLE
  2
UCS
 70
     0
  0
ENDTAB
  0
TABLE
  2
APPID
 70
     9
  0
APPID
  2
ACAD
 70
     0
  0
APPID
  2
ACAD_MLEADERVER
 70
     0
  0
APPID
  2
ACAD_EXEMPT_FROM_CAD_STANDARDS
 70
     0
  0
APPID
  2
ACAD_NAV_VCDISPLAY
 70
     0
  0
APPID
  2
ACAD_DSTYLE_DIMJAG
 70
     0
  0
APPID
  2
ACAD_DSTYLE_DIMTALN
 70
     0
  0
APPID
  2
ACAECLAYERSTANDARD
 70
     0
  0
APPID
  2
ACCMTRANSPARENCY
 70
     0
  0
APPID
  2
ACDBATTR
 70
     0
  0
ENDTAB
  0
TABLE
  2
DIMSTYLE
 70
     1
  0
DIMSTYLE
  2
STANDARD
 70
     0
  3

  4

  5

  6

  7

 40
1.0
 41
0.1875
 42
0.0625
 43
0.38
 44
0.125
 45
0.0
 46
0.0
 47
0.01
 48
0.01
140
0.15625
141
0.09
142
0.0
143
25.399999999999999
144
1.0
145
0.0
146
1.0
147
0.09
 71
     1
 72
     0
 73
     1
 74
     1
 75
     0
 76
     0
 77
     0
 78
     4
170
     0
171
     2
172
     0
173
     0
174
     0
175
     0
176
     0
177
     0
178
     0
  0
ENDTAB
  0
ENDSEC
  0
SECTION
  2
BLOCKS
  0
BLOCK
  8
0
  2
$MODEL_SPACE
 70
     0
 10
0.0
 20
0.0
 30
0.0
  3
$MODEL_SPACE
  1

  0
ENDBLK
  5
21
  8
0
  0
BLOCK
 67
     1
  8
0
  2
$PAPER_SPACE
 70
     0
 10
0.0
 20
0.0
 30
0.0
  3
$PAPER_SPACE
  1

  0
ENDBLK
  5
1D
 67
     1
  8
0
  0
ENDSEC
  0
SECTION
  2
ENTITIES
  0
ATTDEF
  5
101C
  8
DEFPOINTS
 10
383.77850033845522
 20
10.453868375587749
 30
0.0
 40
0.001
  1
K-24002
  3

  2
MODELNUMBER
 70
     0
1001
ACDBATTR
1070
     0
1070
     1
  0
ATTDEF
  5
101D
  8
DEFPOINTS
 10
383.77850033845522
 20
10.452201708921081
 30
0.0
 40
0.001
  1
SUNSTRUCK
  3

  2
TRADENAME
 70
     0
1001
ACDBATTR
1070
     0
1070
     1
  0
ATTDEF
  5
101E
  8
DEFPOINTS
 10
383.77850033845522
 20
10.450535042254421
 30
0.0
 40
0.001
  1
BATH
  3

  2
PRODUCT
 70
     0
1001
ACDBATTR
1070
     0
1070
     1
  0
ATTDEF
  5
101F
  8
DEFPOINTS
 10
383.77850033845522
 20
10.44886837558775
 30
0.0
 40
0.001
  1
ACRYLIC
  3

  2
MATERIAL
 70
     0
1001
ACDBATTR
1070
     0
1070
     1
  0
LINE
  5
11CA
  8
0
 10
370.53207520984859
 20
11.173246662892261
 30
0.0
 11
370.53207314276699
 21
10.441309118704361
 31
0.0
  0
LINE
  5
11CB
  8
0
 10
370.53207314276699
 20
10.441309118704361
 30
0.0
 11
397.03199649396697
 21
10.441309118704361
 31
0.0
  0
LINE
  5
11CC
  8
0
 10
370.36404701845032
 20
11.567014962304359
 30
0.0
 11
397.20002261828381
 21
11.56701496230434
 31
0.0
  0
LINE
  5
11CD
  8
0
 10
366.45208305646702
 20
34.81768738490436
 30
0.0
 11
366.49801304716709
 21
35.689922755604357
 31
0.0
  0
LINE
  5
11CE
  8
0
 10
366.45208305646702
 20
34.81768738490436
 30
0.0
 11
401.111986580267
 21
34.81768738490436
 31
0.0
  0
ARC
  5
11CF
  8
0
 10
366.90006781646281
 20
35.640434134055127
 30
0.0
 40
0.4050890780758152
 50
91.339430008330595
 51
172.98280229883241
  0
LINE
  5
11D0
  8
0
 10
366.89059872376708
 20
36.045412525404387
 30
0.0
 11
400.67347091296671
 21
36.045412525404402
 31
0.0
  0
ARC
  5
11D1
  8
0
 10
370.02490917529138
 20
11.17059893761996
 30
0.0
 40
0.5071729459045842
 50
0.2991172438639869
 51
40.438693341379398
  0
ARC
  5
11D2
  8
0
 10
370.72293854699188
 20
11.766415906480381
 30
0.0
 40
0.4105653002839764
 50
209.05664888012041
 51
220.53790841024841
  0
ARC
  5
11D3
  8
0
 10
373.07697832600411
 20
13.22563051988007
 30
0.0
 40
3.179780157076594
 50
208.9154432827649
 51
211.4405294756067
  0
ARC
  5
11D4
  8
0
 10
387.14277953013169
 20
21.463936893630411
 30
0.0
 40
19.479749050482269
 50
183.63076164200069
 51
210.1220501024375
  0
ARC
  5
11D5
  8
0
 10
560.36344717176553
 20
37.974723915263638
 30
0.0
 40
193.476732962754
 50
180.93495943486289
 51
185.26217330726431
  0
LINE
  5
11D6
  8
0
 10
397.03199442688549
 20
11.173246662892261
 30
0.0
 11
397.03199649396709
 21
10.441309118704361
 31
0.0
  0
LINE
  5
11D7
  8
0
 10
401.111986580267
 20
34.81768738490436
 30
0.0
 11
401.06605658956693
 21
35.689922755604357
 31
0.0
  0
ARC
  5
11D8
  8
0
 10
400.66400182027132
 20
35.640434134055127
 30
0.0
 40
0.4050890780758152
 50
7.017197701168417
 51
88.660569991675914
  0
ARC
  5
11D9
  8
0
 10
397.53916046144269
 20
11.17059893761996
 30
0.0
 40
0.5071729459045842
 50
139.56130665862131
 51
179.700882756136
  0
ARC
  5
11DA
  8
0
 10
396.84113108974208
 20
11.766415906480381
 30
0.0
 40
0.4105653002839764
 50
319.4620915897487
 51
330.94335111987658
  0
ARC
  5
11DB
  8
0
 10
394.48709131073002
 20
13.22563051988007
 30
0.0
 40
3.179780157076594
 50
328.5594705243933
 51
331.08455671723829
  0
ARC
  5
11DC
  8
0
 10
380.42129010660233
 20
21.463936893630411
 30
0.0
 40
19.479749050482269
 50
329.87794989756571
 51
356.36923835799922
  0
ARC
  5
11DD
  8
0
 10
207.2006224649684
 20
37.974723915263638
 30
0.0
 40
193.476732962754
 50
354.73782669273709
 51
359.065040565137
  0
ENDSEC
  0
EOF
