  0
SECTION
  2
HEADER
  9
$ACADVER
  1
AC1009
  9
$INSBASE
 10
0.0
 20
0.0
 30
0.0
  9
$EXTMIN
 10
-8.2505986235899087
 20
-8.2502257428505956
 30
-0.0000000000000053
  9
$EXTMAX
 10
8.2510733939318328
 20
8.2520795350411191
 30
0.0000000000000099
  9
$LIMMIN
 10
0.0
 20
0.0
  9
$LIMMAX
 10
34.0
 20
22.0
  9
$ORTHOMODE
 70
     1
  9
$REGENMODE
 70
     1
  9
$FILLMODE
 70
     1
  9
$QTEXTMODE
 70
     0
  9
$MIRRTEXT
 70
     0
  9
$DRAGMODE
 70
     2
  9
$LTSCALE
 40
1.8700000000000001
  9
$OSMODE
 70
  2727
  9
$ATTMODE
 70
     1
  9
$TEXTSIZE
 40
0.2
  9
$TRACEWID
 40
0.05
  9
$TEXTSTYLE
  7
STANDARD
  9
$CLAYER
  8
0
  9
$CELTYPE
  6
ByLayer
  9
$CECOLOR
 62
   256
  9
$DIMSCALE
 40
1.0
  9
$DIMASZ
 40
0.1875
  9
$DIMEXO
 40
0.2125
  9
$DIMDLI
 40
1.291999999999998
  9
$DIMRND
 40
0.0
  9
$DIMDLE
 40
0.0
  9
$DIMEXE
 40
0.612
  9
$DIMTP
 40
0.0
  9
$DIMTM
 40
0.0
  9
$DIMTXT
 40
0.15625
  9
$DIMCEN
 40
0.306
  9
$DIMTSZ
 40
0.0
  9
$DIMTOL
 70
     0
  9
$DIMLIM
 70
     0
  9
$DIMTIH
 70
     1
  9
$DIMTOH
 70
     1
  9
$DIMSE1
 70
     0
  9
$DIMSE2
 70
     0
  9
$DIMTAD
 70
     0
  9
$DIMZIN
 70
     0
  9
$DIMBLK
  1

  9
$DIMASO
 70
     1
  9
$DIMSHO
 70
     1
  9
$DIMPOST
  1

  9
$DIMAPOST
  1

  9
$DIMALT
 70
     0
  9
$DIMALTD
 70
     2
  9
$DIMALTF
 40
25.399999999999999
  9
$DIMLFAC
 40
1.0
  9
$DIMTOFL
 70
     0
  9
$DIMTVP
 40
0.0
  9
$DIMTIX
 70
     0
  9
$DIMSOXD
 70
     0
  9
$DIMSAH
 70
     0
  9
$DIMBLK1
  1

  9
$DIMBLK2
  1

  9
$DIMSTYLE
  2
STANDARD
  9
$DIMCLRD
 70
     0
  9
$DIMCLRE
 70
     0
  9
$DIMCLRT
 70
     0
  9
$DIMTFAC
 40
1.0
  9
$DIMGAP
 40
0.09
  9
$LUNITS
 70
     2
  9
$LUPREC
 70
     4
  9
$SKETCHINC
 40
0.1
  9
$FILLETRAD
 40
0.0
  9
$AUNITS
 70
     0
  9
$AUPREC
 70
     0
  9
$MENU
  1
.
  9
$ELEVATION
 40
0.0
  9
$PELEVATION
 40
0.0
  9
$THICKNESS
 40
0.0
  9
$LIMCHECK
 70
     0
  9
$BLIPMODE
 70
     0
  9
$CHAMFERA
 40
0.0
  9
$CHAMFERB
 40
0.0
  9
$SKPOLY
 70
     0
  9
$TDCREATE
 40
2454511.3165632291
  9
$TDUPDATE
 40
2454552.7706523729
  9
$TDINDWG
 40
0.0600099306
  9
$TDUSRTIMER
 40
0.0600090162
  9
$USRTIMER
 70
     1
  9
$ANGBASE
 50
0.0
  9
$ANGDIR
 70
     0
  9
$PDMODE
 70
     3
  9
$PDSIZE
 40
0.3125
  9
$PLINEWID
 40
0.0
  9
$COORDS
 70
     1
  9
$SPLFRAME
 70
     0
  9
$SPLINETYPE
 70
     6
  9
$SPLINESEGS
 70
     8
  9
$ATTDIA
 70
     0
  9
$ATTREQ
 70
     1
  9
$HANDLING
 70
     1
  9
$HANDSEED
  5
AD8
  9
$SURFTAB1
 70
     6
  9
$SURFTAB2
 70
     6
  9
$SURFTYPE
 70
     6
  9
$SURFU
 70
     6
  9
$SURFV
 70
     6
  9
$UCSNAME
  2

  9
$UCSORG
 10
0.0
 20
0.0
 30
0.0
  9
$UCSXDIR
 10
1.0
 20
0.0
 30
0.0
  9
$UCSYDIR
 10
0.0
 20
1.0
 30
0.0
  9
$PUCSNAME
  2

  9
$PUCSORG
 10
0.0
 20
0.0
 30
0.0
  9
$PUCSXDIR
 10
1.0
 20
0.0
 30
0.0
  9
$PUCSYDIR
 10
0.0
 20
1.0
 30
0.0
  9
$USERI1
 70
     0
  9
$USERI2
 70
     0
  9
$USERI3
 70
     0
  9
$USERI4
 70
     0
  9
$USERI5
 70
     0
  9
$USERR1
 40
0.0
  9
$USERR2
 40
0.0
  9
$USERR3
 40
0.0
  9
$USERR4
 40
0.0
  9
$USERR5
 40
0.0
  9
$WORLDVIEW
 70
     1
  9
$SHADEDGE
 70
     3
  9
$SHADEDIF
 70
    70
  9
$TILEMODE
 70
     1
  9
$MAXACTVP
 70
    64
  9
$PLIMCHECK
 70
     0
  9
$PEXTMIN
 10
1.0000000000000000E+020
 20
1.0000000000000000E+020
 30
1.0000000000000000E+020
  9
$PEXTMAX
 10
-1.0000000000000000E+020
 20
-1.0000000000000000E+020
 30
-1.0000000000000000E+020
  9
$PLIMMIN
 10
0.0
 20
0.0
  9
$PLIMMAX
 10
12.0
 20
9.0
  9
$UNITMODE
 70
     0
  9
$VISRETAIN
 70
     1
  9
$PLINEGEN
 70
     0
  9
$PSLTSCALE
 70
     1
  0
ENDSEC
  0
SECTION
  2
TABLES
  0
TABLE
  2
VPORT
 70
     1
  0
VPORT
  2
*ACTIVE
 70
     0
 10
0.0
 20
0.0
 11
1.0
 21
1.0
 12
0.0002373851709612
 22
0.0009268960952618
 13
0.0
 23
0.0
 14
1.0
 24
1.0
 15
0.0
 25
0.0
 16
0.0
 26
0.0
 36
1.0
 17
0.0
 27
0.0
 37
0.0
 40
16.626382761184129
 41
1.5345043914680041
 42
50.0
 43
0.0
 44
0.0
 50
0.0
 51
0.0
 71
     0
 72
   100
 73
     1
 74
     1
 75
     0
 76
     0
 77
     0
 78
     0
  0
ENDTAB
  0
TABLE
  2
LTYPE
 70
     3
  0
LTYPE
  2
ByBlock
 70
     0
  3

 72
    65
 73
     0
 40
0.0
  0
LTYPE
  2
ByLayer
 70
     0
  3

 72
    65
 73
     0
 40
0.0
  0
LTYPE
  2
CONTINUOUS
 70
     0
  3
Solid line
 72
    65
 73
     0
 40
0.0
  0
ENDTAB
  0
TABLE
  2
LAYER
 70
     2
  0
LAYER
  2
0
 70
     0
 62
     7
  6
CONTINUOUS
  0
LAYER
  2
TEXT
 70
     0
 62
     7
  6
CONTINUOUS
  0
ENDTAB
  0
TABLE
  2
STYLE
 70
     1
  0
STYLE
  2
STANDARD
 70
     0
 40
0.0
 41
0.8
 50
0.0
 71
     0
 42
0.2
  3
txt
  4

  0
ENDTAB
  0
TABLE
  2
VIEW
 70
     0
  0
ENDTAB
  0
TABLE
  2
UCS
 70
     0
  0
ENDTAB
  0
TABLE
  2
APPID
 70
     2
  0
APPID
  2
ACAD
 70
     0
  0
APPID
  2
ACAECLAYERSTANDARD
 70
     0
  0
ENDTAB
  0
TABLE
  2
DIMSTYLE
 70
     1
  0
DIMSTYLE
  2
STANDARD
 70
     0
  3

  4

  5

  6

  7

 40
1.0
 41
0.18
 42
0.0625
 43
0.38
 44
0.18
 45
0.0
 46
0.0
 47
0.0
 48
0.0
140
0.18
141
0.09
142
0.0
143
25.399999999999999
144
1.0
145
0.0
146
1.0
147
0.09
 71
     0
 72
     0
 73
     1
 74
     1
 75
     0
 76
     0
 77
     0
 78
     0
170
     0
171
     2
172
     0
173
     0
174
     0
175
     0
176
     0
177
     0
178
     0
  0
ENDTAB
  0
ENDSEC
  0
SECTION
  2
BLOCKS
  0
BLOCK
  8
0
  2
$MODEL_SPACE
 70
     0
 10
0.0
 20
0.0
 30
0.0
  3
$MODEL_SPACE
  1

  0
ENDBLK
  5
A48
  8
0
  0
BLOCK
 67
     1
  8
0
  2
$PAPER_SPACE
 70
     0
 10
0.0
 20
0.0
 30
0.0
  3
$PAPER_SPACE
  1

  0
ENDBLK
  5
A44
 67
     1
  8
0
  0
ENDSEC
  0
SECTION
  2
ENTITIES
  0
POLYLINE
  5
56
  8
0
 66
     1
 10
0.0
 20
0.0
 30
0.0
  0
VERTEX
  5
A5C
  8
0
 10
-2.392721824000001
 20
-2.3481600319999991
 30
0.0
  0
VERTEX
  5
A5D
  8
0
 10
-2.392377535800001
 20
-2.3515919120999982
 30
0.0
  0
VERTEX
  5
A5E
  8
0
 10
-2.391856479700003
 20
-2.354864269399997
 30
0.0
  0
VERTEX
  5
A5F
  8
0
 10
-2.3911746799000042
 20
-2.357979122399998
 30
0.0
  0
VERTEX
  5
A60
  8
0
 10
-2.3903526637000021
 20
-2.3609360378000002
 30
0.0
  0
VERTEX
  5
A61
  8
0
 10
-2.3894006792
 20
-2.3637412323999989
 30
0.0
  0
VERTEX
  5
A62
  8
0
 10
-2.3883151050000002
 20
-2.3664050750999981
 30
0.0
  0
VERTEX
  5
A63
  8
0
 10
-2.3871033545000011
 20
-2.3689276749000001
 30
0.0
  0
VERTEX
  5
A64
  8
0
 10
-2.385778280100002
 20
-2.3713116518999979
 30
0.0
  0
VERTEX
  5
A65
  8
0
 10
-2.3843383049
 20
-2.3735674651999989
 30
0.0
  0
VERTEX
  5
A66
  8
0
 10
-2.3827917540999999
 20
-2.3756930466999981
 30
0.0
  0
VERTEX
  5
A67
  8
0
 10
-2.3811446084000032
 20
-2.3776911344999991
 30
0.0
  0
VERTEX
  5
A68
  8
0
 10
-2.379385994200002
 20
-2.379574848599999
 30
0.0
  0
VERTEX
  5
A69
  8
0
 10
-2.3775178636000001
 20
-2.381340224399997
 30
0.0
  0
VERTEX
  5
A6A
  8
0
 10
-2.3755452682999998
 20
-2.3829864261999969
 30
0.0
  0
VERTEX
  5
A6B
  8
0
 10
-2.3734558392
 20
-2.384525199499997
 30
0.0
  0
VERTEX
  5
A6C
  8
0
 10
-2.3712486108000022
 20
-2.3859519264999971
 30
0.0
  0
VERTEX
  5
A6D
  8
0
 10
-2.368925705600001
 20
-2.3872596474000001
 30
0.0
  0
VERTEX
  5
A6E
  8
0
 10
-2.3664745356000001
 20
-2.388450664399997
 30
0.0
  0
VERTEX
  5
A6F
  8
0
 10
-2.3638926622
 20
-2.389513656399997
 30
0.0
  0
VERTEX
  5
A70
  8
0
 10
-2.361180574600001
 20
-2.390442270499999
 30
0.0
  0
VERTEX
  5
A71
  8
0
 10
-2.3583259739
 20
-2.391239913299998
 30
0.0
  0
VERTEX
  5
A72
  8
0
 10
-2.3553219469000002
 20
-2.3918972083999992
 30
0.0
  0
VERTEX
  5
A73
  8
0
 10
-2.3521695297999998
 20
-2.392395685499999
 30
0.0
  0
VERTEX
  5
A74
  8
0
 10
-2.3488664315999999
 20
-2.392720921799997
 30
0.0
  0
SEQEND
  5
A75
  8
0
  0
LINE
  5
92
  8
0
 10
-2.3919419042999999
 20
-0.473313157199998
 30
0.0
 11
-2.392842270400001
 21
2.217636297699999
 31
0.0
  0
LINE
  5
93
  8
0
 10
-2.3928098363000032
 20
-1.786834208799998
 30
0.0
 11
-2.3927208185000022
 21
-2.3481592694999982
 31
0.0
  0
LINE
  5
94
  8
0
 10
-2.3919419042999999
 20
-0.473313157199998
 30
0.0
 11
-2.3922755269000029
 21
-1.057947201799998
 31
0.0
  0
LINE
  5
95
  8
0
 10
-2.3922755269000029
 20
-1.057947201799998
 30
0.0
 11
-2.3928098363000032
 21
-1.786834208799998
 31
0.0
  0
LINE
  5
96
  8
0
 10
-2.392842270400001
 20
2.217636297699999
 30
0.0
 11
-2.3927208185000022
 21
2.3481592695999991
 31
0.0
  0
POLYLINE
  5
BF
  8
0
 66
     1
 10
0.0
 20
0.0
 30
0.0
  0
VERTEX
  5
A76
  8
0
 10
-2.392721824000001
 20
2.3481600319999991
 30
0.0
  0
VERTEX
  5
A77
  8
0
 10
-2.392377535800001
 20
2.3515919121
 30
0.0
  0
VERTEX
  5
A78
  8
0
 10
-2.391856479700003
 20
2.3548642694000002
 30
0.0
  0
VERTEX
  5
A79
  8
0
 10
-2.3911746799000042
 20
2.357979122399998
 30
0.0
  0
VERTEX
  5
A7A
  8
0
 10
-2.3903526637000021
 20
2.3609360378000002
 30
0.0
  0
VERTEX
  5
A7B
  8
0
 10
-2.3894006792
 20
2.363741232400002
 30
0.0
  0
VERTEX
  5
A7C
  8
0
 10
-2.3883151050000002
 20
2.3664050750999999
 30
0.0
  0
VERTEX
  5
A7D
  8
0
 10
-2.3871033545000011
 20
2.3689276749000001
 30
0.0
  0
VERTEX
  5
A7E
  8
0
 10
-2.385778280100002
 20
2.371311651900001
 30
0.0
  0
VERTEX
  5
A7F
  8
0
 10
-2.3843383049
 20
2.3735674651999989
 30
0.0
  0
VERTEX
  5
A80
  8
0
 10
-2.3827917540999999
 20
2.375693046699999
 30
0.0
  0
VERTEX
  5
A81
  8
0
 10
-2.3811446084000032
 20
2.3776911345
 30
0.0
  0
VERTEX
  5
A82
  8
0
 10
-2.379385994200002
 20
2.379574848599999
 30
0.0
  0
VERTEX
  5
A83
  8
0
 10
-2.3775178636000001
 20
2.3813402245000002
 30
0.0
  0
VERTEX
  5
A84
  8
0
 10
-2.3755452682999998
 20
2.3829864262000009
 30
0.0
  0
VERTEX
  5
A85
  8
0
 10
-2.3734558392
 20
2.3845251995000001
 30
0.0
  0
VERTEX
  5
A86
  8
0
 10
-2.3712486108000022
 20
2.3859519266000002
 30
0.0
  0
VERTEX
  5
A87
  8
0
 10
-2.368925705600001
 20
2.3872596474000001
 30
0.0
  0
VERTEX
  5
A88
  8
0
 10
-2.3664745356000001
 20
2.3884506644000001
 30
0.0
  0
VERTEX
  5
A89
  8
0
 10
-2.3638926622
 20
2.389513656400001
 30
0.0
  0
VERTEX
  5
A8A
  8
0
 10
-2.361180574600001
 20
2.390442270500003
 30
0.0
  0
VERTEX
  5
A8B
  8
0
 10
-2.3583259739
 20
2.3912399133000002
 30
0.0
  0
VERTEX
  5
A8C
  8
0
 10
-2.3553219469000002
 20
2.3918972085000001
 30
0.0
  0
VERTEX
  5
A8D
  8
0
 10
-2.3521695297999998
 20
2.392395685599999
 30
0.0
  0
VERTEX
  5
A8E
  8
0
 10
-2.3488664315999999
 20
2.392720921800001
 30
0.0
  0
SEQEND
  5
A8F
  8
0
  0
LINE
  5
E3
  8
0
 10
2.3488656933999961
 20
-2.3927199440999991
 30
0.0
 11
2.1543011978999962
 21
-2.3928682786999991
 31
0.0
  0
LINE
  5
E5
  8
0
 10
-0.8439860072999998
 20
-2.392129775399999
 30
0.0
 11
-0.1573677509000042
 21
-2.3918619295999961
 31
0.0
  0
LINE
  5
E6
  8
0
 10
2.1543011978999962
 20
-2.3928682786999991
 30
0.0
 11
1.846743409799994
 21
-2.3928391353999992
 31
0.0
  0
LINE
  5
E7
  8
0
 10
1.846743409799994
 20
-2.3928391353999992
 30
0.0
 11
-0.1573677509000042
 21
-2.3918619295999961
 31
0.0
  0
LINE
  5
E8
  8
0
 10
-2.3488656933000009
 20
-2.3927199440999991
 30
0.0
 11
-0.8439860072999998
 21
-2.392129775399999
 31
0.0
  0
LINE
  5
10A
  8
0
 10
-5.243665036100003
 20
-5.1991173084999991
 30
0.0
 11
-2.3927208185000022
 21
-2.3481592694999982
 31
0.0
  0
LINE
  5
10B
  8
0
 10
5.2436650360999959
 20
5.1991173084999991
 30
0.0
 11
2.392720818599996
 21
2.3481592695999991
 31
0.0
  0
LINE
  5
10C
  8
0
 10
5.1994723940999981
 20
5.2433130147999982
 30
0.0
 11
2.3488656933999961
 21
2.3927199441
 31
0.0
  0
LINE
  5
10D
  8
0
 10
-5.1994723940000007
 20
-5.2433130148
 30
0.0
 11
-2.3488656933000009
 21
-2.3927199440999991
 31
0.0
  0
LINE
  5
132
  8
0
 10
2.8297633413999992
 20
-2.785217885799999
 30
0.0
 11
2.7752739901999952
 21
-2.730736196699997
 31
0.0
  0
LINE
  5
133
  8
0
 10
5.2436650360999959
 20
-5.1991173084999991
 30
0.0
 11
2.8297633413999992
 21
-2.785217885799999
 31
0.0
  0
LINE
  5
134
  8
0
 10
5.1994723940999981
 20
-5.2433130148
 30
0.0
 11
2.3488656933999961
 21
-2.3927199440999991
 31
0.0
  0
LINE
  5
135
  8
0
 10
-5.1994723940000007
 20
5.2433130147999982
 30
0.0
 11
-2.3488656933000009
 21
2.3927199441
 31
0.0
  0
LINE
  5
136
  8
0
 10
-5.243665036100003
 20
5.1991173084999991
 30
0.0
 11
-2.3927208185000022
 21
2.3481592695999991
 31
0.0
  0
LINE
  5
137
  8
0
 10
2.7752739901999952
 20
-2.730736196699997
 30
0.0
 11
2.392720818599996
 21
-2.3481592694999982
 31
0.0
  0
LINE
  5
1B0
  8
0
 10
2.391852843399997
 20
0.0523774832000008
 30
0.0
 11
2.392882106199997
 21
-2.0906222863999981
 31
0.0
  0
LINE
  5
1B1
  8
0
 10
2.391852843399997
 20
0.0523774832000008
 30
0.0
 11
2.3920661591000001
 21
0.7374940612000014
 31
0.0
  0
POLYLINE
  5
1B2
  8
0
 66
     1
 10
0.0
 20
0.0
 30
0.0
  0
VERTEX
  5
A90
  8
0
 10
2.392882106199997
 20
-2.0906222863999981
 30
0.0
  0
VERTEX
  5
A91
  8
0
 10
2.3927950774999962
 20
-2.2824647884999969
 30
0.0
  0
VERTEX
  5
A92
  8
0
 10
2.392720818599996
 20
-2.3481592694999982
 30
0.0
  0
SEQEND
  5
A93
  8
0
  0
LINE
  5
1B8
  8
0
 10
2.3920661591000001
 20
0.7374940612000014
 30
0.0
 11
2.392720818599996
 21
2.3481592695999991
 31
0.0
  0
LINE
  5
1E9
  8
0
 10
-2.3488656933000009
 20
2.3927199441
 30
0.0
 11
-2.1543011978000011
 21
2.3928682786999991
 31
0.0
  0
LINE
  5
1EB
  8
0
 10
0.6317857817999979
 20
2.3920106542999999
 30
0.0
 11
0.1048471167999985
 21
2.3918562214999981
 31
0.0
  0
LINE
  5
1EC
  8
0
 10
2.0912251764999961
 20
2.392882023899999
 30
0.0
 11
0.6317857817999979
 21
2.3920106542999999
 31
0.0
  0
LINE
  5
1ED
  8
0
 10
-2.1543011978000011
 20
2.3928682786999991
 30
0.0
 11
-1.4986759791000031
 21
2.392617631599999
 31
0.0
  0
LINE
  5
1EE
  8
0
 10
-1.4986759791000031
 20
2.392617631599999
 30
0.0
 11
0.1048471167999985
 21
2.3918562214999981
 31
0.0
  0
LINE
  5
1EF
  8
0
 10
2.3488656933999961
 20
2.3927199441
 30
0.0
 11
2.0912251764999961
 21
2.392882023899999
 31
0.0
  0
POLYLINE
  5
1F9
  8
0
 66
     1
 10
0.0
 20
0.0
 30
0.0
  0
VERTEX
  5
A94
  8
0
 10
2.3927218241000001
 20
2.3481600319999991
 30
0.0
  0
VERTEX
  5
A95
  8
0
 10
2.3923775358999961
 20
2.3515919121
 30
0.0
  0
VERTEX
  5
A96
  8
0
 10
2.3918564797999959
 20
2.3548642694000002
 30
0.0
  0
VERTEX
  5
A97
  8
0
 10
2.391174679999994
 20
2.357979122399998
 30
0.0
  0
VERTEX
  5
A98
  8
0
 10
2.3903526637999981
 20
2.3609360378000002
 30
0.0
  0
VERTEX
  5
A99
  8
0
 10
2.3894006792999991
 20
2.363741232400002
 30
0.0
  0
VERTEX
  5
A9A
  8
0
 10
2.388315105099998
 20
2.3664050750999999
 30
0.0
  0
VERTEX
  5
A9B
  8
0
 10
2.3871033545999958
 20
2.3689276749000001
 30
0.0
  0
VERTEX
  5
A9C
  8
0
 10
2.3857782801999949
 20
2.371311651900001
 30
0.0
  0
VERTEX
  5
A9D
  8
0
 10
2.3843383048999982
 20
2.3735674651999989
 30
0.0
  0
VERTEX
  5
A9E
  8
0
 10
2.382791754199995
 20
2.375693046699999
 30
0.0
  0
VERTEX
  5
A9F
  8
0
 10
2.381144608499993
 20
2.3776911345
 30
0.0
  0
VERTEX
  5
AA0
  8
0
 10
2.3793859942999962
 20
2.379574848599999
 30
0.0
  0
VERTEX
  5
AA1
  8
0
 10
2.3775178636999992
 20
2.3813402245000002
 30
0.0
  0
VERTEX
  5
AA2
  8
0
 10
2.3755452683999949
 20
2.3829864262000009
 30
0.0
  0
VERTEX
  5
AA3
  8
0
 10
2.3734558393
 20
2.3845251995000001
 30
0.0
  0
VERTEX
  5
AA4
  8
0
 10
2.371248610799995
 20
2.3859519266000002
 30
0.0
  0
VERTEX
  5
AA5
  8
0
 10
2.3689257055999939
 20
2.3872596474000001
 30
0.0
  0
VERTEX
  5
AA6
  8
0
 10
2.3664745356999961
 20
2.3884506644000001
 30
0.0
  0
VERTEX
  5
AA7
  8
0
 10
2.3638926622999961
 20
2.389513656400001
 30
0.0
  0
VERTEX
  5
AA8
  8
0
 10
2.3611805747000001
 20
2.390442270500003
 30
0.0
  0
VERTEX
  5
AA9
  8
0
 10
2.3583259739999951
 20
2.3912399133000002
 30
0.0
  0
VERTEX
  5
AAA
  8
0
 10
2.3553219470000002
 20
2.3918972085000001
 30
0.0
  0
VERTEX
  5
AAB
  8
0
 10
2.3521695298999981
 20
2.392395685599999
 30
0.0
  0
VERTEX
  5
AAC
  8
0
 10
2.348866431600003
 20
2.392720921800001
 30
0.0
  0
SEQEND
  5
AAD
  8
0
  0
POLYLINE
  5
214
  8
0
 66
     1
 10
0.0
 20
0.0
 30
0.0
  0
VERTEX
  5
AAE
  8
0
 10
2.3927218241000001
 20
-2.3481600319999991
 30
0.0
  0
VERTEX
  5
AAF
  8
0
 10
2.3923775358999961
 20
-2.3515919120999982
 30
0.0
  0
VERTEX
  5
AB0
  8
0
 10
2.3918564797999959
 20
-2.354864269399997
 30
0.0
  0
VERTEX
  5
AB1
  8
0
 10
2.391174679999994
 20
-2.357979122399998
 30
0.0
  0
VERTEX
  5
AB2
  8
0
 10
2.3903526637999981
 20
-2.3609360378000002
 30
0.0
  0
VERTEX
  5
AB3
  8
0
 10
2.3894006792999991
 20
-2.3637412323999989
 30
0.0
  0
VERTEX
  5
AB4
  8
0
 10
2.388315105099998
 20
-2.3664050750999981
 30
0.0
  0
VERTEX
  5
AB5
  8
0
 10
2.3871033545999958
 20
-2.3689276749000001
 30
0.0
  0
VERTEX
  5
AB6
  8
0
 10
2.3857782801999949
 20
-2.3713116518999979
 30
0.0
  0
VERTEX
  5
AB7
  8
0
 10
2.3843383048999982
 20
-2.3735674651999989
 30
0.0
  0
VERTEX
  5
AB8
  8
0
 10
2.382791754199995
 20
-2.3756930466999981
 30
0.0
  0
VERTEX
  5
AB9
  8
0
 10
2.381144608499993
 20
-2.3776911344999991
 30
0.0
  0
VERTEX
  5
ABA
  8
0
 10
2.3793859942999962
 20
-2.379574848599999
 30
0.0
  0
VERTEX
  5
ABB
  8
0
 10
2.3775178636999992
 20
-2.381340224399997
 30
0.0
  0
VERTEX
  5
ABC
  8
0
 10
2.3755452683999949
 20
-2.3829864261999969
 30
0.0
  0
VERTEX
  5
ABD
  8
0
 10
2.3734558393
 20
-2.384525199499997
 30
0.0
  0
VERTEX
  5
ABE
  8
0
 10
2.371248610799995
 20
-2.3859519264999971
 30
0.0
  0
VERTEX
  5
ABF
  8
0
 10
2.3689257055999939
 20
-2.3872596474000001
 30
0.0
  0
VERTEX
  5
AC0
  8
0
 10
2.3664745356999961
 20
-2.388450664399997
 30
0.0
  0
VERTEX
  5
AC1
  8
0
 10
2.3638926622999961
 20
-2.389513656399997
 30
0.0
  0
VERTEX
  5
AC2
  8
0
 10
2.3611805747000001
 20
-2.390442270499999
 30
0.0
  0
VERTEX
  5
AC3
  8
0
 10
2.3583259739999951
 20
-2.391239913299998
 30
0.0
  0
VERTEX
  5
AC4
  8
0
 10
2.3553219470000002
 20
-2.3918972083999992
 30
0.0
  0
VERTEX
  5
AC5
  8
0
 10
2.3521695298999981
 20
-2.392395685499999
 30
0.0
  0
VERTEX
  5
AC6
  8
0
 10
2.348866431600003
 20
-2.392720921799997
 30
0.0
  0
SEQEND
  5
AC7
  8
0
  0
CIRCLE
  5
4A5
  8
0
 10
0.0
 20
0.0
 30
0.0
 40
8.25
  0
ARC
  5
4A7
  8
0
 10
0.0
 20
0.0
 30
0.0
 40
7.3842206961999981
 50
284.99778818340002
 51
345.00221181659998
  0
ARC
  5
4A8
  8
0
 10
0.0
 20
0.0
 30
0.0
 40
7.3842206961999981
 50
345.00221181659998
 51
284.99778818340002
  0
CIRCLE
  5
4AB
  8
0
 10
0.0
 20
0.0
 30
0.0
 40
0.865
  0
ATTDEF
  5
5A2
  8
TEXT
 10
-0.0039304302874754
 20
-0.0028457964166719
 30
0.0
 40
0.001
  1
CAST IRON
  3

  2
MATERIAL
 70
     8
  0
ATTDEF
  5
5A3
  8
TEXT
 10
-0.0039304302874754
 20
-0.0011787964166601
 30
0.0
 40
0.001
  1
LAVATORY
  3

  2
PRODUCT
 70
     8
  0
ATTDEF
  5
5A4
  8
TEXT
 10
-0.0039304302874754
 20
0.0004872035833401
 30
0.0
 40
0.001
  1
INSCRIBE 16.5" WADING POOL
  3

  2
TRADENAME
 70
     8
  0
ATTDEF
  5
5A5
  8
TEXT
 10
-0.0039304302874754
 20
0.0021542035833413
 30
0.0
 40
0.001
  1
K-2388
  3

  2
MODELNUMBER
 70
     8
  0
ENDSEC
  0
EOF
