  0
SECTION
  2
HEADER
  9
$ACADVER
  1
AC1009
  9
$INSBASE
 10
0.0
 20
0.0
 30
0.0
  9
$EXTMIN
 10
-8.2505986235899087
 20
-3.4621440745617842
 30
-0.0000000000000053
  9
$EXTMAX
 10
8.2510733939318328
 20
3.057544893145745
 30
0.0000000000000099
  9
$LIMMIN
 10
0.0
 20
0.0
  9
$LIMMAX
 10
34.0
 20
22.0
  9
$ORTHOMODE
 70
     1
  9
$REGENMODE
 70
     1
  9
$FILLMODE
 70
     1
  9
$QTEXTMODE
 70
     0
  9
$MIRRTEXT
 70
     0
  9
$DRAGMODE
 70
     2
  9
$LTSCALE
 40
1.8700000000000001
  9
$OSMODE
 70
  2727
  9
$ATTMODE
 70
     1
  9
$TEXTSIZE
 40
0.2
  9
$TRACEWID
 40
0.05
  9
$TEXTSTYLE
  7
STANDARD
  9
$CLAYER
  8
0
  9
$CELTYPE
  6
ByLayer
  9
$CECOLOR
 62
   256
  9
$DIMSCALE
 40
1.0
  9
$DIMASZ
 40
0.1875
  9
$DIMEXO
 40
0.2125
  9
$DIMDLI
 40
1.291999999999998
  9
$DIMRND
 40
0.0
  9
$DIMDLE
 40
0.0
  9
$DIMEXE
 40
0.612
  9
$DIMTP
 40
0.0
  9
$DIMTM
 40
0.0
  9
$DIMTXT
 40
0.15625
  9
$DIMCEN
 40
0.306
  9
$DIMTSZ
 40
0.0
  9
$DIMTOL
 70
     0
  9
$DIMLIM
 70
     0
  9
$DIMTIH
 70
     1
  9
$DIMTOH
 70
     1
  9
$DIMSE1
 70
     0
  9
$DIMSE2
 70
     0
  9
$DIMTAD
 70
     0
  9
$DIMZIN
 70
     0
  9
$DIMBLK
  1

  9
$DIMASO
 70
     1
  9
$DIMSHO
 70
     1
  9
$DIMPOST
  1

  9
$DIMAPOST
  1

  9
$DIMALT
 70
     0
  9
$DIMALTD
 70
     2
  9
$DIMALTF
 40
25.399999999999999
  9
$DIMLFAC
 40
1.0
  9
$DIMTOFL
 70
     0
  9
$DIMTVP
 40
0.0
  9
$DIMTIX
 70
     0
  9
$DIMSOXD
 70
     0
  9
$DIMSAH
 70
     0
  9
$DIMBLK1
  1

  9
$DIMBLK2
  1

  9
$DIMSTYLE
  2
STANDARD
  9
$DIMCLRD
 70
     0
  9
$DIMCLRE
 70
     0
  9
$DIMCLRT
 70
     0
  9
$DIMTFAC
 40
1.0
  9
$DIMGAP
 40
0.09
  9
$LUNITS
 70
     2
  9
$LUPREC
 70
     4
  9
$SKETCHINC
 40
0.1
  9
$FILLETRAD
 40
0.0
  9
$AUNITS
 70
     0
  9
$AUPREC
 70
     0
  9
$MENU
  1
.
  9
$ELEVATION
 40
0.0
  9
$PELEVATION
 40
0.0
  9
$THICKNESS
 40
0.0
  9
$LIMCHECK
 70
     0
  9
$BLIPMODE
 70
     0
  9
$CHAMFERA
 40
0.0
  9
$CHAMFERB
 40
0.0
  9
$SKPOLY
 70
     0
  9
$TDCREATE
 40
2454511.3165632291
  9
$TDUPDATE
 40
2454552.7704080562
  9
$TDINDWG
 40
0.0594060995
  9
$TDUSRTIMER
 40
0.0594051968
  9
$USRTIMER
 70
     1
  9
$ANGBASE
 50
0.0
  9
$ANGDIR
 70
     0
  9
$PDMODE
 70
     3
  9
$PDSIZE
 40
0.3125
  9
$PLINEWID
 40
0.0
  9
$COORDS
 70
     1
  9
$SPLFRAME
 70
     0
  9
$SPLINETYPE
 70
     6
  9
$SPLINESEGS
 70
     8
  9
$ATTDIA
 70
     0
  9
$ATTREQ
 70
     1
  9
$HANDLING
 70
     1
  9
$HANDSEED
  5
AFC
  9
$SURFTAB1
 70
     6
  9
$SURFTAB2
 70
     6
  9
$SURFTYPE
 70
     6
  9
$SURFU
 70
     6
  9
$SURFV
 70
     6
  9
$UCSNAME
  2

  9
$UCSORG
 10
0.0
 20
0.0
 30
0.0
  9
$UCSXDIR
 10
1.0
 20
0.0
 30
0.0
  9
$UCSYDIR
 10
0.0
 20
1.0
 30
0.0
  9
$PUCSNAME
  2

  9
$PUCSORG
 10
0.0
 20
0.0
 30
0.0
  9
$PUCSXDIR
 10
1.0
 20
0.0
 30
0.0
  9
$PUCSYDIR
 10
0.0
 20
1.0
 30
0.0
  9
$USERI1
 70
     0
  9
$USERI2
 70
     0
  9
$USERI3
 70
     0
  9
$USERI4
 70
     0
  9
$USERI5
 70
     0
  9
$USERR1
 40
0.0
  9
$USERR2
 40
0.0
  9
$USERR3
 40
0.0
  9
$USERR4
 40
0.0
  9
$USERR5
 40
0.0
  9
$WORLDVIEW
 70
     1
  9
$SHADEDGE
 70
     3
  9
$SHADEDIF
 70
    70
  9
$TILEMODE
 70
     1
  9
$MAXACTVP
 70
    64
  9
$PLIMCHECK
 70
     0
  9
$PEXTMIN
 10
1.0000000000000000E+020
 20
1.0000000000000000E+020
 30
1.0000000000000000E+020
  9
$PEXTMAX
 10
-1.0000000000000000E+020
 20
-1.0000000000000000E+020
 30
-1.0000000000000000E+020
  9
$PLIMMIN
 10
0.0
 20
0.0
  9
$PLIMMAX
 10
12.0
 20
9.0
  9
$UNITMODE
 70
     0
  9
$VISRETAIN
 70
     1
  9
$PLINEGEN
 70
     0
  9
$PSLTSCALE
 70
     1
  0
ENDSEC
  0
SECTION
  2
TABLES
  0
TABLE
  2
VPORT
 70
     1
  0
VPORT
  2
*ACTIVE
 70
     0
 10
0.0
 20
0.0
 11
1.0
 21
1.0
 12
0.0002373851709621
 22
-0.2022995907080194
 13
0.0
 23
0.0
 14
1.0
 24
1.0
 15
0.0
 25
0.0
 16
0.0
 26
0.0
 36
1.0
 17
0.0
 27
0.0
 37
0.0
 40
10.80643845037396
 41
1.5345043914680041
 42
50.0
 43
0.0
 44
0.0
 50
0.0
 51
0.0
 71
     0
 72
   100
 73
     1
 74
     1
 75
     0
 76
     0
 77
     0
 78
     0
  0
ENDTAB
  0
TABLE
  2
LTYPE
 70
     4
  0
LTYPE
  2
ByBlock
 70
     0
  3

 72
    65
 73
     0
 40
0.0
  0
LTYPE
  2
ByLayer
 70
     0
  3

 72
    65
 73
     0
 40
0.0
  0
LTYPE
  2
CONTINUOUS
 70
     0
  3
Solid line
 72
    65
 73
     0
 40
0.0
  0
LTYPE
  2
HIDDEN
 70
     0
  3
- - - - - - - - - - - - - - - - - - - -
 72
    65
 73
     2
 40
0.2
 49
0.1
 49
-0.1
  0
ENDTAB
  0
TABLE
  2
LAYER
 70
     3
  0
LAYER
  2
0
 70
     0
 62
     7
  6
CONTINUOUS
  0
LAYER
  2
HIDDEN
 70
     0
 62
     7
  6
HIDDEN
  0
LAYER
  2
TEXT
 70
     0
 62
     7
  6
CONTINUOUS
  0
ENDTAB
  0
TABLE
  2
STYLE
 70
     1
  0
STYLE
  2
STANDARD
 70
     0
 40
0.0
 41
0.8
 50
0.0
 71
     0
 42
0.2
  3
txt
  4

  0
ENDTAB
  0
TABLE
  2
VIEW
 70
     0
  0
ENDTAB
  0
TABLE
  2
UCS
 70
     0
  0
ENDTAB
  0
TABLE
  2
APPID
 70
     2
  0
APPID
  2
ACAD
 70
     0
  0
APPID
  2
ACAECLAYERSTANDARD
 70
     0
  0
ENDTAB
  0
TABLE
  2
DIMSTYLE
 70
     1
  0
DIMSTYLE
  2
STANDARD
 70
     0
  3

  4

  5

  6

  7

 40
1.0
 41
0.18
 42
0.0625
 43
0.38
 44
0.18
 45
0.0
 46
0.0
 47
0.0
 48
0.0
140
0.18
141
0.09
142
0.0
143
25.399999999999999
144
1.0
145
0.0
146
1.0
147
0.09
 71
     0
 72
     0
 73
     1
 74
     1
 75
     0
 76
     0
 77
     0
 78
     0
170
     0
171
     2
172
     0
173
     0
174
     0
175
     0
176
     0
177
     0
178
     0
  0
ENDTAB
  0
ENDSEC
  0
SECTION
  2
BLOCKS
  0
BLOCK
  8
0
  2
$MODEL_SPACE
 70
     0
 10
0.0
 20
0.0
 30
0.0
  3
$MODEL_SPACE
  1

  0
ENDBLK
  5
AD6
  8
0
  0
BLOCK
 67
     1
  8
0
  2
$PAPER_SPACE
 70
     0
 10
0.0
 20
0.0
 30
0.0
  3
$PAPER_SPACE
  1

  0
ENDBLK
  5
AD2
 67
     1
  8
0
  0
ENDSEC
  0
SECTION
  2
ENTITIES
  0
LINE
  5
26B
  8
0
 10
-8.2499999999999982
 20
0.0
 30
0.0
 11
-8.1099999999999977
 21
2.645
 31
0.0
  0
LINE
  5
26C
  8
0
 10
-8.1099999999999977
 20
2.645
 30
0.0
 11
-8.2499999999999982
 21
0.0
 31
0.0
  0
LINE
  5
26D
  8
HIDDEN
 10
-1.1492933263
 20
-3.461999999999998
 30
0.0
 11
1.149293326400002
 21
-3.461999999999998
 31
0.0
  0
LINE
  5
2DF
  8
HIDDEN
 10
-2.6167107636999982
 20
-1.711848279399999
 30
0.0
 11
-4.5582238388999983
 21
0.0
 31
0.0
  0
LINE
  5
320
  8
HIDDEN
 10
1.3087895714000011
 20
-2.0653426270999979
 30
0.0
 11
-1.3087895712999991
 21
-2.0653426270999979
 31
0.0
  0
LINE
  5
321
  8
HIDDEN
 10
-1.3087895712999991
 20
-2.0653426270999979
 30
0.0
 11
-1.209128337399999
 21
-3.4064465093999989
 31
0.0
  0
LINE
  5
355
  8
HIDDEN
 10
-1.552799203799998
 20
-1.8339259977999991
 30
0.0
 11
1.5527992039
 21
-1.8339259977999991
 31
0.0
  0
LINE
  5
3B7
  8
0
 10
8.25
 20
0.0
 30
0.0
 11
-8.2499999999999982
 21
0.0
 31
0.0
  0
LINE
  5
3C5
  8
HIDDEN
 10
1.209128337500001
 20
-3.4064465093999989
 30
0.0
 11
1.3087895714000011
 21
-2.0653426270999979
 31
0.0
  0
LINE
  5
3C6
  8
HIDDEN
 10
1.3087895714000011
 20
-2.0653426270999979
 30
0.0
 11
1.209128337500001
 21
-3.4064465093999989
 31
0.0
  0
LINE
  5
4A1
  8
HIDDEN
 10
4.5582238390000001
 20
0.0
 30
0.0
 11
2.6167107638
 21
-1.711848279399999
 31
0.0
  0
LINE
  5
4A3
  8
0
 10
-7.675608068599999
 20
3.057007610399999
 30
0.0
 11
7.6756080687000026
 21
3.057007610399999
 31
0.0
  0
LINE
  5
4A4
  8
0
 10
8.25
 20
0.0
 30
0.0
 11
8.1099999999999977
 21
2.645
 31
0.0
  0
ARC
  5
4AC
  8
HIDDEN
 10
0.0000000000000036
 20
71.354603428900006
 30
0.0
 40
73.204999999999998
 50
271.2154294632
 51
271.8501856451
  0
ARC
  5
4AD
  8
HIDDEN
 10
0.0000000000000036
 20
71.354603428900006
 30
0.0
 40
73.204999999999998
 50
271.2154294632
 51
271.8501856451
  0
ARC
  5
4AE
  8
HIDDEN
 10
0.0000000000000036
 20
71.354603428900006
 30
0.0
 40
73.204999999999998
 50
268.1498143549
 51
268.7845705368
  0
ARC
  5
4AF
  8
0
 10
7.6756080687000026
 20
2.6220076104000021
 30
0.0
 40
0.435
 50
3.0298415109000478
 51
90.0
  0
ARC
  5
4B0
  8
0
 10
-7.675608068599999
 20
2.6220076104000021
 30
0.0
 40
0.435
 50
90.0
 51
176.9701584890999
  0
ARC
  5
4B1
  8
0
 10
-7.675608068599999
 20
2.6220076104000021
 30
0.0
 40
0.435
 50
90.0
 51
176.9701584890999
  0
ARC
  5
4B2
  8
0
 10
7.6756080687000026
 20
2.6220076104000021
 30
0.0
 40
0.435
 50
3.0298415109000478
 51
90.0
  0
ARC
  5
4B3
  8
HIDDEN
 10
2.350517491899998
 20
-1.4099420157999969
 30
0.0
 40
0.4025000000000001
 50
271.8501856451
 51
311.4028933388999
  0
ARC
  5
4B4
  8
HIDDEN
 10
-2.350517491799998
 20
-1.4099420157999969
 30
0.0
 40
0.4025000000000001
 50
228.5971066611001
 51
268.1498143549
  0
ARC
  5
4B5
  8
HIDDEN
 10
-1.5581021175999921
 20
-2.083869749599998
 30
0.0
 40
0.25
 50
4.2500000000000249
 51
88.784570536800004
  0
ARC
  5
4B6
  8
HIDDEN
 10
1.5581021177000021
 20
-2.083869749599998
 30
0.0
 40
0.25
 50
91.215429463199982
 51
175.75
  0
ARC
  5
4B7
  8
HIDDEN
 10
1.5581021177000021
 20
-2.083869749599998
 30
0.0
 40
0.25
 50
91.215429463199982
 51
175.75
  0
ARC
  5
4B8
  8
HIDDEN
 10
-1.5581021175999921
 20
-2.083869749599998
 30
0.0
 40
0.25
 50
4.2500000000000249
 51
88.784570536800004
  0
ARC
  5
4B9
  8
HIDDEN
 10
-1.1492933263
 20
-3.4019999999999979
 30
0.0
 40
0.06
 50
184.25
 51
270.0
  0
ARC
  5
4BA
  8
HIDDEN
 10
1.149293326400002
 20
-3.4019999999999979
 30
0.0
 40
0.06
 50
270.0
 51
355.75
  0
ATTDEF
  5
5B5
  8
TEXT
 10
-0.0039304302874719
 20
3.0520076379754082
 30
0.0
 40
0.001
  1
K-2388
  3

  2
MODELNUMBER
 70
     8
  0
ATTDEF
  5
5B6
  8
TEXT
 10
-0.0039304302874719
 20
3.0503406379754101
 30
0.0
 40
0.001
  1
INSCRIBE 16.5" WADING POOL
  3

  2
TRADENAME
 70
     8
  0
ATTDEF
  5
5B7
  8
TEXT
 10
-0.0039304302874719
 20
3.0486746379754082
 30
0.0
 40
0.001
  1
LAVATORY
  3

  2
PRODUCT
 70
     8
  0
ATTDEF
  5
5B8
  8
TEXT
 10
-0.0039304302874719
 20
3.0470076379754061
 30
0.0
 40
0.001
  1
CAST IRON
  3

  2
MATERIAL
 70
     8
  0
ENDSEC
  0
EOF
