  0
SECTION
  2
HEADER
  9
$ACADVER
  1
AC1009
  9
$INSBASE
 10
4337.1262429512671588
 20
174.0575424784775862
 30
0.0
  9
$EXTMIN
 10
4335.7656457064667848
 20
166.3150373892775917
 30
0.0
  9
$EXTMAX
 10
4340.5816014937672662
 20
175.4181424784775913
 30
0.0
  9
$LIMMIN
 10
0.0
 20
0.0
  9
$LIMMAX
 10
11.6929133858000007
 20
8.2677165353999982
  9
$ORTHOMODE
 70
     1
  9
$REGENMODE
 70
     1
  9
$FILLMODE
 70
     1
  9
$QTEXTMODE
 70
     0
  9
$MIRRTEXT
 70
     0
  9
$DRAGMODE
 70
     2
  9
$LTSCALE
 40
0.6431102362
  9
$OSMODE
 70
  4095
  9
$ATTMODE
 70
     1
  9
$TEXTSIZE
 40
0.2
  9
$TRACEWID
 40
0.05
  9
$TEXTSTYLE
  7
STANDARD
  9
$CLAYER
  8
0
  9
$CELTYPE
  6
BYLAYER
  9
$CECOLOR
 62
   256
  9
$DIMSCALE
 40
1.0
  9
$DIMASZ
 40
0.1875
  9
$DIMEXO
 40
0.0625
  9
$DIMDLI
 40
0.4443307087
  9
$DIMRND
 40
0.0
  9
$DIMDLE
 40
0.0
  9
$DIMEXE
 40
0.125
  9
$DIMTP
 40
0.01
  9
$DIMTM
 40
0.01
  9
$DIMTXT
 40
2.0
  9
$DIMCEN
 40
0.1052362205
  9
$DIMTSZ
 40
0.0
  9
$DIMTOL
 70
     1
  9
$DIMLIM
 70
     0
  9
$DIMTIH
 70
     1
  9
$DIMTOH
 70
     1
  9
$DIMSE1
 70
     0
  9
$DIMSE2
 70
     0
  9
$DIMTAD
 70
     0
  9
$DIMZIN
 70
     0
  9
$DIMBLK
  1

  9
$DIMASO
 70
     1
  9
$DIMSHO
 70
     1
  9
$DIMPOST
  1
\X
  9
$DIMAPOST
  1

  9
$DIMALT
 70
     1
  9
$DIMALTD
 70
     2
  9
$DIMALTF
 40
25.3999999999999986
  9
$DIMLFAC
 40
1.0
  9
$DIMTOFL
 70
     0
  9
$DIMTVP
 40
0.0
  9
$DIMTIX
 70
     0
  9
$DIMSOXD
 70
     0
  9
$DIMSAH
 70
     0
  9
$DIMBLK1
  1

  9
$DIMBLK2
  1

  9
$DIMSTYLE
  2
STANDARD
  9
$DIMCLRD
 70
     0
  9
$DIMCLRE
 70
     0
  9
$DIMCLRT
 70
     0
  9
$DIMTFAC
 40
1.0
  9
$DIMGAP
 40
0.09
  9
$LUNITS
 70
     2
  9
$LUPREC
 70
     4
  9
$SKETCHINC
 40
0.1
  9
$FILLETRAD
 40
0.0
  9
$AUNITS
 70
     0
  9
$AUPREC
 70
     0
  9
$MENU
  1
.
  9
$ELEVATION
 40
0.0
  9
$PELEVATION
 40
0.0
  9
$THICKNESS
 40
0.0
  9
$LIMCHECK
 70
     0
  9
$BLIPMODE
 70
     0
  9
$CHAMFERA
 40
0.0
  9
$CHAMFERB
 40
0.0
  9
$SKPOLY
 70
     0
  9
$TDCREATE
 40
2458060.468368056230247
  9
$TDUPDATE
 40
2459061.6611111108213663
  9
$TDINDWG
 40
0.3171019676
  9
$TDUSRTIMER
 40
0.3171019676
  9
$USRTIMER
 70
     1
  9
$ANGBASE
 50
0.0
  9
$ANGDIR
 70
     0
  9
$PDMODE
 70
     0
  9
$PDSIZE
 40
0.3125
  9
$PLINEWID
 40
0.0
  9
$COORDS
 70
     1
  9
$SPLFRAME
 70
     0
  9
$SPLINETYPE
 70
     6
  9
$SPLINESEGS
 70
     8
  9
$ATTDIA
 70
     1
  9
$ATTREQ
 70
     1
  9
$HANDLING
 70
     1
  9
$HANDSEED
  5
8421
  9
$SURFTAB1
 70
     6
  9
$SURFTAB2
 70
     6
  9
$SURFTYPE
 70
     6
  9
$SURFU
 70
     6
  9
$SURFV
 70
     6
  9
$UCSNAME
  2

  9
$UCSORG
 10
0.0
 20
0.0
 30
0.0
  9
$UCSXDIR
 10
1.0
 20
0.0
 30
0.0
  9
$UCSYDIR
 10
0.0
 20
1.0
 30
0.0
  9
$PUCSNAME
  2

  9
$PUCSORG
 10
0.0
 20
0.0
 30
0.0
  9
$PUCSXDIR
 10
1.0
 20
0.0
 30
0.0
  9
$PUCSYDIR
 10
0.0
 20
1.0
 30
0.0
  9
$USERI1
 70
     0
  9
$USERI2
 70
     0
  9
$USERI3
 70
     0
  9
$USERI4
 70
     0
  9
$USERI5
 70
     0
  9
$USERR1
 40
0.0
  9
$USERR2
 40
0.0
  9
$USERR3
 40
0.0
  9
$USERR4
 40
0.0
  9
$USERR5
 40
0.0
  9
$WORLDVIEW
 70
     1
  9
$SHADEDGE
 70
     3
  9
$SHADEDIF
 70
    70
  9
$TILEMODE
 70
     1
  9
$MAXACTVP
 70
    64
  9
$PLIMCHECK
 70
     0
  9
$PEXTMIN
 10
1.0000000000000000E+20
 20
1.0000000000000000E+20
 30
1.0000000000000000E+20
  9
$PEXTMAX
 10
-1.0000000000000000E+20
 20
-1.0000000000000000E+20
 30
-1.0000000000000000E+20
  9
$PLIMMIN
 10
0.0
 20
0.0
  9
$PLIMMAX
 10
12.0
 20
9.0
  9
$UNITMODE
 70
     0
  9
$VISRETAIN
 70
     1
  9
$PLINEGEN
 70
     0
  9
$PSLTSCALE
 70
     1
  0
ENDSEC
  0
SECTION
  2
TABLES
  0
TABLE
  2
VPORT
 70
     1
  0
VPORT
  2
*ACTIVE
 70
     0
 10
0.0
 20
0.0
 11
1.0
 21
1.0
 12
0.0
 22
0.0
 13
0.0
 23
0.0
 14
1.0
 24
1.0
 15
0.0
 25
0.0
 16
0.0
 26
0.0
 36
29.4958841386674493
 17
4338.1765136718740905
 27
170.8665847778320028
 37
0.0
 40
10.2996131528888402
 41
2.1481900452488678
 42
50.0
 43
0.0
 44
0.0
 50
0.0
 51
0.0
 71
     0
 72
   100
 73
     1
 74
     1
 75
     0
 76
     0
 77
     0
 78
     0
  0
ENDTAB
  0
TABLE
  2
LTYPE
 70
     2
  0
LTYPE
  2
CONTINUOUS
 70
     0
  3
Solid line
 72
    65
 73
     0
 40
0.0
  0
LTYPE
  2
PHANTOM2
 70
     0
  3
___ _ _ ___ _ _ ___ _ _ ___ _ _
 72
    65
 73
     6
 40
1.25
 49
0.625
 49
-0.125
 49
0.125
 49
-0.125
 49
0.125
 49
-0.125
  0
ENDTAB
  0
TABLE
  2
LAYER
 70
     2
  0
LAYER
  2
0
 70
     0
 62
   255
  6
CONTINUOUS
  0
LAYER
  2
DEFPOINTS
 70
     0
 62
     7
  6
CONTINUOUS
  0
ENDTAB
  0
TABLE
  2
STYLE
 70
     1
  0
STYLE
  2
STANDARD
 70
     0
 40
0.0
 41
0.8
 50
0.0
 71
     0
 42
0.2
  3
txt
  4

  0
ENDTAB
  0
TABLE
  2
VIEW
 70
     0
  0
ENDTAB
  0
TABLE
  2
UCS
 70
     0
  0
ENDTAB
  0
TABLE
  2
APPID
 70
     9
  0
APPID
  2
ACAD
 70
     0
  0
APPID
  2
ACAD_MLEADERVER
 70
     0
  0
APPID
  2
ACAD_EXEMPT_FROM_CAD_STANDARDS
 70
     0
  0
APPID
  2
ACAD_NAV_VCDISPLAY
 70
     0
  0
APPID
  2
ACAECLAYERSTANDARD
 70
     0
  0
APPID
  2
ACCMTRANSPARENCY
 70
     0
  0
APPID
  2
ACAD_DSTYLE_DIMJAG
 70
     0
  0
APPID
  2
ACAD_DSTYLE_DIMTALN
 70
     0
  0
APPID
  2
ACDBATTR
 70
     0
  0
ENDTAB
  0
TABLE
  2
DIMSTYLE
 70
     1
  0
DIMSTYLE
  2
STANDARD
 70
     0
  3

  4

  5

  6

  7

 40
1.0
 41
0.1875
 42
0.0625
 43
0.38
 44
0.125
 45
0.0
 46
0.0
 47
0.01
 48
0.01
140
0.15625
141
0.09
142
0.0
143
25.3999999999999986
144
1.0
145
0.0
146
1.0
147
0.09
 71
     1
 72
     0
 73
     1
 74
     1
 75
     0
 76
     0
 77
     0
 78
     4
170
     0
171
     2
172
     0
173
     0
174
     0
175
     0
176
     0
177
     0
178
     0
  0
ENDTAB
  0
ENDSEC
  0
SECTION
  2
BLOCKS
  0
BLOCK
  8
0
  2
$MODEL_SPACE
 70
     0
 10
0.0
 20
0.0
 30
0.0
  3
$MODEL_SPACE
  1

  0
ENDBLK
  5
21
  8
0
  0
BLOCK
 67
     1
  8
0
  2
$PAPER_SPACE
 70
     0
 10
0.0
 20
0.0
 30
0.0
  3
$PAPER_SPACE
  1

  0
ENDBLK
  5
1D
 67
     1
  8
0
  0
ENDSEC
  0
SECTION
  2
ENTITIES
  0
ATTDEF
  5
3930
  8
DEFPOINTS
 10
4337.1229547893071867
 20
174.0618381366620042
 30
0.0
 40
0.001
  1
K-23767
  3

  2
MODELNUMBER
 70
     0
1001
ACDBATTR
1070
     0
1070
     1
  0
ATTDEF
  5
3931
  8
DEFPOINTS
 10
4337.1229547893071867
 20
174.0601714699953106
 30
0.0
 40
0.001
  1
TONE
  3

  2
TRADENAME
 70
     0
1001
ACDBATTR
1070
     0
1070
     1
  0
ATTDEF
  5
3932
  8
DEFPOINTS
 10
4337.1229547893071867
 20
174.0585048033285887
 30
0.0
 40
0.001
  1
KITCHEN SINK FAUCET
  3

  2
PRODUCT
 70
     0
1001
ACDBATTR
1070
     0
1070
     1
  0
LINE
  5
832D
  8
0
 10
4336.6337429509667345
 20
174.0720020892478885
 30
0.0
 11
4336.6337429509667345
 21
166.8117074651775908
 31
0.0
  0
LINE
  5
832E
  8
0
 10
4339.6368825554663999
 20
173.8602781641776005
 30
0.0
 11
4340.1174803511239588
 21
173.86023326075059
 31
0.0
  0
LINE
  5
832F
  8
0
 10
4340.1174866399824168
 20
174.2548528078391996
 30
0.0
 11
4339.6368843921663938
 21
174.254817312277595
 31
0.0
  0
ARC
  5
8330
  8
0
 10
4337.1262429512671588
 20
174.0575452336775868
 30
0.0
 40
1.360597244799999
 50
90.0
 51
248.7785616395937041
  0
ARC
  5
8331
  8
0
 10
4337.1262429512671588
 20
174.0575452336775868
 30
0.0
 40
0.642963599
 50
90.0
 51
220.0053636931831988
  0
CIRCLE
  5
8332
  8
0
 10
4340.3076014937660148
 20
174.0575400044776018
 30
0.0
 40
0.274
  0
ARC
  5
8333
  8
0
 10
4337.1532337765847842
 20
174.0295225799416983
 30
0.0
 40
0.5212247371451391
 50
92.9683018618114261
 51
175.3252428427892085
  0
ARC
  5
8334
  8
0
 10
4337.1536296391741416
 20
166.8347116431168899
 30
0.0
 40
0.5203953888899843
 50
182.5335965255167139
 51
266.9833190738297048
  0
LINE
  5
8335
  8
0
 10
4337.6187429515657641
 20
174.0720020892478885
 30
0.0
 11
4337.6187429515657641
 21
166.8117074651775908
 31
0.0
  0
ARC
  5
8336
  8
0
 10
4337.1262429512671588
 20
174.0575452336775868
 30
0.0
 40
1.360597244799999
 50
291.2214383604062959
 51
329.1595800313593827
  0
ARC
  5
8337
  8
0
 10
4337.1262429512671588
 20
174.0575452336775868
 30
0.0
 40
1.360597244799999
 50
30.8395950638482397
 51
90.0
  0
ARC
  5
8338
  8
0
 10
4337.1262429512671588
 20
174.0575452336775868
 30
0.0
 40
0.642963599
 50
319.9946363068168012
 51
90.0
  0
ARC
  5
8339
  8
0
 10
4337.0992521259477144
 20
174.0295225799416983
 30
0.0
 40
0.5212247371451391
 50
4.6747571572108102
 51
87.0316981381885597
  0
ARC
  5
833A
  8
0
 10
4337.0988562633592664
 20
166.8347116431168899
 30
0.0
 40
0.5203953888899843
 50
273.0166809261702952
 51
357.4664034744831724
  0
LINE
  5
833B
  8
0
 10
4339.5088307710775553
 20
173.3335859819011944
 30
0.0
 11
4339.0651411517656015
 21
173.3297139612276112
 31
0.0
  0
LINE
  5
833C
  8
0
 10
4338.9407961412671284
 20
173.3600368241276044
 30
0.0
 11
4338.2944496458048889
 21
173.3600368241276044
 31
0.0
  0
LINE
  5
833D
  8
0
 10
4338.9407961412671284
 20
174.7550368241275862
 30
0.0
 11
4338.2944596879251549
 21
174.7550368241275862
 31
0.0
  0
LINE
  5
833E
  8
0
 10
4339.5088307710657318
 20
174.781495364827606
 30
0.0
 11
4339.0651411517656015
 21
174.7853673855275929
 31
0.0
  0
LINE
  5
833F
  8
0
 10
4338.9707961412668737
 20
173.3900366834276099
 30
0.0
 11
4338.9707961412668737
 21
174.7250366205275895
 31
0.0
  0
LINE
  5
8340
  8
0
 10
4339.04528433026735
 20
173.3494023291275994
 30
0.0
 11
4339.04528433026735
 21
174.7656790176276047
 31
0.0
  0
LINE
  5
8341
  8
0
 10
4339.5775626780668972
 20
174.3175200312275877
 30
0.0
 11
4339.5720646066120025
 21
174.3865754797417083
 31
0.0
  0
LINE
  5
8342
  8
0
 10
4339.5397477841670479
 20
173.3607139742275933
 30
0.0
 11
4339.5397485186658741
 21
174.7543621251276136
 31
0.0
  0
LINE
  5
8343
  8
0
 10
4339.5775626780668972
 20
174.3175200312275877
 30
0.0
 11
4339.5782078040938359
 21
173.8071821089120021
 31
0.0
  0
LINE
  5
8344
  8
0
 10
4339.5720646225663586
 20
174.4586584879276074
 30
0.0
 11
4339.572064444492753
 21
173.6540676122642139
 31
0.0
  0
ARC
  5
8345
  8
0
 10
4334.7650471270872004
 20
174.0829390951168136
 30
0.0
 40
4.821678365878169
 50
4.4691866621381973
 51
8.0045011250828324
  0
ARC
  5
8346
  8
0
 10
4334.5619375551495978
 20
174.0575403897919955
 30
0.0
 40
5.0263467577880911
 50
352.0311461545726957
 51
355.395823881839874
  0
ARC
  5
8347
  8
0
 10
4339.5085559196040776
 20
173.3650808455284107
 30
0.0
 40
0.0314960629004428
 50
270.4999999326885813
 51
352.030371253982878
  0
ARC
  5
8348
  8
0
 10
4339.0007862175771152
 20
173.4127586703374959
 30
0.0
 40
0.0301948712974397
 50
186.6769245651333051
 51
301.1142841423650793
  0
ARC
  5
8349
  8
0
 10
4338.9407961412662189
 20
173.3900368241282024
 30
0.0
 40
0.0300000000005636
 50
270.000000000469015
 51
359.9997312817177999
  0
ARC
  5
834A
  8
0
 10
4339.0660190131411582
 20
173.3504568756723927
 30
0.0
 40
0.0207614821805154
 50
182.911501055966113
 51
267.5766303404649875
  0
ARC
  5
834B
  8
0
 10
4338.6083678038667131
 20
174.0575368241271974
 30
0.0
 40
0.7849999999995591
 50
301.3170013628898118
 51
303.8197180967911208
  0
ARC
  5
834C
  8
0
 10
4338.6083678038667131
 20
174.057536824127709
 30
0.0
 40
0.7849999999999646
 50
56.1802819032088365
 51
58.6829979746161712
  0
ARC
  5
834D
  8
0
 10
4339.5085559193421432
 20
174.7500005005398975
 30
0.0
 40
0.0314960635897147
 50
7.9599912332167051
 51
89.4999996014283568
  0
ARC
  5
834E
  8
0
 10
4339.0007961412702571
 20
174.7025368241255023
 30
0.0
 40
0.0300000000035539
 50
58.6829812293637332
 51
179.9999999960297998
  0
ARC
  5
834F
  8
0
 10
4338.9407961412662189
 20
174.7250368241265051
 30
0.0
 40
0.0300000000011796
 50
359.9996111548971953
 51
89.9999999990620125
  0
ARC
  5
8350
  8
0
 10
4339.066330725865555
 20
174.7643100913441003
 30
0.0
 40
0.0210908683300929
 50
93.2333310347712967
 51
176.2785375688116005
  0
ARC
  5
8351
  8
0
 10
4339.6574475721408817
 20
174.333684569232588
 30
0.0
 40
0.0815039176376178
 50
191.4392228490837908
 51
255.3865315772430051
  0
LINE
  5
8352
  8
0
 10
4339.572064460970978
 20
173.7285155606869012
 30
0.0
 11
4339.5782078040938359
 21
173.8071821089120021
 31
0.0
  0
ARC
  5
8353
  8
0
 10
4339.6345446915265711
 20
173.803893840214414
 30
0.0
 40
0.0564327705910995
 50
87.625704359311726
 51
176.659552727716914
  0
ENDSEC
  0
EOF
