  0
SECTION
  2
HEADER
  9
$ACADVER
  1
AC1009
  9
$INSBASE
 10
4327.4565076630024123
 20
167.0083270846189123
 30
0.0
  9
$EXTMIN
 10
4326.0959104182020383
 20
167.0032931653848038
 30
0.0
  9
$EXTMAX
 10
4330.9118662055034292
 20
179.2624327304042993
 30
0.0
  9
$LIMMIN
 10
0.0
 20
0.0
  9
$LIMMAX
 10
11.6929133858000007
 20
8.2677165353999982
  9
$ORTHOMODE
 70
     1
  9
$REGENMODE
 70
     1
  9
$FILLMODE
 70
     1
  9
$QTEXTMODE
 70
     0
  9
$MIRRTEXT
 70
     0
  9
$DRAGMODE
 70
     2
  9
$LTSCALE
 40
0.6431102362
  9
$OSMODE
 70
  4095
  9
$ATTMODE
 70
     1
  9
$TEXTSIZE
 40
0.2
  9
$TRACEWID
 40
0.05
  9
$TEXTSTYLE
  7
STANDARD
  9
$CLAYER
  8
0
  9
$CELTYPE
  6
BYLAYER
  9
$CECOLOR
 62
   256
  9
$DIMSCALE
 40
1.0
  9
$DIMASZ
 40
0.1875
  9
$DIMEXO
 40
0.0625
  9
$DIMDLI
 40
0.4443307087
  9
$DIMRND
 40
0.0
  9
$DIMDLE
 40
0.0
  9
$DIMEXE
 40
0.125
  9
$DIMTP
 40
0.01
  9
$DIMTM
 40
0.01
  9
$DIMTXT
 40
2.0
  9
$DIMCEN
 40
0.1052362205
  9
$DIMTSZ
 40
0.0
  9
$DIMTOL
 70
     1
  9
$DIMLIM
 70
     0
  9
$DIMTIH
 70
     1
  9
$DIMTOH
 70
     1
  9
$DIMSE1
 70
     0
  9
$DIMSE2
 70
     0
  9
$DIMTAD
 70
     0
  9
$DIMZIN
 70
     0
  9
$DIMBLK
  1

  9
$DIMASO
 70
     1
  9
$DIMSHO
 70
     1
  9
$DIMPOST
  1
\X
  9
$DIMAPOST
  1

  9
$DIMALT
 70
     1
  9
$DIMALTD
 70
     2
  9
$DIMALTF
 40
25.3999999999999986
  9
$DIMLFAC
 40
1.0
  9
$DIMTOFL
 70
     0
  9
$DIMTVP
 40
0.0
  9
$DIMTIX
 70
     0
  9
$DIMSOXD
 70
     0
  9
$DIMSAH
 70
     0
  9
$DIMBLK1
  1

  9
$DIMBLK2
  1

  9
$DIMSTYLE
  2
STANDARD
  9
$DIMCLRD
 70
     0
  9
$DIMCLRE
 70
     0
  9
$DIMCLRT
 70
     0
  9
$DIMTFAC
 40
1.0
  9
$DIMGAP
 40
0.09
  9
$LUNITS
 70
     2
  9
$LUPREC
 70
     4
  9
$SKETCHINC
 40
0.1
  9
$FILLETRAD
 40
0.0
  9
$AUNITS
 70
     0
  9
$AUPREC
 70
     0
  9
$MENU
  1
.
  9
$ELEVATION
 40
0.0
  9
$PELEVATION
 40
0.0
  9
$THICKNESS
 40
0.0
  9
$LIMCHECK
 70
     0
  9
$BLIPMODE
 70
     0
  9
$CHAMFERA
 40
0.0
  9
$CHAMFERB
 40
0.0
  9
$SKPOLY
 70
     0
  9
$TDCREATE
 40
2458060.468368056230247
  9
$TDUPDATE
 40
2459061.6610185191966593
  9
$TDINDWG
 40
0.3160603009
  9
$TDUSRTIMER
 40
0.3160603009
  9
$USRTIMER
 70
     1
  9
$ANGBASE
 50
0.0
  9
$ANGDIR
 70
     0
  9
$PDMODE
 70
     0
  9
$PDSIZE
 40
0.3125
  9
$PLINEWID
 40
0.0
  9
$COORDS
 70
     1
  9
$SPLFRAME
 70
     0
  9
$SPLINETYPE
 70
     6
  9
$SPLINESEGS
 70
     8
  9
$ATTDIA
 70
     1
  9
$ATTREQ
 70
     1
  9
$HANDLING
 70
     1
  9
$HANDSEED
  5
83C7
  9
$SURFTAB1
 70
     6
  9
$SURFTAB2
 70
     6
  9
$SURFTYPE
 70
     6
  9
$SURFU
 70
     6
  9
$SURFV
 70
     6
  9
$UCSNAME
  2

  9
$UCSORG
 10
0.0
 20
0.0
 30
0.0
  9
$UCSXDIR
 10
1.0
 20
0.0
 30
0.0
  9
$UCSYDIR
 10
0.0
 20
1.0
 30
0.0
  9
$PUCSNAME
  2

  9
$PUCSORG
 10
0.0
 20
0.0
 30
0.0
  9
$PUCSXDIR
 10
1.0
 20
0.0
 30
0.0
  9
$PUCSYDIR
 10
0.0
 20
1.0
 30
0.0
  9
$USERI1
 70
     0
  9
$USERI2
 70
     0
  9
$USERI3
 70
     0
  9
$USERI4
 70
     0
  9
$USERI5
 70
     0
  9
$USERR1
 40
0.0
  9
$USERR2
 40
0.0
  9
$USERR3
 40
0.0
  9
$USERR4
 40
0.0
  9
$USERR5
 40
0.0
  9
$WORLDVIEW
 70
     1
  9
$SHADEDGE
 70
     3
  9
$SHADEDIF
 70
    70
  9
$TILEMODE
 70
     1
  9
$MAXACTVP
 70
    64
  9
$PLIMCHECK
 70
     0
  9
$PEXTMIN
 10
1.0000000000000000E+20
 20
1.0000000000000000E+20
 30
1.0000000000000000E+20
  9
$PEXTMAX
 10
-1.0000000000000000E+20
 20
-1.0000000000000000E+20
 30
-1.0000000000000000E+20
  9
$PLIMMIN
 10
0.0
 20
0.0
  9
$PLIMMAX
 10
12.0
 20
9.0
  9
$UNITMODE
 70
     0
  9
$VISRETAIN
 70
     1
  9
$PLINEGEN
 70
     0
  9
$PSLTSCALE
 70
     1
  0
ENDSEC
  0
SECTION
  2
TABLES
  0
TABLE
  2
VPORT
 70
     1
  0
VPORT
  2
*ACTIVE
 70
     0
 10
0.0
 20
0.0
 11
1.0
 21
1.0
 12
0.0
 22
0.0
 13
0.0
 23
0.0
 14
1.0
 24
1.0
 15
0.0
 25
0.0
 16
0.0
 26
0.0
 36
37.7339409427306478
 17
4328.5039062499990905
 27
173.1328645392354133
 37
0.0
 40
13.1715115024909899
 41
2.1481900452488678
 42
50.0
 43
0.0
 44
0.0
 50
0.0
 51
0.0
 71
     0
 72
   100
 73
     1
 74
     1
 75
     0
 76
     0
 77
     0
 78
     0
  0
ENDTAB
  0
TABLE
  2
LTYPE
 70
     2
  0
LTYPE
  2
CONTINUOUS
 70
     0
  3
Solid line
 72
    65
 73
     0
 40
0.0
  0
LTYPE
  2
PHANTOM2
 70
     0
  3
___ _ _ ___ _ _ ___ _ _ ___ _ _
 72
    65
 73
     6
 40
1.25
 49
0.625
 49
-0.125
 49
0.125
 49
-0.125
 49
0.125
 49
-0.125
  0
ENDTAB
  0
TABLE
  2
LAYER
 70
     2
  0
LAYER
  2
0
 70
     0
 62
   255
  6
CONTINUOUS
  0
LAYER
  2
DEFPOINTS
 70
     0
 62
     7
  6
CONTINUOUS
  0
ENDTAB
  0
TABLE
  2
STYLE
 70
     1
  0
STYLE
  2
STANDARD
 70
     0
 40
0.0
 41
0.8
 50
0.0
 71
     0
 42
0.2
  3
txt
  4

  0
ENDTAB
  0
TABLE
  2
VIEW
 70
     0
  0
ENDTAB
  0
TABLE
  2
UCS
 70
     0
  0
ENDTAB
  0
TABLE
  2
APPID
 70
     9
  0
APPID
  2
ACAD
 70
     0
  0
APPID
  2
ACAD_MLEADERVER
 70
     0
  0
APPID
  2
ACAD_EXEMPT_FROM_CAD_STANDARDS
 70
     0
  0
APPID
  2
ACAD_NAV_VCDISPLAY
 70
     0
  0
APPID
  2
ACAECLAYERSTANDARD
 70
     0
  0
APPID
  2
ACCMTRANSPARENCY
 70
     0
  0
APPID
  2
ACAD_DSTYLE_DIMJAG
 70
     0
  0
APPID
  2
ACAD_DSTYLE_DIMTALN
 70
     0
  0
APPID
  2
ACDBATTR
 70
     0
  0
ENDTAB
  0
TABLE
  2
DIMSTYLE
 70
     1
  0
DIMSTYLE
  2
STANDARD
 70
     0
  3

  4

  5

  6

  7

 40
1.0
 41
0.1875
 42
0.0625
 43
0.38
 44
0.125
 45
0.0
 46
0.0
 47
0.01
 48
0.01
140
0.15625
141
0.09
142
0.0
143
25.3999999999999986
144
1.0
145
0.0
146
1.0
147
0.09
 71
     1
 72
     0
 73
     1
 74
     1
 75
     0
 76
     0
 77
     0
 78
     4
170
     0
171
     2
172
     0
173
     0
174
     0
175
     0
176
     0
177
     0
178
     0
  0
ENDTAB
  0
ENDSEC
  0
SECTION
  2
BLOCKS
  0
BLOCK
  8
0
  2
$MODEL_SPACE
 70
     0
 10
0.0
 20
0.0
 30
0.0
  3
$MODEL_SPACE
  1

  0
ENDBLK
  5
21
  8
0
  0
BLOCK
 67
     1
  8
0
  2
$PAPER_SPACE
 70
     0
 10
0.0
 20
0.0
 30
0.0
  3
$PAPER_SPACE
  1

  0
ENDBLK
  5
1D
 67
     1
  8
0
  0
ENDSEC
  0
SECTION
  2
ENTITIES
  0
ATTDEF
  5
3930
  8
DEFPOINTS
 10
4327.4516175642238522
 20
167.006626498718191
 30
0.0
 40
0.001
  1
K-23767
  3

  2
MODELNUMBER
 70
     0
1001
ACDBATTR
1070
     0
1070
     1
  0
ATTDEF
  5
3931
  8
DEFPOINTS
 10
4327.4516175642238522
 20
167.0049598320514974
 30
0.0
 40
0.001
  1
TONE
  3

  2
TRADENAME
 70
     0
1001
ACDBATTR
1070
     0
1070
     1
  0
ATTDEF
  5
3932
  8
DEFPOINTS
 10
4327.4516175642238522
 20
167.0032931653848038
 30
0.0
 40
0.001
  1
KITCHEN SINK FAUCET
  3

  2
PRODUCT
 70
     0
1001
ACDBATTR
1070
     0
1070
     1
  0
LINE
  5
825E
  8
0
 10
4326.1179249858023468
 20
167.0083270846189123
 30
0.0
 11
4328.7950903402033873
 21
167.0083270846189123
 31
0.0
  0
LINE
  5
825F
  8
0
 10
4326.1178168018032011
 20
167.0476971634188885
 30
0.0
 11
4328.7951985242016235
 21
167.0476971634188885
 31
0.0
  0
LINE
  5
8260
  8
0
 10
4328.8062291770011143
 20
167.2644145295188878
 30
0.0
 11
4326.1067861490028008
 21
167.2644145295188878
 31
0.0
  0
LINE
  5
8261
  8
0
 10
4329.8390954828018948
 20
170.1116663212189053
 30
0.0
 11
4329.7034951963023559
 21
170.1104829554188882
 31
0.0
  0
LINE
  5
8262
  8
0
 10
4329.4807942208017266
 20
170.1085394734188867
 30
0.0
 11
4329.395405863502674
 21
170.1077943005819009
 31
0.0
  0
LINE
  5
8263
  8
0
 10
4326.1099653644023419
 20
167.0549753140188898
 30
0.0
 11
4326.0959104182020383
 21
167.2390372935672929
 31
0.0
  0
LINE
  5
8264
  8
0
 10
4329.2710608530023819
 20
170.1381171634189116
 30
0.0
 11
4329.0565076627017334
 21
170.1381171634189116
 31
0.0
  0
LINE
  5
8265
  8
0
 10
4326.1186547412016807
 20
167.0361953163188957
 30
0.0
 11
4326.1179249858023468
 21
167.0083270846189123
 31
0.0
  0
LINE
  5
8266
  8
0
 10
4326.8788575684811804
 20
173.2394171634188922
 30
0.0
 11
4326.8787051985018479
 21
173.2512281870189099
 31
0.0
  0
LINE
  5
8267
  8
0
 10
4326.813544064002599
 20
173.8525171476188973
 30
0.0
 11
4326.813544064002599
 21
173.2709132264189122
 31
0.0
  0
LINE
  5
8268
  8
0
 10
4326.964007662701988
 20
178.7699289744188889
 30
0.0
 11
4326.964007662701988
 21
173.8918872257189037
 31
0.0
  0
LINE
  5
8269
  8
0
 10
4329.2710608530023819
 20
171.5331171634188934
 30
0.0
 11
4329.0565076601023975
 21
171.5331171634188934
 31
0.0
  0
LINE
  5
826A
  8
0
 10
4330.8900014368018674
 20
171.6179885246189087
 30
0.0
 11
4330.3857309742015786
 21
171.6179885246189087
 31
0.0
  0
LINE
  5
826B
  8
0
 10
4329.8390954828018948
 20
171.5595757041189131
 30
0.0
 11
4329.395405863502674
 21
171.5634477248189
 31
0.0
  0
LINE
  5
826C
  8
0
 10
4328.0694760810029038
 20
173.2394171634188922
 30
0.0
 11
4326.8435392450028303
 21
173.2394171634188922
 31
0.0
  0
LINE
  5
826D
  8
0
 10
4326.8337176943014128
 20
173.2512281870189099
 30
0.0
 11
4328.0792976317015928
 21
173.2512281870189099
 31
0.0
  0
LINE
  5
826E
  8
0
 10
4330.3839743136022662
 20
173.5738024671188953
 30
0.0
 11
4330.8917580974020893
 21
173.5738024671188953
 31
0.0
  0
LINE
  5
826F
  8
0
 10
4329.3010608530021273
 20
170.1681170227188886
 30
0.0
 11
4329.3010608530021273
 21
171.5031169598188967
 31
0.0
  0
LINE
  5
8270
  8
0
 10
4329.375549042001694
 20
170.1274826684189065
 30
0.0
 11
4329.375549042001694
 21
171.5437593569189119
 31
0.0
  0
LINE
  5
8271
  8
0
 10
4328.0792978143017535
 20
173.8722021870188996
 30
0.0
 11
4326.8337175117030711
 21
173.8722021870188996
 31
0.0
  0
LINE
  5
8272
  8
0
 10
4329.9078273898021507
 20
171.0956003705188948
 30
0.0
 11
4329.902329318349075
 21
171.1646558190329017
 31
0.0
  0
LINE
  5
8273
  8
0
 10
4329.8700124959023015
 20
170.1387943135189005
 30
0.0
 11
4329.8700132304020372
 21
171.5324424644188923
 31
0.0
  0
LINE
  5
8274
  8
0
 10
4326.9837296840023555
 20
174.265902974418907
 30
0.0
 11
4327.9292856420015596
 21
174.265902974418907
 31
0.0
  0
LINE
  5
8275
  8
0
 10
4329.9078273898021507
 20
171.0956003705188948
 30
0.0
 11
4329.9084725158309084
 21
170.5852624482033093
 31
0.0
  0
LINE
  5
8276
  8
0
 10
4329.9023293343016121
 20
171.2367388272188862
 30
0.0
 11
4329.902329156228916
 21
170.4321479515554074
 31
0.0
  0
LINE
  5
8277
  8
0
 10
4330.3638662055027453
 20
171.6468644317189103
 30
0.0
 11
4330.3638662055027453
 21
173.5454802060189081
 31
0.0
  0
LINE
  5
8278
  8
0
 10
4330.9118662055034292
 20
171.6468644317189103
 30
0.0
 11
4330.9118662055034292
 21
173.5454802060189081
 31
0.0
  0
ARC
  5
8279
  8
0
 10
4326.1339021222484007
 20
167.2377745582004991
 30
0.0
 40
0.0380126831060142
 50
135.5073334480381959
 51
178.0963532699942959
  0
ARC
  5
827A
  8
0
 10
4326.1311321972470978
 20
167.0353861721351905
 30
0.0
 40
0.0125036644639358
 50
100.0713774490578061
 51
176.2896506987032126
  0
ARC
  5
827B
  8
0
 10
4326.1183772712729478
 20
167.0561757957584916
 30
0.0
 40
0.0084971367165638
 50
188.1219641327276122
 51
266.2180358671432145
  0
ARC
  5
827C
  8
0
 10
4325.0953118388233634
 20
170.8610194344080924
 30
0.0
 40
4.821678365878169
 50
4.4691866621381973
 51
8.0045011250828324
  0
ARC
  5
827D
  8
0
 10
4324.8922022668857608
 20
170.8356207290833026
 30
0.0
 40
5.0263467577880911
 50
352.0311461545726957
 51
355.395823881839874
  0
ARC
  5
827E
  8
0
 10
4326.8457429713707825
 20
173.2071735635018968
 30
0.0
 40
0.0323188202988697
 50
93.9098663885746845
 51
175.0628389808275074
  0
ARC
  5
827F
  8
0
 10
4326.9428762653196827
 20
173.8933340970068002
 30
0.0
 40
0.0211808732552049
 50
273.8965889307339125
 51
356.0830592118401796
  0
ARC
  5
8280
  8
0
 10
4326.9846672222620327
 20
174.2865643145190973
 30
0.0
 40
0.0206826002409715
 50
182.7047245005093998
 51
267.401903141841899
  0
ARC
  5
8281
  8
0
 10
4326.8348755989873098
 20
173.2725945251966948
 30
0.0
 40
0.0213976903049457
 50
184.5065949456206056
 51
266.898007600002984
  0
ARC
  5
8282
  8
0
 10
4326.8358196283506913
 20
173.8498684077723908
 30
0.0
 40
0.0224324896040356
 50
95.376995055440787
 51
173.2189208536775027
  0
ARC
  5
8283
  8
0
 10
4329.8388206313402407
 20
170.1431611848196894
 30
0.0
 40
0.0314960629004428
 50
270.4999999326885813
 51
352.030371253982878
  0
ARC
  5
8284
  8
0
 10
4329.3310509293132782
 20
170.1908390096288031
 30
0.0
 40
0.0301948712974397
 50
186.6769245651333051
 51
301.1142841423650793
  0
ARC
  5
8285
  8
0
 10
4329.2710608530023819
 20
170.1681171634195096
 30
0.0
 40
0.0300000000005636
 50
270.000000000469015
 51
359.9997312817177999
  0
ARC
  5
8286
  8
0
 10
4329.396283724665409
 20
170.1285372148689987
 30
0.0
 40
0.0207614819639906
 50
182.9115008246006937
 51
267.5766306380721744
  0
ARC
  5
8287
  8
0
 10
4328.9386325156028761
 20
170.8356171634185046
 30
0.0
 40
0.7849999999995591
 50
301.3170013628898118
 51
303.8197180967911208
  0
ARC
  5
8288
  8
0
 10
4328.9386325156028761
 20
170.8356171634189025
 30
0.0
 40
0.7849999999999646
 50
56.1802819032088365
 51
58.6829979746161712
  0
ARC
  5
8289
  8
0
 10
4330.6378662055021778
 20
172.8468644317188989
 30
0.0
 40
0.7700000000000001
 50
70.7476279873224883
 51
109.2523720126774975
  0
ARC
  5
828A
  8
0
 10
4329.8388206310783062
 20
171.528080839831091
 30
0.0
 40
0.0314960635897147
 50
7.9599912332167051
 51
89.4999996014283568
  0
ARC
  5
828B
  8
0
 10
4329.3310608530064201
 20
171.4806171634168095
 30
0.0
 40
0.0300000000035539
 50
58.6829812293637332
 51
179.9999999960297998
  0
ARC
  5
828C
  8
0
 10
4330.3938662055015811
 20
173.5454802060189081
 30
0.0
 40
0.03
 50
109.2523720128957052
 51
180.0
  0
ARC
  5
828D
  8
0
 10
4330.8818662055027744
 20
173.5454802060189081
 30
0.0
 40
0.03
 50
0.0
 51
70.7476279871042237
  0
ARC
  5
828E
  8
0
 10
4330.8818662055027744
 20
171.6468644317189103
 30
0.0
 40
0.03
 50
285.7341610864888253
 51
0.0
  0
ARC
  5
828F
  8
0
 10
4330.3938662055015811
 20
171.6468644317189103
 30
0.0
 40
0.03
 50
180.0
 51
254.2658389135112031
  0
ARC
  5
8290
  8
0
 10
4329.2710608530023819
 20
171.5031171634176985
 30
0.0
 40
0.0300000000011796
 50
359.9996111548971953
 51
89.9999999990620125
  0
ARC
  5
8291
  8
0
 10
4329.3965954376026275
 20
171.5423904306354075
 30
0.0
 40
0.0210908683300929
 50
93.2333310347712967
 51
176.2785375688116005
  0
ARC
  5
8292
  8
0
 10
4321.5861105860212774
 20
169.3179029482406861
 30
0.0
 40
4.9652111970701487
 50
335.570375363200526
 51
355.2770139631767279
  0
ARC
  5
8293
  8
0
 10
4276.9727758423050545
 20
174.2846040170902029
 30
0.0
 40
49.8523524760202719
 50
353.8098191809230002
 51
358.7648000842372085
  0
ARC
  5
8294
  8
0
 10
4327.473887111629665
 20
178.7525534139923877
 30
0.0
 40
0.5101754232999981
 50
91.9521946858317563
 51
178.0482422362117916
  0
LINE
  5
8295
  8
0
 10
4328.8030499616015732
 20
167.0549753140188898
 30
0.0
 11
4328.8171049078027863
 21
167.2390372935672929
 31
0.0
  0
LINE
  5
8296
  8
0
 10
4328.7943605848022344
 20
167.0361953163188957
 30
0.0
 11
4328.7950903402033873
 21
167.0083270846189123
 31
0.0
  0
LINE
  5
8297
  8
0
 10
4328.0341577575236442
 20
173.2394171634188922
 30
0.0
 11
4328.0343101275020672
 21
173.2512281870189099
 31
0.0
  0
LINE
  5
8298
  8
0
 10
4328.0994712620022256
 20
173.8525171476188973
 30
0.0
 11
4328.0994712620022256
 21
173.2709132264189122
 31
0.0
  0
LINE
  5
8299
  8
0
 10
4327.9490076633028366
 20
178.7699289744188889
 30
0.0
 11
4327.9490076633028366
 21
173.8918872257189037
 31
0.0
  0
ARC
  5
829A
  8
0
 10
4328.7791132037564239
 20
167.2377745582004991
 30
0.0
 40
0.0380126831060142
 50
1.903646730005677
 51
44.4926665519618183
  0
ARC
  5
829B
  8
0
 10
4328.7818831287568173
 20
167.0353861721351905
 30
0.0
 40
0.0125036644639358
 50
3.7103493012967861
 51
79.9286225509421371
  0
ARC
  5
829C
  8
0
 10
4328.7946380547309673
 20
167.0561757957584916
 30
0.0
 40
0.0084971367165638
 50
273.7819641328567855
 51
351.8780358672723878
  0
ARC
  5
829D
  8
0
 10
4328.0672723546331326
 20
173.2071735635018968
 30
0.0
 40
0.0323188202988697
 50
4.9371610191724562
 51
86.0901336114253297
  0
ARC
  5
829E
  8
0
 10
4327.9701390606851419
 20
173.8933340970068002
 30
0.0
 40
0.0211808732552049
 50
183.916940788159792
 51
266.1034110692662011
  0
ARC
  5
829F
  8
0
 10
4327.9283481037418824
 20
174.2865643145190973
 30
0.0
 40
0.0206826002409715
 50
272.598096858158101
 51
357.2952754994905717
  0
ARC
  5
82A0
  8
0
 10
4328.0781397270184243
 20
173.2725945251966948
 30
0.0
 40
0.0213976903049457
 50
273.101992399997016
 51
355.4934050543794228
  0
ARC
  5
82A1
  8
0
 10
4328.0771956976532238
 20
173.8498684077723908
 30
0.0
 40
0.0224324896040356
 50
6.7810791463224529
 51
84.623004944559213
  0
ARC
  5
82A2
  8
0
 10
4333.3269047399835472
 20
169.3179029482406861
 30
0.0
 40
4.9652111970701487
 50
184.7229860368233005
 51
204.4296246367995025
  0
ARC
  5
82A3
  8
0
 10
4377.9402394836988606
 20
174.2846040170902029
 30
0.0
 40
49.8523524760202719
 50
181.2351999157627915
 51
182.2092811200350013
  0
ARC
  5
82A4
  8
0
 10
4377.9402394836988606
 20
174.2846040170902029
 30
0.0
 40
49.8523524760202719
 50
185.5467776154125943
 51
186.1901808190768861
  0
ARC
  5
82A5
  8
0
 10
4327.4391282143751596
 20
178.7525534139923877
 30
0.0
 40
0.5101754232999972
 50
1.95175776378815
 51
88.0478053141682437
  0
ARC
  5
82A6
  8
0
 10
4329.5983455795667396
 20
169.3989617861925012
 30
0.0
 40
0.719248785996138
 50
81.5935921525464067
 51
99.4064078628185968
  0
ARC
  5
82A7
  8
0
 10
4329.9664916718666063
 20
171.1002350325385066
 30
0.0
 40
0.058847073691857
 50
184.5171636716225976
 51
280.5154249788793095
  0
ARC
  5
82A8
  8
0
 10
4329.8729833054158007
 20
171.6001339501029008
 30
0.0
 40
0.5674163321420816
 50
280.5867450921138015
 51
1.310747782829619
  0
ARC
  5
82A9
  8
0
 10
4330.4324054462631466
 20
171.6129338750700981
 30
0.0
 40
0.0078485191544946
 50
1.3313741520412381
 51
40.0926794257069972
  0
ARC
  5
82AA
  8
0
 10
4330.8431587413388115
 20
171.6128579773526894
 30
0.0
 40
0.0080309823184577
 50
140.2943043593664925
 51
180.2823023272476917
  0
ARC
  5
82AB
  8
0
 10
4329.8741962377862365
 20
171.5994590303772895
 30
0.0
 40
0.9610244787829014
 50
275.2466319043085718
 51
0.7965048001781571
  0
LINE
  5
82AC
  8
0
 10
4329.9023291727062315
 20
170.5065958999782083
 30
0.0
 11
4329.9084725158309084
 21
170.5852624482033093
 31
0.0
  0
ARC
  5
82AD
  8
0
 10
4329.9676112942952386
 20
170.5835571687011907
 30
0.0
 40
0.0591633594071803
 50
95.3691193850329881
 51
178.3483214444374028
  0
ARC
  5
82AE
  8
0
 10
4329.0262798075882529
 20
173.295204991087104
 30
0.0
 40
1.762347081446757
 50
254.4402900455037866
 51
270.9827878528237761
  0
ARC
  5
82AF
  8
0
 10
4328.8389572663490981
 20
172.2245981281560887
 30
0.0
 40
0.6890439480013121
 50
190.130902592731502
 51
245.5299770995690949
  0
ARC
  5
82B0
  8
0
 10
4330.8141770944721429
 20
172.6008718344932049
 30
0.0
 40
2.6997504413138662
 50
185.058823471285109
 51
190.6184006328282123
  0
ARC
  5
82B1
  8
0
 10
4329.0549778229269577
 20
168.0242406311392926
 30
0.0
 40
2.1138770858618892
 50
89.9585343108922615
 51
98.2071792023669445
  0
ARC
  5
82B2
  8
0
 10
4328.838942971189681
 20
169.6264941671880138
 30
0.0
 40
0.4974169907983858
 50
99.9241917569152491
 51
157.1077486187714101
  0
ARC
  5
82B3
  8
0
 10
4329.2067874075901273
 20
169.4994166876234942
 30
0.0
 40
0.8861045228320286
 50
158.7906225871176957
 51
182.1640842647636021
  0
ENDSEC
  0
EOF
