  0
SECTION
  2
HEADER
  9
$ACADVER
  1
AC1009
  9
$INSBASE
 10
4306.3599771517738191
 20
161.9475253610544883
 30
0.0
  9
$EXTMIN
 10
4304.9992992471234174
 20
161.9425899301782863
 30
0.0
  9
$EXTMAX
 10
4310.3643506141252146
 20
179.146694637826414
 30
0.0
  9
$LIMMIN
 10
0.0
 20
0.0
  9
$LIMMAX
 10
11.6929133858000007
 20
8.2677165353999982
  9
$ORTHOMODE
 70
     1
  9
$REGENMODE
 70
     1
  9
$FILLMODE
 70
     1
  9
$QTEXTMODE
 70
     0
  9
$MIRRTEXT
 70
     0
  9
$DRAGMODE
 70
     2
  9
$LTSCALE
 40
0.6431102362
  9
$OSMODE
 70
  4095
  9
$ATTMODE
 70
     1
  9
$TEXTSIZE
 40
0.2
  9
$TRACEWID
 40
0.05
  9
$TEXTSTYLE
  7
STANDARD
  9
$CLAYER
  8
0
  9
$CELTYPE
  6
BYLAYER
  9
$CECOLOR
 62
   256
  9
$DIMSCALE
 40
1.0
  9
$DIMASZ
 40
0.1875
  9
$DIMEXO
 40
0.0625
  9
$DIMDLI
 40
0.4443307087
  9
$DIMRND
 40
0.0
  9
$DIMDLE
 40
0.0
  9
$DIMEXE
 40
0.125
  9
$DIMTP
 40
0.01
  9
$DIMTM
 40
0.01
  9
$DIMTXT
 40
2.0
  9
$DIMCEN
 40
0.1052362205
  9
$DIMTSZ
 40
0.0
  9
$DIMTOL
 70
     1
  9
$DIMLIM
 70
     0
  9
$DIMTIH
 70
     1
  9
$DIMTOH
 70
     1
  9
$DIMSE1
 70
     0
  9
$DIMSE2
 70
     0
  9
$DIMTAD
 70
     0
  9
$DIMZIN
 70
     0
  9
$DIMBLK
  1

  9
$DIMASO
 70
     1
  9
$DIMSHO
 70
     1
  9
$DIMPOST
  1
\X
  9
$DIMAPOST
  1

  9
$DIMALT
 70
     1
  9
$DIMALTD
 70
     2
  9
$DIMALTF
 40
25.3999999999999986
  9
$DIMLFAC
 40
1.0
  9
$DIMTOFL
 70
     0
  9
$DIMTVP
 40
0.0
  9
$DIMTIX
 70
     0
  9
$DIMSOXD
 70
     0
  9
$DIMSAH
 70
     0
  9
$DIMBLK1
  1

  9
$DIMBLK2
  1

  9
$DIMSTYLE
  2
STANDARD
  9
$DIMCLRD
 70
     0
  9
$DIMCLRE
 70
     0
  9
$DIMCLRT
 70
     0
  9
$DIMTFAC
 40
1.0
  9
$DIMGAP
 40
0.09
  9
$LUNITS
 70
     2
  9
$LUPREC
 70
     4
  9
$SKETCHINC
 40
0.1
  9
$FILLETRAD
 40
0.0
  9
$AUNITS
 70
     0
  9
$AUPREC
 70
     0
  9
$MENU
  1
.
  9
$ELEVATION
 40
0.0
  9
$PELEVATION
 40
0.0
  9
$THICKNESS
 40
0.0
  9
$LIMCHECK
 70
     0
  9
$BLIPMODE
 70
     0
  9
$CHAMFERA
 40
0.0
  9
$CHAMFERB
 40
0.0
  9
$SKPOLY
 70
     0
  9
$TDCREATE
 40
2458060.468368056230247
  9
$TDUPDATE
 40
2459061.6589930560439825
  9
$TDINDWG
 40
0.313884375
  9
$TDUSRTIMER
 40
0.313884375
  9
$USRTIMER
 70
     1
  9
$ANGBASE
 50
0.0
  9
$ANGDIR
 70
     0
  9
$PDMODE
 70
     0
  9
$PDSIZE
 40
0.3125
  9
$PLINEWID
 40
0.0
  9
$COORDS
 70
     1
  9
$SPLFRAME
 70
     0
  9
$SPLINETYPE
 70
     6
  9
$SPLINESEGS
 70
     8
  9
$ATTDIA
 70
     1
  9
$ATTREQ
 70
     1
  9
$HANDLING
 70
     1
  9
$HANDSEED
  5
81E9
  9
$SURFTAB1
 70
     6
  9
$SURFTAB2
 70
     6
  9
$SURFTYPE
 70
     6
  9
$SURFU
 70
     6
  9
$SURFV
 70
     6
  9
$UCSNAME
  2

  9
$UCSORG
 10
0.0
 20
0.0
 30
0.0
  9
$UCSXDIR
 10
1.0
 20
0.0
 30
0.0
  9
$UCSYDIR
 10
0.0
 20
1.0
 30
0.0
  9
$PUCSNAME
  2

  9
$PUCSORG
 10
0.0
 20
0.0
 30
0.0
  9
$PUCSXDIR
 10
1.0
 20
0.0
 30
0.0
  9
$PUCSYDIR
 10
0.0
 20
1.0
 30
0.0
  9
$USERI1
 70
     0
  9
$USERI2
 70
     0
  9
$USERI3
 70
     0
  9
$USERI4
 70
     0
  9
$USERI5
 70
     0
  9
$USERR1
 40
0.0
  9
$USERR2
 40
0.0
  9
$USERR3
 40
0.0
  9
$USERR4
 40
0.0
  9
$USERR5
 40
0.0
  9
$WORLDVIEW
 70
     1
  9
$SHADEDGE
 70
     3
  9
$SHADEDIF
 70
    70
  9
$TILEMODE
 70
     1
  9
$MAXACTVP
 70
    64
  9
$PLIMCHECK
 70
     0
  9
$PEXTMIN
 10
1.0000000000000000E+20
 20
1.0000000000000000E+20
 30
1.0000000000000000E+20
  9
$PEXTMAX
 10
-1.0000000000000000E+20
 20
-1.0000000000000000E+20
 30
-1.0000000000000000E+20
  9
$PLIMMIN
 10
0.0
 20
0.0
  9
$PLIMMAX
 10
12.0
 20
9.0
  9
$UNITMODE
 70
     0
  9
$VISRETAIN
 70
     1
  9
$PLINEGEN
 70
     0
  9
$PSLTSCALE
 70
     1
  0
ENDSEC
  0
SECTION
  2
TABLES
  0
TABLE
  2
VPORT
 70
     1
  0
VPORT
  2
*ACTIVE
 70
     0
 10
0.0
 20
0.0
 11
1.0
 21
1.0
 12
0.0
 22
0.0
 13
0.0
 23
0.0
 14
1.0
 24
1.0
 15
0.0
 25
0.0
 16
0.0
 26
0.0
 36
51.6279055704596388
 17
4307.6818847656240905
 27
170.5446439641125949
 37
0.0
 40
18.0213763810914998
 41
2.1481900452488678
 42
50.0
 43
0.0
 44
0.0
 50
0.0
 51
0.0
 71
     0
 72
   100
 73
     1
 74
     1
 75
     0
 76
     0
 77
     0
 78
     0
  0
ENDTAB
  0
TABLE
  2
LTYPE
 70
     2
  0
LTYPE
  2
CONTINUOUS
 70
     0
  3
Solid line
 72
    65
 73
     0
 40
0.0
  0
LTYPE
  2
PHANTOM2
 70
     0
  3
___ _ _ ___ _ _ ___ _ _ ___ _ _
 72
    65
 73
     6
 40
1.25
 49
0.625
 49
-0.125
 49
0.125
 49
-0.125
 49
0.125
 49
-0.125
  0
ENDTAB
  0
TABLE
  2
LAYER
 70
     2
  0
LAYER
  2
0
 70
     0
 62
   255
  6
CONTINUOUS
  0
LAYER
  2
DEFPOINTS
 70
     0
 62
     7
  6
CONTINUOUS
  0
ENDTAB
  0
TABLE
  2
STYLE
 70
     1
  0
STYLE
  2
STANDARD
 70
     0
 40
0.0
 41
0.8
 50
0.0
 71
     0
 42
0.2
  3
txt
  4

  0
ENDTAB
  0
TABLE
  2
VIEW
 70
     0
  0
ENDTAB
  0
TABLE
  2
UCS
 70
     0
  0
ENDTAB
  0
TABLE
  2
APPID
 70
     9
  0
APPID
  2
ACAD
 70
     0
  0
APPID
  2
ACAD_MLEADERVER
 70
     0
  0
APPID
  2
ACAD_EXEMPT_FROM_CAD_STANDARDS
 70
     0
  0
APPID
  2
ACAD_NAV_VCDISPLAY
 70
     0
  0
APPID
  2
ACAECLAYERSTANDARD
 70
     0
  0
APPID
  2
ACCMTRANSPARENCY
 70
     0
  0
APPID
  2
ACAD_DSTYLE_DIMJAG
 70
     0
  0
APPID
  2
ACAD_DSTYLE_DIMTALN
 70
     0
  0
APPID
  2
ACDBATTR
 70
     0
  0
ENDTAB
  0
TABLE
  2
DIMSTYLE
 70
     1
  0
DIMSTYLE
  2
STANDARD
 70
     0
  3

  4

  5

  6

  7

 40
1.0
 41
0.1875
 42
0.0625
 43
0.38
 44
0.125
 45
0.0
 46
0.0
 47
0.01
 48
0.01
140
0.15625
141
0.09
142
0.0
143
25.3999999999999986
144
1.0
145
0.0
146
1.0
147
0.09
 71
     1
 72
     0
 73
     1
 74
     1
 75
     0
 76
     0
 77
     0
 78
     4
170
     0
171
     2
172
     0
173
     0
174
     0
175
     0
176
     0
177
     0
178
     0
  0
ENDTAB
  0
ENDSEC
  0
SECTION
  2
BLOCKS
  0
BLOCK
  8
0
  2
$MODEL_SPACE
 70
     0
 10
0.0
 20
0.0
 30
0.0
  3
$MODEL_SPACE
  1

  0
ENDBLK
  5
21
  8
0
  0
BLOCK
 67
     1
  8
0
  2
$PAPER_SPACE
 70
     0
 10
0.0
 20
0.0
 30
0.0
  3
$PAPER_SPACE
  1

  0
ENDBLK
  5
1D
 67
     1
  8
0
  0
ENDSEC
  0
SECTION
  2
ENTITIES
  0
ATTDEF
  5
3930
  8
DEFPOINTS
 10
4306.355873337894991
 20
161.9459232635115882
 30
0.0
 40
0.001
  1
K-23764
  3

  2
MODELNUMBER
 70
     0
1001
ACDBATTR
1070
     0
1070
     1
  0
ATTDEF
  5
3931
  8
DEFPOINTS
 10
4306.355873337894991
 20
161.9442565968450083
 30
0.0
 40
0.001
  1
TONE
  3

  2
TRADENAME
 70
     0
1001
ACDBATTR
1070
     0
1070
     1
  0
ATTDEF
  5
3932
  8
DEFPOINTS
 10
4306.355873337894991
 20
161.9425899301782863
 30
0.0
 40
0.001
  1
KITCHEN SINK FAUCET
  3

  2
PRODUCT
 70
     0
1001
ACDBATTR
1070
     0
1070
     1
  0
LINE
  5
80B5
  8
0
 10
4305.0422251683239665
 20
161.9475253610544883
 30
0.0
 11
4307.6777291352236716
 21
161.9475253610544883
 31
0.0
  0
LINE
  5
80B6
  8
0
 10
4305.0322349111238509
 20
162.0065804791545077
 30
0.0
 11
4307.6877193924237872
 21
162.0065804791545077
 31
0.0
  0
LINE
  5
80B7
  8
0
 10
4308.8521038138242147
 20
163.7778162272545046
 30
0.0
 11
4308.9023805715241906
 21
163.7778162272545046
 31
0.0
  0
LINE
  5
80B8
  8
0
 10
4309.1401250706239807
 20
163.7778162272545046
 30
0.0
 11
4309.2852210175242362
 21
163.7778162272545046
 31
0.0
  0
LINE
  5
80B9
  8
0
 10
4308.2099771518242051
 20
163.8173004791545111
 30
0.0
 11
4308.7062921124243076
 21
163.8173004791545111
 31
0.0
  0
LINE
  5
80BA
  8
0
 10
4308.7338511675243353
 20
163.8307256760546124
 30
0.0
 11
4308.7259771518238267
 21
163.8307256760546124
 31
0.0
  0
LINE
  5
80BB
  8
0
 10
4309.846350614124276
 20
165.516316227254606
 30
0.0
 11
4310.3343506141227408
 21
165.516316227254606
 31
0.0
  0
LINE
  5
80BC
  8
0
 10
4308.7338511675243353
 20
165.6338752823546088
 30
0.0
 11
4308.7259771518238267
 21
165.6338752823546088
 31
0.0
  0
LINE
  5
80BD
  8
0
 10
4308.7062921124243076
 20
165.6473004791546089
 30
0.0
 11
4308.2099771518242051
 21
165.6473004791546089
 31
0.0
  0
LINE
  5
80BE
  8
0
 10
4308.8521038138242147
 20
165.6848162272544869
 30
0.0
 11
4309.2852210175242362
 21
165.6848162272544869
 31
0.0
  0
LINE
  5
80BF
  8
0
 10
4304.9992992471889011
 20
162.198983428054504
 30
0.0
 11
4305.0126063177231117
 21
162.0247758556546103
 31
0.0
  0
LINE
  5
80C0
  8
0
 10
4305.2913794683117885
 20
169.5652765745545025
 30
0.0
 11
4305.2913794683117885
 21
169.8059266399544924
 31
0.0
  0
LINE
  5
80C1
  8
0
 10
4305.0304159436227565
 20
161.9595425154545865
 30
0.0
 11
4305.0310344301251462
 21
161.9949755863545988
 31
0.0
  0
LINE
  5
80C2
  8
0
 10
4310.3442425060229652
 20
168.1332542625544875
 30
0.0
 11
4309.8364587222240516
 21
168.1332542625544875
 31
0.0
  0
LINE
  5
80C3
  8
0
 10
4305.9370773063556044
 20
169.4593126104745977
 30
0.0
 11
4305.9371143914240747
 21
169.4508133815546103
 31
0.0
  0
LINE
  5
80C4
  8
0
 10
4305.7974771518229318
 20
178.5843184585544918
 30
0.0
 11
4305.7974771518229318
 21
174.4326765421544962
 31
0.0
  0
LINE
  5
80C5
  8
0
 10
4305.7377771219244096
 20
174.4037235270544954
 30
0.0
 11
4305.7110613364229721
 21
173.6386835270546101
 31
0.0
  0
LINE
  5
80C6
  8
0
 10
4306.3264787687230637
 20
169.4649873891546008
 30
0.0
 11
4306.3052277776250776
 21
169.5352765745545867
 31
0.0
  0
LINE
  5
80C7
  8
0
 10
4305.9471142962229351
 20
169.4408570146545117
 30
0.0
 11
4306.772840007322884
 21
169.4408570146545117
 31
0.0
  0
LINE
  5
80C8
  8
0
 10
4305.3215017633237949
 20
169.5352765745545867
 30
0.0
 11
4307.3984525402238432
 21
169.5352765745545867
 31
0.0
  0
LINE
  5
80C9
  8
0
 10
4307.4232509276580458
 20
169.8228097670545083
 30
0.0
 11
4305.2967033758532125
 21
169.8228097670001944
 31
0.0
  0
LINE
  5
80CA
  8
0
 10
4308.7259771518238267
 20
165.6338752823546088
 30
0.0
 11
4308.7259771518238267
 21
163.8307256760546124
 31
0.0
  0
LINE
  5
80CB
  8
0
 10
4308.7338511675243353
 20
163.8307256760546124
 30
0.0
 11
4308.7338511675243353
 21
165.6338752823546088
 31
0.0
  0
LINE
  5
80CC
  8
0
 10
4308.8221038138226504
 20
165.6548162272545142
 30
0.0
 11
4308.8221038138226504
 21
163.8078162272545057
 31
0.0
  0
LINE
  5
80CD
  8
0
 10
4309.3150464700238444
 20
163.8045847590545065
 30
0.0
 11
4309.3150464700238444
 21
165.6580476953546111
 31
0.0
  0
LINE
  5
80CE
  8
0
 10
4309.357294162224207
 20
165.0982323394891864
 30
0.0
 11
4309.357294162224207
 21
164.3644014216509106
 31
0.0
  0
LINE
  5
80CF
  8
0
 10
4309.3609876141226778
 20
164.4105534268545057
 30
0.0
 11
4309.3609876141226778
 21
165.0520790275546119
 31
0.0
  0
LINE
  5
80D0
  8
0
 10
4309.8163506141236212
 20
168.104932001454614
 30
0.0
 11
4309.8163506141236212
 21
165.5463162272544935
 31
0.0
  0
LINE
  5
80D1
  8
0
 10
4310.3643506141252146
 20
168.104932001454614
 30
0.0
 11
4310.3643506141252146
 21
165.5463162272544935
 31
0.0
  0
LINE
  5
80D2
  8
0
 10
4306.9809580257242487
 20
173.6076365421546086
 30
0.0
 11
4305.7389962778242989
 21
173.6076365421546086
 31
0.0
  0
LINE
  5
80D3
  8
0
 10
4306.9521954568226647
 20
174.4326765421544962
 30
0.0
 11
4305.7677588467240639
 21
174.4326765421544962
 31
0.0
  0
ARC
  5
80D4
  8
0
 10
4300.7448943830850112
 20
164.7328510358645985
 30
0.0
 40
8.6202775520240866
 50
353.8181724784118956
 51
357.5503061435265977
  0
ARC
  5
80D5
  8
0
 10
4300.7448420383952907
 20
164.7297766074474907
 30
0.0
 40
8.6203301103675685
 50
2.4497196114023181
 51
6.1818218488063206
  0
ARC
  5
80D6
  8
0
 10
4305.051067127909846
 20
162.1929538475889103
 30
0.0
 40
0.0521178407176893
 50
145.4408795331235922
 51
173.3565005979644127
  0
ARC
  5
80D7
  8
0
 10
4305.0330733946439068
 20
162.0271700479075889
 30
0.0
 40
0.0206066347579873
 50
186.6720078332469939
 51
267.6679921667674193
  0
ARC
  5
80D8
  8
0
 10
4305.0430559421911312
 20
161.9601527838595985
 30
0.0
 40
0.0126547221192751
 50
182.7641359129403895
 51
266.2358640870484123
  0
ARC
  5
80D9
  8
0
 10
4305.0433927172507538
 20
161.9942107256717065
 30
0.0
 40
0.0123819332361817
 50
92.541547637264884
 51
176.4584523629351906
  0
ARC
  5
80DA
  8
0
 10
4305.3234546477069671
 20
169.5673599641511942
 30
0.0
 40
0.0321427697223484
 50
183.7163310159656078
 51
266.5167598328819167
  0
ARC
  5
80DB
  8
0
 10
4305.3228165150148925
 20
169.8052942959095049
 30
0.0
 40
0.0314434057392801
 50
146.148141221355587
 51
178.8476729309128075
  0
ARC
  5
80DC
  8
0
 10
4308.3125913250241865
 20
164.7232723657544966
 30
0.0
 40
0.9869647653999477
 50
295.2661452975123098
 51
301.080496277821112
  0
ARC
  5
80DD
  8
0
 10
4308.3125913250241865
 20
164.7413285926546109
 30
0.0
 40
0.986964765399891
 50
58.9195037221789306
 51
64.7338547026000839
  0
ARC
  5
80DE
  8
0
 10
4309.3032285735253026
 20
165.516316227254606
 30
0.0
 40
0.9846220406
 50
276.8689151228163041
 51
358.305650904099025
  0
ARC
  5
80DF
  8
0
 10
4310.0903506141239632
 20
167.4063162272545071
 30
0.0
 40
0.7700000000000001
 50
70.7476279873224883
 51
109.2523720126774975
  0
ARC
  5
80E0
  8
0
 10
4309.3032285735253026
 20
165.516316227254606
 30
0.0
 40
0.5896220406000001
 50
281.5205587674000753
 51
356.9270371727016027
  0
ARC
  5
80E1
  8
0
 10
4308.8532209991990385
 20
163.8089334126296137
 30
0.0
 40
0.0311372338017791
 50
182.0561797164444044
 51
267.943820283576315
  0
ARC
  5
80E2
  8
0
 10
4308.8545082368682415
 20
165.6524118042090095
 30
0.0
 40
0.0324935052448178
 50
94.243596506906556
 51
175.7564034930717014
  0
ARC
  5
80E3
  8
0
 10
4309.2852210175242362
 20
163.8078162272545057
 30
0.0
 40
0.03
 50
270.0
 51
353.8163530722003998
  0
ARC
  5
80E4
  8
0
 10
4309.2836514230148168
 20
165.6530673877342963
 30
0.0
 40
0.0317876145346116
 50
9.0139230113703892
 51
87.1697239164390112
  0
ARC
  5
80E5
  8
0
 10
4310.3174070479490183
 20
165.4863162071193869
 30
0.0
 40
0.0300000462850299
 50
89.9243495231960139
 51
178.3056150472345962
  0
ARC
  5
80E6
  8
0
 10
4310.3343506141227408
 20
168.104932001454614
 30
0.0
 40
0.03
 50
0.0
 51
70.7476279872133489
  0
ARC
  5
80E7
  8
0
 10
4309.846350614124276
 20
168.104932001454614
 30
0.0
 40
0.03
 50
109.2523720127865943
 51
180.0
  0
ARC
  5
80E8
  8
0
 10
4309.8479420472040147
 20
165.5479076603348005
 30
0.0
 40
0.0316314922713804
 50
182.8838636432872988
 51
267.1161363566894806
  0
ARC
  5
80E9
  8
0
 10
4310.3343506141227408
 20
165.5463162272544935
 30
0.0
 40
0.03
 50
270.0
 51
0.0
  0
ARC
  5
80EA
  8
0
 10
4309.8620459155699791
 20
165.4863162250865969
 30
0.0
 40
0.0300000057399039
 50
356.9270419044889877
 51
90.0279596973072103
  0
ARC
  5
80EB
  8
0
 10
4309.3415285346791279
 20
164.410518105958289
 30
0.0
 40
0.0194591115006849
 50
324.1147502331451733
 51
0.1039995784685669
  0
ARC
  5
80EC
  8
0
 10
4309.3415285346791279
 20
165.0521143484508002
 30
0.0
 40
0.0194591115006845
 50
359.8960004215297772
 51
35.8852497668547983
  0
ARC
  5
80ED
  8
0
 10
4308.7062921124243076
 20
163.8369855185545134
 30
0.0
 40
0.0196850394
 50
270.0
 51
0.0
  0
ARC
  5
80EE
  8
0
 10
4308.7062921124243076
 20
165.6276154398545088
 30
0.0
 40
0.0196850394
 50
0.0
 51
90.0
  0
ARC
  5
80EF
  8
0
 10
4305.9476860247677905
 20
169.4514312432943086
 30
0.0
 40
0.0105896735008115
 50
183.3448609922643016
 51
266.9051390078586223
  0
ARC
  5
80F0
  8
0
 10
4305.7712833574487377
 20
174.3990268044580034
 30
0.0
 40
0.0338338147847855
 50
95.9794207467060261
 51
172.0205792533054137
  0
ARC
  5
80F1
  8
0
 10
4305.7411690658018415
 20
173.6376824490068884
 30
0.0
 40
0.0301243676476884
 50
178.0956244444290917
 51
265.8638210397800208
  0
ARC
  5
80F2
  8
0
 10
4305.7404306778171303
 20
173.5761413560292112
 30
0.0
 40
0.0315278329800225
 50
92.6076465509401032
 51
175.4599408673086884
  0
ARC
  5
80F3
  8
0
 10
4302.4306942340917885
 20
163.3089263881711872
 30
0.0
 40
2.7970592416227009
 50
337.1443414222442243
 51
354.0116016506760275
  0
ARC
  5
80F4
  8
0
 10
4269.4155552036463632
 20
167.7060290503627868
 30
0.0
 40
36.1027206225843997
 50
352.5375174856937974
 51
356.5861238456290039
  0
ARC
  5
80F5
  8
0
 10
4209.7130948427666226
 20
171.4996830868983011
 30
0.0
 40
95.9254200769298961
 50
356.4476993418567758
 51
358.8265868879850018
  0
ARC
  5
80F6
  8
0
 10
4303.8676165114666219
 20
170.5808400491779082
 30
0.0
 40
1.61768327385058
 50
332.0571876699626728
 51
355.1332726078928204
  0
ARC
  5
80F7
  8
0
 10
4280.3465013701907083
 20
173.7227897668265086
 30
0.0
 40
25.345987588046281
 50
352.5663992168123855
 51
357.5242544534784201
  0
ARC
  5
80F8
  8
0
 10
4252.0524019235499509
 20
175.369629345877712
 30
0.0
 40
53.6864821062738926
 50
357.0727079999609259
 51
358.0882459954294177
  0
ARC
  5
80F9
  8
0
 10
4306.4056016313961663
 20
178.5385600992945001
 30
0.0
 40
0.6098435947815865
 50
94.2905014338591343
 51
175.6968849071839998
  0
LINE
  5
80FA
  8
0
 10
4307.7205690328228229
 20
162.198983428054504
 30
0.0
 11
4307.7073479858227074
 21
162.0247758556546103
 31
0.0
  0
LINE
  5
80FB
  8
0
 10
4307.4285748352358496
 20
169.5652765745545025
 30
0.0
 11
4307.4285748352358496
 21
169.8059266399544924
 31
0.0
  0
LINE
  5
80FC
  8
0
 10
4307.6895383599239722
 20
161.9595425154545865
 30
0.0
 11
4307.6889198734243109
 21
161.9949755863545988
 31
0.0
  0
LINE
  5
80FD
  8
0
 10
4306.7828769971911242
 20
169.4593126104745977
 30
0.0
 11
4306.7828399121226539
 21
169.4508133815546103
 31
0.0
  0
LINE
  5
80FE
  8
0
 10
4306.9224771517237969
 20
178.5843184585544918
 30
0.0
 11
4306.9224771517237969
 21
174.4326765421544962
 31
0.0
  0
LINE
  5
80FF
  8
0
 10
4306.982177181624138
 20
174.4037235270544954
 30
0.0
 11
4307.008892967122847
 21
173.6386835270546101
 31
0.0
  0
ARC
  5
8100
  8
0
 10
4307.670145721521294
 20
162.1936114009922107
 30
0.0
 40
0.0507086679325964
 50
6.0812706885387451
 51
34.7539109349161492
  0
ARC
  5
8101
  8
0
 10
4307.6868809089028218
 20
162.0271700479075889
 30
0.0
 40
0.0206066347579873
 50
272.3320078332326943
 51
353.3279921667530061
  0
ARC
  5
8102
  8
0
 10
4307.6768983613574164
 20
161.9601527838595985
 30
0.0
 40
0.0126547221192751
 50
273.7641359129515877
 51
357.2358640870594968
  0
ARC
  5
8103
  8
0
 10
4307.6765615862968843
 20
161.9942107256717065
 30
0.0
 40
0.0123819332361817
 50
3.5415476370648071
 51
87.458452362735116
  0
ARC
  5
8104
  8
0
 10
4307.396499655840671
 20
169.5673599641511942
 30
0.0
 40
0.0321427697223344
 50
273.483240167118197
 51
356.2836689840651729
  0
ARC
  5
8105
  8
0
 10
4307.3971377885318361
 20
169.8052942959095901
 30
0.0
 40
0.0314434057391347
 50
1.152327068956966
 51
33.8518587786578919
  0
ARC
  5
8106
  8
0
 10
4306.7722682787789381
 20
169.4514312432943086
 30
0.0
 40
0.0105896735008115
 50
273.0948609921413777
 51
356.6551390077357269
  0
ARC
  5
8107
  8
0
 10
4306.9486709460989005
 20
174.3990268044580034
 30
0.0
 40
0.0338338147847855
 50
7.979420746694565
 51
84.0205792532939881
  0
ARC
  5
8108
  8
0
 10
4306.9787852377457966
 20
173.6376824490068884
 30
0.0
 40
0.0301243676476884
 50
274.1361789602199792
 51
1.9043755555708759
  0
ARC
  5
8109
  8
0
 10
4306.9795236257295983
 20
173.5761413560292112
 30
0.0
 40
0.0315278329800225
 50
4.5400591326913018
 51
87.3923534490599252
  0
ARC
  5
810A
  8
0
 10
4310.2892600694549401
 20
163.3089263881711872
 30
0.0
 40
2.7970592416227009
 50
185.9883983493238873
 51
202.8556585777558041
  0
ARC
  5
810B
  8
0
 10
4343.3043990999021844
 20
167.7060290503627868
 30
0.0
 40
36.1027206225843997
 50
187.1699993735404917
 51
187.4624825143062026
  0
ARC
  5
810C
  8
0
 10
4403.0068594607810155
 20
171.4996830868983011
 30
0.0
 40
95.9254200769298961
 50
181.1734131120149129
 51
182.9631277195412906
  0
ARC
  5
810D
  8
0
 10
4308.8523377920819257
 20
170.5808400491779082
 30
0.0
 40
1.61768327385058
 50
184.8667273921072081
 51
207.9428123300372988
  0
ARC
  5
810E
  8
0
 10
4332.3734529333569299
 20
173.7227897668265086
 30
0.0
 40
25.345987588046281
 50
182.4757455465216083
 51
187.4336007831875861
  0
ARC
  5
810F
  8
0
 10
4360.6675523799976872
 20
175.369629345877712
 30
0.0
 40
53.6864821062738926
 50
181.9117540045706107
 51
182.9272920000391025
  0
ARC
  5
8110
  8
0
 10
4306.3143526721523813
 20
178.5385600992945001
 30
0.0
 40
0.6098435947815867
 50
4.3031150928159718
 51
85.7094985661408799
  0
ARC
  5
8111
  8
0
 10
4306.3389824608975687
 20
169.4708227323718859
 30
0.0
 40
0.0137983168708779
 50
205.0179729125908068
 51
260.5771293888485047
  0
ARC
  5
8112
  8
0
 10
4306.3653488769678006
 20
169.8265532773237965
 30
0.0
 40
0.3704503106819708
 50
265.5682170121503987
 51
269.1691518124954996
  0
LINE
  5
8113
  8
0
 10
4306.3934755348227554
 20
169.4649873891546008
 30
0.0
 11
4306.4147265259225605
 21
169.5352765745545867
 31
0.0
  0
ARC
  5
8114
  8
0
 10
4306.3809718426482505
 20
169.4708227323718859
 30
0.0
 40
0.0137983168708779
 50
279.4228706111513816
 51
334.9820270874091079
  0
ARC
  5
8115
  8
0
 10
4306.354605426578928
 20
169.8265532773237965
 30
0.0
 40
0.3704503106819708
 50
270.8308481875043867
 51
274.4317829878494877
  0
LINE
  5
8116
  8
0
 10
4306.1939760353034217
 20
169.4650296121822066
 30
0.0
 11
4306.1727378097702967
 21
169.5352765745545867
 31
0.0
  0
ARC
  5
8117
  8
0
 10
4306.2064797274779266
 20
169.4708649553996054
 30
0.0
 40
0.0137983168708779
 50
205.0179729125908068
 51
260.5771293888485047
  0
ARC
  5
8118
  8
0
 10
4306.2328461435481586
 20
169.8265955003514875
 30
0.0
 40
0.3704503106819708
 50
265.5682170121503987
 51
269.1691518124954996
  0
LINE
  5
8119
  8
0
 10
4306.2609728014022039
 20
169.4650296121822066
 30
0.0
 11
4306.2822110269371478
 21
169.5352765745545867
 31
0.0
  0
ARC
  5
811A
  8
0
 10
4306.2484691092276989
 20
169.4708649553996054
 30
0.0
 40
0.0137983168708779
 50
279.4228706111513816
 51
334.9820270874091079
  0
ARC
  5
811B
  8
0
 10
4306.222102693159286
 20
169.8265955003514875
 30
0.0
 40
0.3704503106819708
 50
270.8308481875043867
 51
274.4317829878494877
  0
LINE
  5
811C
  8
0
 10
4306.0678203141396807
 20
169.4672270906976905
 30
0.0
 11
4306.0514075227256399
 21
169.5352765745545867
 31
0.0
  0
ARC
  5
811D
  8
0
 10
4306.0806357764349741
 20
169.4723415285579904
 30
0.0
 40
0.0137983168708779
 50
201.7561200750834018
 51
257.3152765513532927
  0
ARC
  5
811E
  8
0
 10
4306.12720030460423
 20
169.8259955306909035
 30
0.0
 40
0.3704503106819708
 50
262.3063641746801977
 51
265.9072989750018792
  0
LINE
  5
811F
  8
0
 10
4306.1347085401930599
 20
169.4634150199514124
 30
0.0
 11
4306.1609831539535662
 21
169.5352765745545867
 31
0.0
  0
ARC
  5
8120
  8
0
 10
4306.1225571320737799
 20
169.469952361092993
 30
0.0
 40
0.0137983168708779
 50
276.1610177736300216
 51
331.7201742499049146
  0
ARC
  5
8121
  8
0
 10
4306.1164742594519339
 20
169.8266068257626955
 30
0.0
 40
0.3704503106819708
 50
267.568995350013779
 51
271.169930150333073
  0
LINE
  5
8122
  8
0
 10
4305.9575501373956286
 20
169.4678927392004937
 30
0.0
 11
4305.9412978931222824
 21
169.5352765745545867
 31
0.0
  0
ARC
  5
8123
  8
0
 10
4305.9703655996918314
 20
169.4730071770609072
 30
0.0
 40
0.0137983168708779
 50
201.7561200750834018
 51
257.3152765513532927
  0
ARC
  5
8124
  8
0
 10
4306.0169301278601779
 20
169.8266611791937066
 30
0.0
 40
0.3704503106819708
 50
262.3063641746801977
 51
265.9072989750018792
  0
LINE
  5
8125
  8
0
 10
4306.0244383634490077
 20
169.4640806684543008
 30
0.0
 11
4306.0504695973186244
 21
169.5352765745545867
 31
0.0
  0
ARC
  5
8126
  8
0
 10
4306.0122869553297278
 20
169.4706180095959098
 30
0.0
 40
0.0137983168708779
 50
276.1610177736300216
 51
331.7201742499049146
  0
ARC
  5
8127
  8
0
 10
4306.0062040827078818
 20
169.8272724742654987
 30
0.0
 40
0.3704503106819708
 50
267.568995350013779
 51
271.169930150333073
  0
LINE
  5
8128
  8
0
 10
4305.8732624160202249
 20
169.4714823870457963
 30
0.0
 11
4305.8632875863513618
 21
169.5352765745545867
 31
0.0
  0
ARC
  5
8129
  8
0
 10
4305.8864519702792677
 20
169.4755356828507047
 30
0.0
 40
0.0137983168708779
 50
197.0827717681414981
 51
252.6419282444275893
  0
ARC
  5
812A
  8
0
 10
4305.9616756156374322
 20
169.8242200841183092
 30
0.0
 40
0.3704503106819708
 50
257.6330158677018858
 51
261.23395066807592
  0
LINE
  5
812B
  8
0
 10
4305.9396176769423619
 20
169.4622332781289913
 30
0.0
 11
4305.9522883089612151
 21
169.4897089373183974
 31
0.0
  0
ARC
  5
812C
  8
0
 10
4305.9280392967166335
 20
169.4697389199953932
 30
0.0
 40
0.0137983168708779
 50
271.4876694666775165
 51
327.046825942963892
  0
ARC
  5
812D
  8
0
 10
4305.9510350355722039
 20
169.8257032503749997
 30
0.0
 40
0.3704503106819708
 50
262.8956470430787249
 51
266.4965818433868208
  0
LINE
  5
812E
  8
0
 10
4305.8179873415901966
 20
169.4740203463533987
 30
0.0
 11
4305.8108157232118174
 21
169.5352765745545867
 31
0.0
  0
ARC
  5
812F
  8
0
 10
4305.8313233424278224
 20
169.477562186283194
 30
0.0
 40
0.0137983168708779
 50
194.8735337591629104
 51
250.4326902354480922
  0
ARC
  5
8130
  8
0
 10
4305.9199324833862192
 20
169.8230876247777985
 30
0.0
 40
0.3704503106819708
 50
255.4237778587311993
 51
259.0247126590505218
  0
ARC
  5
8131
  8
0
 10
4305.872656298621223
 20
169.4701665854184967
 30
0.0
 40
0.0137983168708779
 50
269.278431457732097
 51
323.9441297254746814
  0
ARC
  5
8132
  8
0
 10
4305.9093569867782207
 20
169.8249798715239933
 30
0.0
 40
0.3704503106819708
 50
260.6864090340907865
 51
264.2873438343985981
  0
LINE
  5
8133
  8
0
 10
4305.796411804397394
 20
169.475448084405599
 30
0.0
 11
4305.7894073395127634
 21
169.5352765745545867
 31
0.0
  0
ARC
  5
8134
  8
0
 10
4305.8097478052368388
 20
169.4789899243353943
 30
0.0
 40
0.0137983168708779
 50
194.8735337591629104
 51
250.4326902354480922
  0
ARC
  5
8135
  8
0
 10
4305.8983569461943262
 20
169.8245153628301125
 30
0.0
 40
0.3704503106819708
 50
255.4237778587311993
 51
259.0247126590505218
  0
ARC
  5
8136
  8
0
 10
4305.8510807614302394
 20
169.471594323470697
 30
0.0
 40
0.0137983168708779
 50
269.278431457732097
 51
288.1559426011144751
  0
ARC
  5
8137
  8
0
 10
4305.8877814495863277
 20
169.8264076095761936
 30
0.0
 40
0.3704503106819708
 50
260.6864090340907865
 51
264.2873438343985981
  0
LINE
  5
8138
  8
0
 10
4306.5259782682442165
 20
169.4650296121822066
 30
0.0
 11
4306.5472164937773414
 21
169.5352765745545867
 31
0.0
  0
ARC
  5
8139
  8
0
 10
4306.513474576068802
 20
169.4708649553996054
 30
0.0
 40
0.0137983168708779
 50
279.4228706111513816
 51
334.9820270874091079
  0
ARC
  5
813A
  8
0
 10
4306.48710815999857
 20
169.8265955003514875
 30
0.0
 40
0.3704503106819708
 50
270.8308481875043867
 51
274.4317829878494877
  0
LINE
  5
813B
  8
0
 10
4306.4589815021454342
 20
169.4650296121822066
 30
0.0
 11
4306.4377432766113998
 21
169.5352765745545867
 31
0.0
  0
ARC
  5
813C
  8
0
 10
4306.4714851943190297
 20
169.4708649553996054
 30
0.0
 40
0.0137983168708779
 50
205.0179729125908068
 51
260.5771293888485047
  0
ARC
  5
813D
  8
0
 10
4306.4978516103892616
 20
169.8265955003514875
 30
0.0
 40
0.3704503106819708
 50
265.5682170121503987
 51
269.1691518124954996
  0
LINE
  5
813E
  8
0
 10
4306.6521339894070479
 20
169.4672270906976905
 30
0.0
 11
4306.6685467808219983
 21
169.5352765745545867
 31
0.0
  0
ARC
  5
813F
  8
0
 10
4306.639318527110845
 20
169.4723415285579904
 30
0.0
 40
0.0137983168708779
 50
282.6847234486465936
 51
338.2438799249165982
  0
ARC
  5
8140
  8
0
 10
4306.5927539989443176
 20
169.8259955306909035
 30
0.0
 40
0.3704503106819708
 50
274.0927010249981208
 51
277.6936358253198023
  0
LINE
  5
8141
  8
0
 10
4306.5852457633536687
 20
169.4634150199514124
 30
0.0
 11
4306.5589711495949814
 21
169.5352765745545867
 31
0.0
  0
ARC
  5
8142
  8
0
 10
4306.5973971714729487
 20
169.469952361092993
 30
0.0
 40
0.0137983168708779
 50
208.2798257500950001
 51
263.8389822263699216
  0
ARC
  5
8143
  8
0
 10
4306.6034800440947947
 20
169.8266068257626955
 30
0.0
 40
0.3704503106819708
 50
268.830069849666927
 51
272.431004649986221
  0
LINE
  5
8144
  8
0
 10
4306.7624041661511001
 20
169.4678927392004937
 30
0.0
 11
4306.7786564104253557
 21
169.5352765745545867
 31
0.0
  0
ARC
  5
8145
  8
0
 10
4306.7495887038558067
 20
169.4730071770609072
 30
0.0
 40
0.0137983168708779
 50
282.6847234486465936
 51
338.2438799249165982
  0
ARC
  5
8146
  8
0
 10
4306.7030241756865507
 20
169.8266611791937066
 30
0.0
 40
0.3704503106819708
 50
274.0927010249981208
 51
277.6936358253198023
  0
LINE
  5
8147
  8
0
 10
4306.6955159400986304
 20
169.4640806684543008
 30
0.0
 11
4306.6694847062290137
 21
169.5352765745545867
 31
0.0
  0
ARC
  5
8148
  8
0
 10
4306.7076673482160913
 20
169.4706180095959098
 30
0.0
 40
0.0137983168708779
 50
208.2798257500950001
 51
263.8389822263699216
  0
ARC
  5
8149
  8
0
 10
4306.7137502208388469
 20
169.8272724742654987
 30
0.0
 40
0.3704503106819708
 50
268.830069849666927
 51
272.431004649986221
  0
LINE
  5
814A
  8
0
 10
4306.8466918875274132
 20
169.4714823870457963
 30
0.0
 11
4306.8566667171971858
 21
169.5352765745545867
 31
0.0
  0
ARC
  5
814B
  8
0
 10
4306.8335023332665514
 20
169.4755356828507047
 30
0.0
 40
0.0137983168708779
 50
287.3580717555723254
 51
342.9172282318584735
  0
ARC
  5
814C
  8
0
 10
4306.7582786879102059
 20
169.8242200841183092
 30
0.0
 40
0.3704503106819708
 50
278.76604933192408
 51
282.3669841322981142
  0
LINE
  5
814D
  8
0
 10
4306.7803366266052763
 20
169.4622332781289913
 30
0.0
 11
4306.7676659945873325
 21
169.4897089373183974
 31
0.0
  0
ARC
  5
814E
  8
0
 10
4306.7919150068310046
 20
169.4697389199953932
 30
0.0
 40
0.0137983168708779
 50
212.953174057036108
 51
268.5123305333224835
  0
ARC
  5
814F
  8
0
 10
4306.7689192679763437
 20
169.8257032503749997
 30
0.0
 40
0.3704503106819708
 50
273.5034181566131792
 51
277.1043529569212751
  0
LINE
  5
8150
  8
0
 10
4306.901966961958351
 20
169.4740203463533987
 30
0.0
 11
4306.9091385803340017
 21
169.5352765745545867
 31
0.0
  0
ARC
  5
8151
  8
0
 10
4306.8886309611179968
 20
169.477562186283194
 30
0.0
 40
0.0137983168708779
 50
289.5673097645519078
 51
345.1264662408369759
  0
ARC
  5
8152
  8
0
 10
4306.8000218201614189
 20
169.8230876247777985
 30
0.0
 40
0.3704503106819708
 50
280.9752873409494782
 51
284.5762221412687722
  0
ARC
  5
8153
  8
0
 10
4306.8472980049264152
 20
169.4701665854184967
 30
0.0
 40
0.0137983168708779
 50
216.0558702745252901
 51
270.721568542267903
  0
ARC
  5
8154
  8
0
 10
4306.8105973167703269
 20
169.8249798715239933
 30
0.0
 40
0.3704503106819708
 50
275.7126561656014019
 51
279.3135909659092135
  0
LINE
  5
8155
  8
0
 10
4306.9235424991502441
 20
169.475448084405599
 30
0.0
 11
4306.9305469640348747
 21
169.5352765745545867
 31
0.0
  0
ARC
  5
8156
  8
0
 10
4306.9102064983107994
 20
169.4789899243353943
 30
0.0
 40
0.0137983168708779
 50
289.5673097645519078
 51
345.1264662408369759
  0
ARC
  5
8157
  8
0
 10
4306.8215973573542215
 20
169.8245153628301125
 30
0.0
 40
0.3704503106819708
 50
280.9752873409494782
 51
284.5762221412687722
  0
ARC
  5
8158
  8
0
 10
4306.8688735421183083
 20
169.471594323470697
 30
0.0
 40
0.0137983168708779
 50
251.8440573988854112
 51
270.721568542267903
  0
ARC
  5
8159
  8
0
 10
4306.83217285396222
 20
169.8264076095761936
 30
0.0
 40
0.3704503106819708
 50
275.7126561656014019
 51
279.3135909659092135
  0
ARC
  5
815A
  8
0
 10
4309.0212528210740857
 20
162.8306897368092052
 30
0.0
 40
0.9545570703820265
 50
82.8463092307609941
 51
97.1536907692390344
  0
ARC
  5
815B
  8
0
 10
4309.4136843016440253
 20
164.9908648266429907
 30
0.0
 40
0.0527991324595836
 50
183.5697659017424996
 51
277.9507930565550282
  0
ARC
  5
815C
  8
0
 10
4309.4357818155804125
 20
164.4652086597095035
 30
0.0
 40
0.0750258568882909
 50
101.372571062419695
 51
175.4963440885281898
  0
ARC
  5
815D
  8
0
 10
4308.1786976223820602
 20
166.7694942926821113
 30
0.0
 40
1.1226296647076091
 50
230.0747339088441947
 51
271.5966235776501776
  0
ARC
  5
815E
  8
0
 10
4308.4932067855797868
 20
166.6803245068167882
 30
0.0
 40
1.291057380898659
 50
186.195897826262609
 51
216.710327987953093
  0
ARC
  5
815F
  8
0
 10
4308.220632597630356
 20
162.404597984462896
 30
0.0
 40
1.4127426789876629
 50
90.4321507881202962
 51
107.927049094815203
  0
ARC
  5
8160
  8
0
 10
4308.0767097695061238
 20
163.2313894620685915
 30
0.0
 40
0.5935500787837233
 50
119.3503336600713993
 51
183.0398089221808959
  0
LINE
  5
8162
  8
0
 10
4304.9992992471288744
 20
162.198983428054504
 30
0.0
 11
4307.7205690328828496
 21
162.198983428054504
 31
0.0
  0
ENDSEC
  0
EOF
