  0
SECTION
  2
HEADER
  9
$ACADVER
  1
AC1009
  9
$INSBASE
 10
0.0
 20
0.0
 30
0.0
  9
$EXTMIN
 10
-9.4103798330698094
 20
-0.0051045162642467
 30
0.0
  9
$EXTMAX
 10
9.4744561097055264
 20
18.879731426511089
 30
0.0
  9
$LIMMIN
 10
0.0
 20
0.0
  9
$LIMMAX
 10
12.0
 20
9.0
  9
$ORTHOMODE
 70
     0
  9
$REGENMODE
 70
     1
  9
$FILLMODE
 70
     1
  9
$QTEXTMODE
 70
     0
  9
$MIRRTEXT
 70
     0
  9
$DRAGMODE
 70
     2
  9
$LTSCALE
 40
1.0
  9
$OSMODE
 70
    37
  9
$ATTMODE
 70
     1
  9
$TEXTSIZE
 40
0.001
  9
$TRACEWID
 40
0.05
  9
$TEXTSTYLE
  7
STANDARD
  9
$CLAYER
  8
0
  9
$CELTYPE
  6
BYLAYER
  9
$CECOLOR
 62
   256
  9
$DIMSCALE
 40
1.0
  9
$DIMASZ
 40
0.18
  9
$DIMEXO
 40
0.0625
  9
$DIMDLI
 40
0.38
  9
$DIMRND
 40
0.0
  9
$DIMDLE
 40
0.0
  9
$DIMEXE
 40
0.18
  9
$DIMTP
 40
0.0
  9
$DIMTM
 40
0.0
  9
$DIMTXT
 40
0.18
  9
$DIMCEN
 40
0.09
  9
$DIMTSZ
 40
0.0
  9
$DIMTOL
 70
     0
  9
$DIMLIM
 70
     0
  9
$DIMTIH
 70
     1
  9
$DIMTOH
 70
     1
  9
$DIMSE1
 70
     0
  9
$DIMSE2
 70
     0
  9
$DIMTAD
 70
     0
  9
$DIMZIN
 70
     0
  9
$DIMBLK
  1

  9
$DIMASO
 70
     1
  9
$DIMSHO
 70
     1
  9
$DIMPOST
  1

  9
$DIMAPOST
  1

  9
$DIMALT
 70
     0
  9
$DIMALTD
 70
     2
  9
$DIMALTF
 40
25.399999999999999
  9
$DIMLFAC
 40
1.0
  9
$DIMTOFL
 70
     0
  9
$DIMTVP
 40
0.0
  9
$DIMTIX
 70
     0
  9
$DIMSOXD
 70
     0
  9
$DIMSAH
 70
     0
  9
$DIMBLK1
  1

  9
$DIMBLK2
  1

  9
$DIMSTYLE
  2
STANDARD
  9
$DIMCLRD
 70
     0
  9
$DIMCLRE
 70
     0
  9
$DIMCLRT
 70
     0
  9
$DIMTFAC
 40
1.0
  9
$DIMGAP
 40
0.09
  9
$LUNITS
 70
     2
  9
$LUPREC
 70
     4
  9
$SKETCHINC
 40
0.1
  9
$FILLETRAD
 40
0.0
  9
$AUNITS
 70
     0
  9
$AUPREC
 70
     0
  9
$MENU
  1
.
  9
$ELEVATION
 40
0.0
  9
$PELEVATION
 40
0.0
  9
$THICKNESS
 40
0.0
  9
$LIMCHECK
 70
     0
  9
$BLIPMODE
 70
     0
  9
$CHAMFERA
 40
0.0
  9
$CHAMFERB
 40
0.0
  9
$SKPOLY
 70
     0
  9
$TDCREATE
 40
2454258.4737058911
  9
$TDUPDATE
 40
2454379.368586875
  9
$TDINDWG
 40
0.0066910995
  9
$TDUSRTIMER
 40
0.0066910995
  9
$USRTIMER
 70
     1
  9
$ANGBASE
 50
0.0
  9
$ANGDIR
 70
     0
  9
$PDMODE
 70
     0
  9
$PDSIZE
 40
0.0
  9
$PLINEWID
 40
0.0
  9
$COORDS
 70
     2
  9
$SPLFRAME
 70
     0
  9
$SPLINETYPE
 70
     6
  9
$SPLINESEGS
 70
     8
  9
$ATTDIA
 70
     0
  9
$ATTREQ
 70
     1
  9
$HANDLING
 70
     1
  9
$HANDSEED
  5
1E2
  9
$SURFTAB1
 70
     6
  9
$SURFTAB2
 70
     6
  9
$SURFTYPE
 70
     6
  9
$SURFU
 70
     6
  9
$SURFV
 70
     6
  9
$UCSNAME
  2

  9
$UCSORG
 10
0.0
 20
0.0
 30
0.0
  9
$UCSXDIR
 10
1.0
 20
0.0
 30
0.0
  9
$UCSYDIR
 10
0.0
 20
1.0
 30
0.0
  9
$PUCSNAME
  2

  9
$PUCSORG
 10
0.0
 20
0.0
 30
0.0
  9
$PUCSXDIR
 10
1.0
 20
0.0
 30
0.0
  9
$PUCSYDIR
 10
0.0
 20
1.0
 30
0.0
  9
$USERI1
 70
     0
  9
$USERI2
 70
     0
  9
$USERI3
 70
     0
  9
$USERI4
 70
     0
  9
$USERI5
 70
     0
  9
$USERR1
 40
0.0
  9
$USERR2
 40
0.0
  9
$USERR3
 40
0.0
  9
$USERR4
 40
0.0
  9
$USERR5
 40
0.0
  9
$WORLDVIEW
 70
     1
  9
$SHADEDGE
 70
     3
  9
$SHADEDIF
 70
    70
  9
$TILEMODE
 70
     1
  9
$MAXACTVP
 70
    64
  9
$PLIMCHECK
 70
     0
  9
$PEXTMIN
 10
0.0
 20
0.0
 30
0.0
  9
$PEXTMAX
 10
0.0
 20
0.0
 30
0.0
  9
$PLIMMIN
 10
0.0
 20
0.0
  9
$PLIMMAX
 10
12.0
 20
9.0
  9
$UNITMODE
 70
     0
  9
$VISRETAIN
 70
     1
  9
$PLINEGEN
 70
     0
  9
$PSLTSCALE
 70
     1
  0
ENDSEC
  0
SECTION
  2
TABLES
  0
TABLE
  2
VPORT
 70
     2
  0
VPORT
  2
*ACTIVE
 70
     0
 10
0.0
 20
0.0
 11
1.0
 21
1.0
 12
1.622705076389994
 22
8.1787419853243044
 13
0.0
 23
0.0
 14
0.5
 24
0.5
 15
0.5
 25
0.5
 16
0.0
 26
0.0
 36
1.0
 17
0.0
 27
0.0
 37
0.0
 40
24.165505370998272
 41
1.994197292069632
 42
50.0
 43
0.0
 44
0.0
 50
0.0
 51
0.0
 71
     0
 72
  1000
 73
     1
 74
     3
 75
     0
 76
     0
 77
     0
 78
     0
  0
ENDTAB
  0
TABLE
  2
LTYPE
 70
     2
  0
LTYPE
  2
CONTINUOUS
 70
     0
  3
Solid line
 72
    65
 73
     0
 40
0.0
  0
LTYPE
  2
AI9-LTYPE1
 70
     0
  3
Illustrator Dash Style No.1
 72
    65
 73
     2
 40
5.644444444444443
 49
4.2333333333333316
 49
-1.4111111111111101
  0
ENDTAB
  0
TABLE
  2
LAYER
 70
     2
  0
LAYER
  2
0
 70
     0
 62
     7
  6
CONTINUOUS
  0
LAYER
  2
DEFPOINTS
 70
     0
 62
     7
  6
CONTINUOUS
  0
ENDTAB
  0
TABLE
  2
STYLE
 70
     1
  0
STYLE
  2
STANDARD
 70
     0
 40
0.0
 41
1.0
 50
0.0
 71
     0
 42
0.001
  3
txt
  4

  0
ENDTAB
  0
TABLE
  2
VIEW
 70
     0
  0
ENDTAB
  0
TABLE
  2
UCS
 70
     0
  0
ENDTAB
  0
TABLE
  2
APPID
 70
     4
  0
APPID
  2
ACAD
 70
     0
  0
APPID
  2
ACAD_EXEMPT_FROM_CAD_STANDARDS
 70
     0
  0
APPID
  2
ACDBATTR
 70
     0
  0
APPID
  2
CONTENTBLOCKICON
 70
     0
  0
ENDTAB
  0
TABLE
  2
DIMSTYLE
 70
     1
  0
DIMSTYLE
  2
STANDARD
 70
     0
  3

  4

  5

  6

  7

 40
1.0
 41
0.18
 42
0.0625
 43
0.38
 44
0.18
 45
0.0
 46
0.0
 47
0.0
 48
0.0
140
0.18
141
0.09
142
0.0
143
25.399999999999999
144
1.0
145
0.0
146
1.0
147
0.09
 71
     0
 72
     0
 73
     1
 74
     1
 75
     0
 76
     0
 77
     0
 78
     0
170
     0
171
     2
172
     0
173
     0
174
     0
175
     0
176
     0
177
     0
178
     0
  0
ENDTAB
  0
ENDSEC
  0
SECTION
  2
BLOCKS
  0
BLOCK
  8
0
  2
$MODEL_SPACE
 70
     0
 10
0.0
 20
0.0
 30
0.0
  3
$MODEL_SPACE
  1

  0
ENDBLK
  5
21
  8
0
  0
BLOCK
 67
     1
  8
0
  2
$PAPER_SPACE
 70
     0
 10
0.0
 20
0.0
 30
0.0
  3
$PAPER_SPACE
  1

  0
ENDBLK
  5
5B
 67
     1
  8
0
  0
BLOCK
  8
0
  2
2367PLN
 70
     0
 10
0.0
 20
0.0
 30
0.0
  3
2367PLN
  1

  0
CIRCLE
  5
129
  8
0
  6
AI9-LTYPE1
 10
-0.0246270531509936
 20
9.3855012899109962
 30
0.0
 40
2.0166244357618321
  0
CIRCLE
  5
12A
  8
0
  6
AI9-LTYPE1
 10
-0.0245921392930342
 20
9.4092427133236978
 30
0.0
 40
2.1826398303609928
  0
CIRCLE
  5
12B
  8
0
 10
0.0320381383178585
 20
9.4373134551234212
 30
0.0
 40
9.4424179713876661
  0
CIRCLE
  5
12C
  8
0
 10
0.0321428798917509
 20
9.4373134551234212
 30
0.0
 40
1.158721117972016
  0
CIRCLE
  5
12D
  8
0
 10
0.0320381383178585
 20
9.4373134551234212
 30
0.0
 40
0.8708563590929257
  0
INSERT
  5
12E
  8
0
  6
CONTINUOUS
  2
*U2
 10
0.0
 20
0.0
 30
0.0
1001
ACAD
1002
{
1000
R14_HATCH_DATA
1000
12E
1011
1.0
1021
0.0
1031
0.0
1021
0.0
1031
0.0
1011
0.0
1021
0.0
1031
0.0
1021
1.0
1031
0.0
1011
0.0
1021
0.0
1031
0.0
1021
0.0
1031
1.0
1040
0.0
1010
0.0
1020
0.0
1030
1.0
1000
SOLID
1070
     1
1070
     0
1071
        1
1071
        1
1071
        1
1070
     4
1070
     3
1070
     0
1070
     0
1071
       17
1071
       13
1040
0.0
1040
0.0
1040
0.0
1040
0.0
1040
1.0
1040
1.0
1040
1.0
1040
2.0
1040
2.0
1040
2.0
1040
3.0
1040
3.0
1040
3.0
1040
4.0
1040
4.0
1040
4.0
1040
4.0
1040
0.9028944974107844
1040
9.4373134551233644
1040
0.9028944974107844
1040
9.9182867623784752
1040
0.5130463594309163
1040
10.3080650726424
1040
0.0320730521758037
1040
10.3080650726424
1040
-0.4488304273633759
1040
10.3080650726424
1040
-0.8388182207750531
1040
9.9182867623784752
1040
-0.8388182207750531
1040
9.4373134551233644
1040
-0.8388182207750531
1040
8.9563401478682518
1040
-0.4488304273633759
1040
8.5665618376043309
1040
0.0320730521758037
1040
8.5665618376043309
1040
0.5130463594309163
1040
8.5665618376043309
1040
0.9028944974107844
1040
8.9563401478682518
1040
0.9028944974107844
1040
9.4373134551233644
1071
        0
1070
     2
1070
     1
1071
        1
1040
-27.065619526214611
1040
-30.771161236639841
1040
0.0
1002
}
  0
CIRCLE
  5
12F
  8
0
 10
0.0321079660337631
 20
9.4373134551234212
 30
0.0
 40
1.3516900109161929
  0
CIRCLE
  5
130
  8
0
 10
0.0321079660337631
 20
9.4373134551234212
 30
0.0
 40
1.3516900109161929
  0
ENDBLK
  5
128
  8
0
  0
BLOCK
  8
0
  2
*U2
 70
     1
 10
0.0
 20
0.0
 30
0.0
  3
*U2
  1

  0
SOLID
  5
162
  8
0
  6
CONTINUOUS
 10
0.0320730521758037
 20
10.3080650726424
 30
0.0
 11
-0.0569579163897934
 21
10.30357025438571
 31
0.0
 12
0.1211147437964116
 22
10.30357025438571
 32
0.0
 13
0.1211147437964116
 23
10.30357025438571
 33
0.0
210
0.0
220
0.0
230
1.0
  0
SOLID
  5
163
  8
0
  6
CONTINUOUS
 10
-0.0569579163897934
 20
10.30357025438571
 30
0.0
 11
-0.1434199546546225
 21
10.290377384882509
 31
0.0
 12
0.2075831067884426
 22
10.290377384882509
 32
0.0
 13
0.2075831067884426
 23
10.290377384882509
 33
0.0
210
0.0
220
0.0
230
1.0
  0
SOLID
  5
164
  8
0
  6
CONTINUOUS
 10
0.0569579163897934
 20
10.30357025438571
 30
0.0
 11
-0.1211147437964116
 21
10.30357025438571
 31
0.0
 12
-0.2075831067884426
 22
10.290377384882509
 32
0.0
 13
-0.2075831067884426
 23
10.290377384882509
 33
0.0
210
0.0
220
0.0
230
-1.0
  0
SOLID
  5
165
  8
0
  6
CONTINUOUS
 10
-0.1434199546546225
 20
10.290377384882509
 30
0.0
 11
-0.2268749687115293
 21
10.268923842033111
 31
0.0
 12
0.2910405586782082
 22
10.268923842033111
 32
0.0
 13
0.2910405586782082
 23
10.268923842033111
 33
0.0
210
0.0
220
0.0
230
1.0
  0
SOLID
  5
166
  8
0
  6
CONTINUOUS
 10
0.1434199546546225
 20
10.290377384882509
 30
0.0
 11
-0.2075831067884426
 21
10.290377384882509
 31
0.0
 12
-0.2910405586782082
 22
10.268923842033111
 32
0.0
 13
-0.2910405586782082
 23
10.268923842033111
 33
0.0
210
0.0
220
0.0
230
-1.0
  0
SOLID
  5
167
  8
0
  6
CONTINUOUS
 10
-0.2268749687115293
 20
10.268923842033111
 30
0.0
 11
-0.3068848646533591
 21
10.239647003737799
 31
0.0
 12
0.37104951699202
 22
10.239647003737799
 32
0.0
 13
0.37104951699202
 23
10.239647003737799
 33
0.0
210
0.0
220
0.0
230
1.0
  0
SOLID
  5
168
  8
0
  6
CONTINUOUS
 10
0.2268749687115293
 20
10.268923842033111
 30
0.0
 11
-0.2910405586782082
 21
10.268923842033111
 31
0.0
 12
-0.37104951699202
 22
10.239647003737799
 32
0.0
 13
-0.37104951699202
 23
10.239647003737799
 33
0.0
210
0.0
220
0.0
230
-1.0
  0
SOLID
  5
169
  8
0
  6
CONTINUOUS
 10
-0.3068848646533591
 20
10.239647003737799
 30
0.0
 11
-0.3830115485729573
 21
10.202984247896881
 31
0.0
 12
0.4471723992561897
 22
10.202984247896881
 32
0.0
 13
0.4471723992561897
 23
10.202984247896881
 33
0.0
210
0.0
220
0.0
230
1.0
  0
SOLID
  5
16A
  8
0
  6
CONTINUOUS
 10
0.3068848646533591
 20
10.239647003737799
 30
0.0
 11
-0.37104951699202
 21
10.239647003737799
 31
0.0
 12
-0.4471723992561897
 22
10.202984247896881
 32
0.0
 13
-0.4471723992561897
 23
10.202984247896881
 33
0.0
210
0.0
220
0.0
230
-1.0
  0
SOLID
  5
16B
  8
0
  6
CONTINUOUS
 10
-0.3830115485729573
 20
10.202984247896881
 30
0.0
 11
-0.4548169265631694
 21
10.159372952410671
 31
0.0
 12
0.5189716229970287
 22
10.159372952410671
 32
0.0
 13
0.5189716229970287
 23
10.159372952410671
 33
0.0
210
0.0
220
0.0
230
1.0
  0
SOLID
  5
16C
  8
0
  6
CONTINUOUS
 10
0.3830115485729573
 20
10.202984247896881
 30
0.0
 11
-0.4471723992561897
 21
10.202984247896881
 31
0.0
 12
-0.5189716229970287
 22
10.159372952410671
 32
0.0
 13
-0.5189716229970287
 23
10.159372952410671
 33
0.0
210
0.0
220
0.0
230
-1.0
  0
SOLID
  5
16D
  8
0
  6
CONTINUOUS
 10
-0.4548169265631694
 20
10.159372952410671
 30
0.0
 11
-0.5218629047168408
 21
10.10925049517946
 31
0.0
 12
0.5860096057408488
 22
10.10925049517946
 32
0.0
 13
0.5860096057408488
 23
10.10925049517946
 33
0.0
210
0.0
220
0.0
230
1.0
  0
SOLID
  5
16E
  8
0
  6
CONTINUOUS
 10
0.4548169265631694
 20
10.159372952410671
 30
0.0
 11
-0.5189716229970287
 21
10.159372952410671
 31
0.0
 12
-0.5860096057408488
 22
10.10925049517946
 32
0.0
 13
-0.5860096057408488
 23
10.10925049517946
 33
0.0
210
0.0
220
0.0
230
-1.0
  0
SOLID
  5
16F
  8
0
  6
CONTINUOUS
 10
-0.5218629047168408
 20
10.10925049517946
 30
0.0
 11
-0.5837113891268171
 21
10.05305425410355
 31
0.0
 12
0.6478487650139613
 22
10.05305425410355
 32
0.0
 13
0.6478487650139613
 23
10.05305425410355
 33
0.0
210
0.0
220
0.0
230
1.0
  0
SOLID
  5
170
  8
0
  6
CONTINUOUS
 10
0.5218629047168408
 20
10.10925049517946
 30
0.0
 11
-0.5860096057408488
 21
10.10925049517946
 31
0.0
 12
-0.6478487650139613
 22
10.05305425410355
 32
0.0
 13
-0.6478487650139613
 23
10.05305425410355
 33
0.0
210
0.0
220
0.0
230
-1.0
  0
SOLID
  5
171
  8
0
  6
CONTINUOUS
 10
-0.5837113891268171
 20
10.05305425410355
 30
0.0
 11
-0.6399242858859436
 21
9.9912216070832418
 31
0.0
 12
0.704051518342678
 22
9.9912216070832418
 32
0.0
 13
0.704051518342678
 23
9.9912216070832418
 33
0.0
210
0.0
220
0.0
230
1.0
  0
SOLID
  5
172
  8
0
  6
CONTINUOUS
 10
0.5837113891268171
 20
10.05305425410355
 30
0.0
 11
-0.6478487650139613
 21
10.05305425410355
 31
0.0
 12
-0.704051518342678
 22
9.9912216070832418
 32
0.0
 13
-0.704051518342678
 23
9.9912216070832418
 33
0.0
210
0.0
220
0.0
230
-1.0
  0
SOLID
  5
173
  8
0
  6
CONTINUOUS
 10
-0.6399242858859436
 20
9.9912216070832418
 30
0.0
 11
-0.6900635010870657
 21
9.9241899320188391
 31
0.0
 12
0.7541802832533106
 22
9.9241899320188391
 32
0.0
 13
0.7541802832533106
 23
9.9241899320188391
 33
0.0
210
0.0
220
0.0
230
1.0
  0
SOLID
  5
174
  8
0
  6
CONTINUOUS
 10
0.6399242858859436
 20
9.9912216070832418
 30
0.0
 11
-0.704051518342678
 21
9.9912216070832418
 31
0.0
 12
-0.7541802832533106
 22
9.9241899320188391
 32
0.0
 13
-0.7541802832533106
 23
9.9241899320188391
 33
0.0
210
0.0
220
0.0
230
-1.0
  0
SOLID
  5
175
  8
0
  6
CONTINUOUS
 10
-0.6900635010870657
 20
9.9241899320188391
 30
0.0
 11
-0.733690940823029
 21
9.8523966068106468
 31
0.0
 12
0.7977974772721703
 22
9.8523966068106468
 32
0.0
 13
0.7977974772721703
 23
9.8523966068106468
 33
0.0
210
0.0
220
0.0
230
1.0
  0
SOLID
  5
176
  8
0
  6
CONTINUOUS
 10
0.6900635010870657
 20
9.9241899320188391
 30
0.0
 11
-0.7541802832533106
 21
9.9241899320188391
 31
0.0
 12
-0.7977974772721703
 22
9.8523966068106468
 32
0.0
 13
-0.7977974772721703
 23
9.8523966068106468
 33
0.0
210
0.0
220
0.0
230
-1.0
  0
SOLID
  5
177
  8
0
  6
CONTINUOUS
 10
-0.733690940823029
 20
9.8523966068106468
 30
0.0
 11
-0.770368511186679
 21
9.7762790093589622
 31
0.0
 12
0.8344655179255688
 22
9.7762790093589622
 32
0.0
 13
0.8344655179255688
 23
9.7762790093589622
 33
0.0
210
0.0
220
0.0
230
1.0
  0
SOLID
  5
178
  8
0
  6
CONTINUOUS
 10
0.733690940823029
 20
9.8523966068106468
 30
0.0
 11
-0.7977974772721703
 21
9.8523966068106468
 31
0.0
 12
-0.8344655179255688
 22
9.7762790093589622
 32
0.0
 13
-0.8344655179255688
 23
9.7762790093589622
 33
0.0
210
0.0
220
0.0
230
-1.0
  0
SOLID
  5
179
  8
0
  6
CONTINUOUS
 10
-0.770368511186679
 20
9.7762790093589622
 30
0.0
 11
-0.7996581182708609
 21
9.6962745175640919
 31
0.0
 12
0.863746822739818
 22
9.6962745175640919
 32
0.0
 13
0.863746822739818
 23
9.6962745175640919
 33
0.0
210
0.0
220
0.0
230
1.0
  0
SOLID
  5
17A
  8
0
  6
CONTINUOUS
 10
0.770368511186679
 20
9.7762790093589622
 30
0.0
 11
-0.8344655179255688
 21
9.7762790093589622
 31
0.0
 12
-0.863746822739818
 22
9.6962745175640919
 32
0.0
 13
-0.863746822739818
 23
9.6962745175640919
 33
0.0
210
0.0
220
0.0
230
-1.0
  0
SOLID
  5
17B
  8
0
  6
CONTINUOUS
 10
-0.7996581182708609
 20
9.6962745175640919
 30
0.0
 11
-0.8211216681684203
 21
9.6128205093263333
 31
0.0
 12
0.8852038092412293
 22
9.6128205093263333
 32
0.0
 13
0.8852038092412293
 23
9.6128205093263333
 33
0.0
210
0.0
220
0.0
230
1.0
  0
SOLID
  5
17C
  8
0
  6
CONTINUOUS
 10
0.7996581182708609
 20
9.6962745175640919
 30
0.0
 11
-0.863746822739818
 21
9.6962745175640919
 31
0.0
 12
-0.8852038092412293
 22
9.6128205093263333
 32
0.0
 13
-0.8852038092412293
 23
9.6128205093263333
 33
0.0
210
0.0
220
0.0
230
-1.0
  0
SOLID
  5
17D
  8
0
  6
CONTINUOUS
 10
-0.8211216681684203
 20
9.6128205093263333
 30
0.0
 11
-0.8343210669722027
 21
9.5263543625459892
 31
0.0
 12
0.8983988949561143
 22
9.5263543625459892
 32
0.0
 13
0.8983988949561143
 23
9.5263543625459892
 33
0.0
210
0.0
220
0.0
230
1.0
  0
SOLID
  5
17E
  8
0
  6
CONTINUOUS
 10
0.8211216681684203
 20
9.6128205093263333
 30
0.0
 11
-0.8852038092412293
 21
9.6128205093263333
 31
0.0
 12
-0.8983988949561143
 22
9.5263543625459892
 32
0.0
 13
-0.8983988949561143
 23
9.5263543625459892
 33
0.0
210
0.0
220
0.0
230
-1.0
  0
SOLID
  5
17F
  8
0
  6
CONTINUOUS
 10
-0.8343210669722027
 20
9.5263543625459892
 30
0.0
 11
-0.8388182207750531
 21
9.4373134551233644
 31
0.0
 12
0.9028944974107844
 22
9.4373134551233644
 32
0.0
 13
0.9028944974107844
 23
9.4373134551233644
 33
0.0
210
0.0
220
0.0
230
1.0
  0
SOLID
  5
180
  8
0
  6
CONTINUOUS
 10
0.8343210669722027
 20
9.5263543625459892
 30
0.0
 11
-0.8983988949561143
 21
9.5263543625459892
 31
0.0
 12
-0.9028944974107844
 22
9.4373134551233644
 32
0.0
 13
-0.9028944974107844
 23
9.4373134551233644
 33
0.0
210
0.0
220
0.0
230
-1.0
  0
SOLID
  5
181
  8
0
  6
CONTINUOUS
 10
-0.8388182207750531
 20
9.4373134551233644
 30
0.0
 11
-0.8343210669722027
 21
9.3482725477007378
 31
0.0
 12
0.8983988949561143
 22
9.3482725477007378
 32
0.0
 13
0.8983988949561143
 23
9.3482725477007378
 33
0.0
210
0.0
220
0.0
230
1.0
  0
SOLID
  5
182
  8
0
  6
CONTINUOUS
 10
0.8388182207750531
 20
9.4373134551233644
 30
0.0
 11
-0.9028944974107844
 21
9.4373134551233644
 31
0.0
 12
-0.8983988949561143
 22
9.3482725477007378
 32
0.0
 13
-0.8983988949561143
 23
9.3482725477007378
 33
0.0
210
0.0
220
0.0
230
-1.0
  0
SOLID
  5
183
  8
0
  6
CONTINUOUS
 10
-0.8343210669722027
 20
9.3482725477007378
 30
0.0
 11
-0.8211216681684203
 21
9.2618064009203955
 31
0.0
 12
0.8852038092412293
 22
9.2618064009203955
 32
0.0
 13
0.8852038092412293
 23
9.2618064009203955
 33
0.0
210
0.0
220
0.0
230
1.0
  0
SOLID
  5
184
  8
0
  6
CONTINUOUS
 10
0.8343210669722027
 20
9.3482725477007378
 30
0.0
 11
-0.8983988949561143
 21
9.3482725477007378
 31
0.0
 12
-0.8852038092412293
 22
9.2618064009203955
 32
0.0
 13
-0.8852038092412293
 23
9.2618064009203955
 33
0.0
210
0.0
220
0.0
230
-1.0
  0
SOLID
  5
185
  8
0
  6
CONTINUOUS
 10
-0.8211216681684203
 20
9.2618064009203955
 30
0.0
 11
-0.7996581182708609
 21
9.1783523926826351
 31
0.0
 12
0.863746822739818
 22
9.1783523926826351
 32
0.0
 13
0.863746822739818
 23
9.1783523926826351
 33
0.0
210
0.0
220
0.0
230
1.0
  0
SOLID
  5
186
  8
0
  6
CONTINUOUS
 10
0.8211216681684203
 20
9.2618064009203955
 30
0.0
 11
-0.8852038092412293
 21
9.2618064009203955
 31
0.0
 12
-0.863746822739818
 22
9.1783523926826351
 32
0.0
 13
-0.863746822739818
 23
9.1783523926826351
 33
0.0
210
0.0
220
0.0
230
-1.0
  0
SOLID
  5
187
  8
0
  6
CONTINUOUS
 10
-0.7996581182708609
 20
9.1783523926826351
 30
0.0
 11
-0.770368511186679
 21
9.0983479008877648
 31
0.0
 12
0.8344655179255688
 22
9.0983479008877648
 32
0.0
 13
0.8344655179255688
 23
9.0983479008877648
 33
0.0
  0
SOLID
  5
188
  8
0
  6
CONTINUOUS
 10
0.7996581182708609
 20
9.1783523926826351
 30
0.0
 11
-0.863746822739818
 21
9.1783523926826351
 31
0.0
 12
-0.8344655179255688
 22
9.0983479008877648
 32
0.0
 13
-0.8344655179255688
 23
9.0983479008877648
 33
0.0
210
0.0
220
0.0
230
-1.0
  0
SOLID
  5
189
  8
0
  6
CONTINUOUS
 10
-0.770368511186679
 20
9.0983479008877648
 30
0.0
 11
-0.733690940823029
 21
9.022230303436082
 31
0.0
 12
0.7977974772721703
 22
9.022230303436082
 32
0.0
 13
0.7977974772721703
 23
9.022230303436082
 33
0.0
  0
SOLID
  5
18A
  8
0
  6
CONTINUOUS
 10
0.770368511186679
 20
9.0983479008877648
 30
0.0
 11
-0.8344655179255688
 21
9.0983479008877648
 31
0.0
 12
-0.7977974772721703
 22
9.022230303436082
 32
0.0
 13
-0.7977974772721703
 23
9.022230303436082
 33
0.0
210
0.0
220
0.0
230
-1.0
  0
SOLID
  5
18B
  8
0
  6
CONTINUOUS
 10
-0.733690940823029
 20
9.022230303436082
 30
0.0
 11
-0.6900635010870657
 21
8.9504369782278879
 31
0.0
 12
0.7541802832533106
 22
8.9504369782278879
 32
0.0
 13
0.7541802832533106
 23
8.9504369782278879
 33
0.0
210
0.0
220
0.0
230
1.0
  0
SOLID
  5
18C
  8
0
  6
CONTINUOUS
 10
0.733690940823029
 20
9.022230303436082
 30
0.0
 11
-0.7977974772721703
 21
9.022230303436082
 31
0.0
 12
-0.7541802832533106
 22
8.9504369782278879
 32
0.0
 13
-0.7541802832533106
 23
8.9504369782278879
 33
0.0
210
0.0
220
0.0
230
-1.0
  0
SOLID
  5
18D
  8
0
  6
CONTINUOUS
 10
-0.6900635010870657
 20
8.9504369782278879
 30
0.0
 11
-0.6399242858859436
 21
8.8834053031634852
 31
0.0
 12
0.704051518342678
 22
8.8834053031634852
 32
0.0
 13
0.704051518342678
 23
8.8834053031634852
 33
0.0
210
0.0
220
0.0
230
1.0
  0
SOLID
  5
18E
  8
0
  6
CONTINUOUS
 10
0.6900635010870657
 20
8.9504369782278879
 30
0.0
 11
-0.7541802832533106
 21
8.9504369782278879
 31
0.0
 12
-0.704051518342678
 22
8.8834053031634852
 32
0.0
 13
-0.704051518342678
 23
8.8834053031634852
 33
0.0
210
0.0
220
0.0
230
-1.0
  0
SOLID
  5
18F
  8
0
  6
CONTINUOUS
 10
-0.6399242858859436
 20
8.8834053031634852
 30
0.0
 11
-0.5837113891268171
 21
8.8215726561431804
 31
0.0
 12
0.6478487650139613
 22
8.8215726561431804
 32
0.0
 13
0.6478487650139613
 23
8.8215726561431804
 33
0.0
210
0.0
220
0.0
230
1.0
  0
SOLID
  5
190
  8
0
  6
CONTINUOUS
 10
0.6399242858859436
 20
8.8834053031634852
 30
0.0
 11
-0.704051518342678
 21
8.8834053031634852
 31
0.0
 12
-0.6478487650139613
 22
8.8215726561431804
 32
0.0
 13
-0.6478487650139613
 23
8.8215726561431804
 33
0.0
210
0.0
220
0.0
230
-1.0
  0
SOLID
  5
191
  8
0
  6
CONTINUOUS
 10
-0.5837113891268171
 20
8.8215726561431804
 30
0.0
 11
-0.5218629047168408
 21
8.7653764150672693
 31
0.0
 12
0.5860096057408488
 22
8.7653764150672693
 32
0.0
 13
0.5860096057408488
 23
8.7653764150672693
 33
0.0
210
0.0
220
0.0
230
1.0
  0
SOLID
  5
192
  8
0
  6
CONTINUOUS
 10
0.5837113891268171
 20
8.8215726561431804
 30
0.0
 11
-0.6478487650139613
 21
8.8215726561431804
 31
0.0
 12
-0.5860096057408488
 22
8.7653764150672693
 32
0.0
 13
-0.5860096057408488
 23
8.7653764150672693
 33
0.0
210
0.0
220
0.0
230
-1.0
  0
SOLID
  5
193
  8
0
  6
CONTINUOUS
 10
-0.5218629047168408
 20
8.7653764150672693
 30
0.0
 11
-0.4548169265631694
 21
8.7152539578360564
 31
0.0
 12
0.5189716229970287
 22
8.7152539578360564
 32
0.0
 13
0.5189716229970287
 23
8.7152539578360564
 33
0.0
210
0.0
220
0.0
230
1.0
  0
SOLID
  5
194
  8
0
  6
CONTINUOUS
 10
0.5218629047168408
 20
8.7653764150672693
 30
0.0
 11
-0.5860096057408488
 21
8.7653764150672693
 31
0.0
 12
-0.5189716229970287
 22
8.7152539578360564
 32
0.0
 13
-0.5189716229970287
 23
8.7152539578360564
 33
0.0
210
0.0
220
0.0
230
-1.0
  0
SOLID
  5
195
  8
0
  6
CONTINUOUS
 10
-0.4548169265631694
 20
8.7152539578360564
 30
0.0
 11
-0.3830115485729573
 21
8.6716426623498428
 31
0.0
 12
0.4471723992561897
 22
8.6716426623498428
 32
0.0
 13
0.4471723992561897
 23
8.6716426623498428
 33
0.0
  0
SOLID
  5
196
  8
0
  6
CONTINUOUS
 10
0.4548169265631694
 20
8.7152539578360564
 30
0.0
 11
-0.5189716229970287
 21
8.7152539578360564
 31
0.0
 12
-0.4471723992561897
 22
8.6716426623498428
 32
0.0
 13
-0.4471723992561897
 23
8.6716426623498428
 33
0.0
210
0.0
220
0.0
230
-1.0
  0
SOLID
  5
197
  8
0
  6
CONTINUOUS
 10
-0.3830115485729573
 20
8.6716426623498428
 30
0.0
 11
-0.3068848646533591
 21
8.6349799065089297
 31
0.0
 12
0.37104951699202
 22
8.6349799065089297
 32
0.0
 13
0.37104951699202
 23
8.6349799065089297
 33
0.0
210
0.0
220
0.0
230
1.0
  0
SOLID
  5
198
  8
0
  6
CONTINUOUS
 10
0.3830115485729573
 20
8.6716426623498428
 30
0.0
 11
-0.4471723992561897
 21
8.6716426623498428
 31
0.0
 12
-0.37104951699202
 22
8.6349799065089297
 32
0.0
 13
-0.37104951699202
 23
8.6349799065089297
 33
0.0
210
0.0
220
0.0
230
-1.0
  0
SOLID
  5
199
  8
0
  6
CONTINUOUS
 10
-0.3068848646533591
 20
8.6349799065089297
 30
0.0
 11
-0.2268749687115293
 21
8.6057030682136197
 31
0.0
 12
0.2910405586782082
 22
8.6057030682136197
 32
0.0
 13
0.2910405586782082
 23
8.6057030682136197
 33
0.0
210
0.0
220
0.0
230
1.0
  0
SOLID
  5
19A
  8
0
  6
CONTINUOUS
 10
0.3068848646533591
 20
8.6349799065089297
 30
0.0
 11
-0.37104951699202
 21
8.6349799065089297
 31
0.0
 12
-0.2910405586782082
 22
8.6057030682136197
 32
0.0
 13
-0.2910405586782082
 23
8.6057030682136197
 33
0.0
210
0.0
220
0.0
230
-1.0
  0
SOLID
  5
19B
  8
0
  6
CONTINUOUS
 10
-0.2268749687115293
 20
8.6057030682136197
 30
0.0
 11
-0.1434199546546225
 21
8.5842495253642142
 31
0.0
 12
0.2075831067884426
 22
8.5842495253642142
 32
0.0
 13
0.2075831067884426
 23
8.5842495253642142
 33
0.0
210
0.0
220
0.0
230
1.0
  0
SOLID
  5
19C
  8
0
  6
CONTINUOUS
 10
0.2268749687115293
 20
8.6057030682136197
 30
0.0
 11
-0.2910405586782082
 21
8.6057030682136197
 31
0.0
 12
-0.2075831067884426
 22
8.5842495253642142
 32
0.0
 13
-0.2075831067884426
 23
8.5842495253642142
 33
0.0
210
0.0
220
0.0
230
-1.0
  0
SOLID
  5
19D
  8
0
  6
CONTINUOUS
 10
-0.1434199546546225
 20
8.5842495253642142
 30
0.0
 11
-0.0569579163897934
 21
8.5710566558610193
 31
0.0
 12
0.1211147437964116
 22
8.5710566558610193
 32
0.0
 13
0.1211147437964116
 23
8.5710566558610193
 33
0.0
210
0.0
220
0.0
230
1.0
  0
SOLID
  5
19E
  8
0
  6
CONTINUOUS
 10
0.1434199546546225
 20
8.5842495253642142
 30
0.0
 11
-0.2075831067884426
 21
8.5842495253642142
 31
0.0
 12
-0.1211147437964116
 22
8.5710566558610193
 32
0.0
 13
-0.1211147437964116
 23
8.5710566558610193
 33
0.0
210
0.0
220
0.0
230
-1.0
  0
SOLID
  5
19F
  8
0
  6
CONTINUOUS
 10
0.0569579163897934
 20
8.5710566558610193
 30
0.0
 11
-0.1211147437964116
 21
8.5710566558610193
 31
0.0
 12
-0.0320730521758037
 22
8.5665618376043309
 32
0.0
 13
-0.0320730521758037
 23
8.5665618376043309
 33
0.0
210
0.0
220
0.0
230
-1.0
  0
LINE
  5
1A0
  8
0
  6
CONTINUOUS
 10
0.0320730521758037
 20
10.3080650726424
 30
0.0
 11
-0.0569579163897934
 21
10.30357025438571
 31
0.0
  0
LINE
  5
1A1
  8
0
  6
CONTINUOUS
 10
0.1211147437964116
 20
10.30357025438571
 30
0.0
 11
0.0320730521758037
 21
10.3080650726424
 31
0.0
  0
LINE
  5
1A2
  8
0
  6
CONTINUOUS
 10
-0.0569579163897934
 20
10.30357025438571
 30
0.0
 11
-0.1434199546546225
 21
10.290377384882509
 31
0.0
  0
LINE
  5
1A3
  8
0
  6
CONTINUOUS
 10
0.1211147437964116
 20
10.30357025438571
 30
0.0
 11
0.2075831067884426
 21
10.290377384882509
 31
0.0
  0
LINE
  5
1A4
  8
0
  6
CONTINUOUS
 10
-0.1434199546546225
 20
10.290377384882509
 30
0.0
 11
-0.2268749687115293
 21
10.268923842033111
 31
0.0
  0
LINE
  5
1A5
  8
0
  6
CONTINUOUS
 10
0.2075831067884426
 20
10.290377384882509
 30
0.0
 11
0.2910405586782082
 21
10.268923842033111
 31
0.0
  0
LINE
  5
1A6
  8
0
  6
CONTINUOUS
 10
-0.2268749687115293
 20
10.268923842033111
 30
0.0
 11
-0.3068848646533591
 21
10.239647003737799
 31
0.0
  0
LINE
  5
1A7
  8
0
  6
CONTINUOUS
 10
0.2910405586782082
 20
10.268923842033111
 30
0.0
 11
0.37104951699202
 21
10.239647003737799
 31
0.0
  0
LINE
  5
1A8
  8
0
  6
CONTINUOUS
 10
-0.3068848646533591
 20
10.239647003737799
 30
0.0
 11
-0.3830115485729573
 21
10.202984247896881
 31
0.0
  0
LINE
  5
1A9
  8
0
  6
CONTINUOUS
 10
0.37104951699202
 20
10.239647003737799
 30
0.0
 11
0.4471723992561897
 21
10.202984247896881
 31
0.0
  0
LINE
  5
1AA
  8
0
  6
CONTINUOUS
 10
-0.3830115485729573
 20
10.202984247896881
 30
0.0
 11
-0.4548169265631694
 21
10.159372952410671
 31
0.0
  0
LINE
  5
1AB
  8
0
  6
CONTINUOUS
 10
0.4471723992561897
 20
10.202984247896881
 30
0.0
 11
0.5189716229970287
 21
10.159372952410671
 31
0.0
  0
LINE
  5
1AC
  8
0
  6
CONTINUOUS
 10
-0.4548169265631694
 20
10.159372952410671
 30
0.0
 11
-0.5218629047168408
 21
10.10925049517946
 31
0.0
  0
LINE
  5
1AD
  8
0
  6
CONTINUOUS
 10
0.5189716229970287
 20
10.159372952410671
 30
0.0
 11
0.5860096057408488
 21
10.10925049517946
 31
0.0
  0
LINE
  5
1AE
  8
0
  6
CONTINUOUS
 10
-0.5218629047168408
 20
10.10925049517946
 30
0.0
 11
-0.5837113891268171
 21
10.05305425410355
 31
0.0
  0
LINE
  5
1AF
  8
0
  6
CONTINUOUS
 10
0.5860096057408488
 20
10.10925049517946
 30
0.0
 11
0.6478487650139613
 21
10.05305425410355
 31
0.0
  0
LINE
  5
1B0
  8
0
  6
CONTINUOUS
 10
-0.5837113891268171
 20
10.05305425410355
 30
0.0
 11
-0.6399242858859436
 21
9.9912216070832418
 31
0.0
  0
LINE
  5
1B1
  8
0
  6
CONTINUOUS
 10
0.6478487650139613
 20
10.05305425410355
 30
0.0
 11
0.704051518342678
 21
9.9912216070832418
 31
0.0
  0
LINE
  5
1B2
  8
0
  6
CONTINUOUS
 10
-0.6399242858859436
 20
9.9912216070832418
 30
0.0
 11
-0.6900635010870657
 21
9.9241899320188391
 31
0.0
  0
LINE
  5
1B3
  8
0
  6
CONTINUOUS
 10
0.704051518342678
 20
9.9912216070832418
 30
0.0
 11
0.7541802832533106
 21
9.9241899320188391
 31
0.0
  0
LINE
  5
1B4
  8
0
  6
CONTINUOUS
 10
-0.6900635010870657
 20
9.9241899320188391
 30
0.0
 11
-0.733690940823029
 21
9.8523966068106468
 31
0.0
  0
LINE
  5
1B5
  8
0
  6
CONTINUOUS
 10
0.7541802832533106
 20
9.9241899320188391
 30
0.0
 11
0.7977974772721703
 21
9.8523966068106468
 31
0.0
  0
LINE
  5
1B6
  8
0
  6
CONTINUOUS
 10
-0.733690940823029
 20
9.8523966068106468
 30
0.0
 11
-0.770368511186679
 21
9.7762790093589622
 31
0.0
  0
LINE
  5
1B7
  8
0
  6
CONTINUOUS
 10
0.7977974772721703
 20
9.8523966068106468
 30
0.0
 11
0.8344655179255688
 21
9.7762790093589622
 31
0.0
  0
LINE
  5
1B8
  8
0
  6
CONTINUOUS
 10
-0.770368511186679
 20
9.7762790093589622
 30
0.0
 11
-0.7996581182708609
 21
9.6962745175640919
 31
0.0
  0
LINE
  5
1B9
  8
0
  6
CONTINUOUS
 10
0.8344655179255688
 20
9.7762790093589622
 30
0.0
 11
0.863746822739818
 21
9.6962745175640919
 31
0.0
  0
LINE
  5
1BA
  8
0
  6
CONTINUOUS
 10
-0.7996581182708609
 20
9.6962745175640919
 30
0.0
 11
-0.8211216681684203
 21
9.6128205093263333
 31
0.0
  0
LINE
  5
1BB
  8
0
  6
CONTINUOUS
 10
0.863746822739818
 20
9.6962745175640919
 30
0.0
 11
0.8852038092412293
 21
9.6128205093263333
 31
0.0
  0
LINE
  5
1BC
  8
0
  6
CONTINUOUS
 10
-0.8211216681684203
 20
9.6128205093263333
 30
0.0
 11
-0.8343210669722027
 21
9.5263543625459892
 31
0.0
  0
LINE
  5
1BD
  8
0
  6
CONTINUOUS
 10
0.8852038092412293
 20
9.6128205093263333
 30
0.0
 11
0.8983988949561143
 21
9.5263543625459892
 31
0.0
  0
LINE
  5
1BE
  8
0
  6
CONTINUOUS
 10
-0.8343210669722027
 20
9.5263543625459892
 30
0.0
 11
-0.8388182207750531
 21
9.4373134551233644
 31
0.0
  0
LINE
  5
1BF
  8
0
  6
CONTINUOUS
 10
0.8983988949561143
 20
9.5263543625459892
 30
0.0
 11
0.9028944974107844
 21
9.4373134551233644
 31
0.0
  0
LINE
  5
1C0
  8
0
  6
CONTINUOUS
 10
-0.8388182207750531
 20
9.4373134551233644
 30
0.0
 11
-0.8343210669722027
 21
9.3482725477007378
 31
0.0
  0
LINE
  5
1C1
  8
0
  6
CONTINUOUS
 10
0.9028944974107844
 20
9.4373134551233644
 30
0.0
 11
0.8983988949561143
 21
9.3482725477007378
 31
0.0
  0
LINE
  5
1C2
  8
0
  6
CONTINUOUS
 10
-0.8343210669722027
 20
9.3482725477007378
 30
0.0
 11
-0.8211216681684203
 21
9.2618064009203955
 31
0.0
  0
LINE
  5
1C3
  8
0
  6
CONTINUOUS
 10
0.8983988949561143
 20
9.3482725477007378
 30
0.0
 11
0.8852038092412293
 21
9.2618064009203955
 31
0.0
  0
LINE
  5
1C4
  8
0
  6
CONTINUOUS
 10
-0.8211216681684203
 20
9.2618064009203955
 30
0.0
 11
-0.7996581182708609
 21
9.1783523926826351
 31
0.0
  0
LINE
  5
1C5
  8
0
  6
CONTINUOUS
 10
0.8852038092412293
 20
9.2618064009203955
 30
0.0
 11
0.863746822739818
 21
9.1783523926826351
 31
0.0
  0
LINE
  5
1C6
  8
0
  6
CONTINUOUS
 10
-0.7996581182708609
 20
9.1783523926826351
 30
0.0
 11
-0.770368511186679
 21
9.0983479008877648
 31
0.0
  0
LINE
  5
1C7
  8
0
  6
CONTINUOUS
 10
0.863746822739818
 20
9.1783523926826351
 30
0.0
 11
0.8344655179255688
 21
9.0983479008877648
 31
0.0
  0
LINE
  5
1C8
  8
0
  6
CONTINUOUS
 10
-0.770368511186679
 20
9.0983479008877648
 30
0.0
 11
-0.733690940823029
 21
9.022230303436082
 31
0.0
  0
LINE
  5
1C9
  8
0
  6
CONTINUOUS
 10
0.8344655179255688
 20
9.0983479008877648
 30
0.0
 11
0.7977974772721703
 21
9.022230303436082
 31
0.0
  0
LINE
  5
1CA
  8
0
  6
CONTINUOUS
 10
-0.733690940823029
 20
9.022230303436082
 30
0.0
 11
-0.6900635010870657
 21
8.9504369782278879
 31
0.0
  0
LINE
  5
1CB
  8
0
  6
CONTINUOUS
 10
0.7977974772721703
 20
9.022230303436082
 30
0.0
 11
0.7541802832533106
 21
8.9504369782278879
 31
0.0
  0
LINE
  5
1CC
  8
0
  6
CONTINUOUS
 10
-0.6900635010870657
 20
8.9504369782278879
 30
0.0
 11
-0.6399242858859436
 21
8.8834053031634852
 31
0.0
  0
LINE
  5
1CD
  8
0
  6
CONTINUOUS
 10
0.7541802832533106
 20
8.9504369782278879
 30
0.0
 11
0.704051518342678
 21
8.8834053031634852
 31
0.0
  0
LINE
  5
1CE
  8
0
  6
CONTINUOUS
 10
-0.6399242858859436
 20
8.8834053031634852
 30
0.0
 11
-0.5837113891268171
 21
8.8215726561431804
 31
0.0
  0
LINE
  5
1CF
  8
0
  6
CONTINUOUS
 10
0.704051518342678
 20
8.8834053031634852
 30
0.0
 11
0.6478487650139613
 21
8.8215726561431804
 31
0.0
  0
LINE
  5
1D0
  8
0
  6
CONTINUOUS
 10
-0.5837113891268171
 20
8.8215726561431804
 30
0.0
 11
-0.5218629047168408
 21
8.7653764150672693
 31
0.0
  0
LINE
  5
1D1
  8
0
  6
CONTINUOUS
 10
0.6478487650139613
 20
8.8215726561431804
 30
0.0
 11
0.5860096057408488
 21
8.7653764150672693
 31
0.0
  0
LINE
  5
1D2
  8
0
  6
CONTINUOUS
 10
-0.5218629047168408
 20
8.7653764150672693
 30
0.0
 11
-0.4548169265631694
 21
8.7152539578360564
 31
0.0
  0
LINE
  5
1D3
  8
0
  6
CONTINUOUS
 10
0.5860096057408488
 20
8.7653764150672693
 30
0.0
 11
0.5189716229970287
 21
8.7152539578360564
 31
0.0
  0
LINE
  5
1D4
  8
0
  6
CONTINUOUS
 10
-0.4548169265631694
 20
8.7152539578360564
 30
0.0
 11
-0.3830115485729573
 21
8.6716426623498428
 31
0.0
  0
LINE
  5
1D5
  8
0
  6
CONTINUOUS
 10
0.5189716229970287
 20
8.7152539578360564
 30
0.0
 11
0.4471723992561897
 21
8.6716426623498428
 31
0.0
  0
LINE
  5
1D6
  8
0
  6
CONTINUOUS
 10
-0.3830115485729573
 20
8.6716426623498428
 30
0.0
 11
-0.3068848646533591
 21
8.6349799065089297
 31
0.0
  0
LINE
  5
1D7
  8
0
  6
CONTINUOUS
 10
0.4471723992561897
 20
8.6716426623498428
 30
0.0
 11
0.37104951699202
 21
8.6349799065089297
 31
0.0
  0
LINE
  5
1D8
  8
0
  6
CONTINUOUS
 10
-0.3068848646533591
 20
8.6349799065089297
 30
0.0
 11
-0.2268749687115293
 21
8.6057030682136197
 31
0.0
  0
LINE
  5
1D9
  8
0
  6
CONTINUOUS
 10
0.37104951699202
 20
8.6349799065089297
 30
0.0
 11
0.2910405586782082
 21
8.6057030682136197
 31
0.0
  0
LINE
  5
1DA
  8
0
  6
CONTINUOUS
 10
-0.2268749687115293
 20
8.6057030682136197
 30
0.0
 11
-0.1434199546546225
 21
8.5842495253642142
 31
0.0
  0
LINE
  5
1DB
  8
0
  6
CONTINUOUS
 10
0.2910405586782082
 20
8.6057030682136197
 30
0.0
 11
0.2075831067884426
 21
8.5842495253642142
 31
0.0
  0
LINE
  5
1DC
  8
0
  6
CONTINUOUS
 10
-0.1434199546546225
 20
8.5842495253642142
 30
0.0
 11
-0.0569579163897934
 21
8.5710566558610193
 31
0.0
  0
LINE
  5
1DD
  8
0
  6
CONTINUOUS
 10
0.2075831067884426
 20
8.5842495253642142
 30
0.0
 11
0.1211147437964116
 21
8.5710566558610193
 31
0.0
  0
LINE
  5
1DE
  8
0
  6
CONTINUOUS
 10
0.1211147437964116
 20
8.5710566558610193
 30
0.0
 11
0.0320730521758037
 21
8.5665618376043309
 31
0.0
  0
LINE
  5
1DF
  8
0
  6
CONTINUOUS
 10
0.0320730521758037
 20
8.5665618376043309
 30
0.0
 11
-0.0569579163897934
 21
8.5710566558610193
 31
0.0
  0
ENDBLK
  5
1E1
  8
0
  0
ENDSEC
  0
SECTION
  2
ENTITIES
  0
INSERT
  5
131
  8
0
  2
2367PLN
 10
0.0
 20
0.0
 30
0.0
  0
ATTDEF
  5
132
  8
0
 10
0.0
 20
0.0
 30
0.0
 40
0.001
  1
K-2367
  3

  2
MODELNUMBER
 70
     8
1001
ACDBATTR
1070
     0
1070
     1
  0
ATTDEF
  5
133
  8
0
 10
0.0
 20
-0.0016666666666667
 30
0.0
 40
0.001
  1
LAVINIA
  3

  2
TRADENAME
 70
     8
1001
ACDBATTR
1070
     0
1070
     1
  0
ATTDEF
  5
134
  8
0
 10
0.0
 20
-0.0033333333333333
 30
0.0
 40
0.001
  1
LAVATORY
  3

  2
PRODUCT
 70
     8
1001
ACDBATTR
1070
     0
1070
     1
  0
ATTDEF
  5
135
  8
0
 10
0.0
 20
-0.005
 30
0.0
 40
0.001
  1
GLASS
  3

  2
MATERIAL
 70
     8
1001
ACDBATTR
1070
     0
1070
     1
  0
ENDSEC
  0
EOF
