  0
SECTION
  2
HEADER
  9
$ACADVER
  1
AC1009
  9
$INSBASE
 10
197.34309493954311
 20
12.5315915923
 30
0.0
  9
$EXTMIN
 10
188.21809493954311
 20
1.4599447184000001
 30
0.0
  9
$EXTMAX
 10
206.46809493954311
 20
12.54432113598747
 30
0.0
  9
$LIMMIN
 10
0.0
 20
0.0
  9
$LIMMAX
 10
11.692913385800001
 20
8.2677165353999982
  9
$ORTHOMODE
 70
     0
  9
$REGENMODE
 70
     1
  9
$FILLMODE
 70
     1
  9
$QTEXTMODE
 70
     0
  9
$MIRRTEXT
 70
     0
  9
$DRAGMODE
 70
     2
  9
$LTSCALE
 40
0.6431102362
  9
$OSMODE
 70
  3071
  9
$ATTMODE
 70
     1
  9
$TEXTSIZE
 40
0.2
  9
$TRACEWID
 40
0.05
  9
$TEXTSTYLE
  7
STANDARD
  9
$CLAYER
  8
0
  9
$CELTYPE
  6
BYLAYER
  9
$CECOLOR
 62
   256
  9
$DIMSCALE
 40
1.0
  9
$DIMASZ
 40
0.1875
  9
$DIMEXO
 40
0.0625
  9
$DIMDLI
 40
0.4443307087
  9
$DIMRND
 40
0.0
  9
$DIMDLE
 40
0.0
  9
$DIMEXE
 40
0.125
  9
$DIMTP
 40
0.01
  9
$DIMTM
 40
0.01
  9
$DIMTXT
 40
1.0
  9
$DIMCEN
 40
0.1052362205
  9
$DIMTSZ
 40
0.0
  9
$DIMTOL
 70
     1
  9
$DIMLIM
 70
     0
  9
$DIMTIH
 70
     1
  9
$DIMTOH
 70
     1
  9
$DIMSE1
 70
     0
  9
$DIMSE2
 70
     0
  9
$DIMTAD
 70
     0
  9
$DIMZIN
 70
     0
  9
$DIMBLK
  1

  9
$DIMASO
 70
     1
  9
$DIMSHO
 70
     1
  9
$DIMPOST
  1
\X
  9
$DIMAPOST
  1

  9
$DIMALT
 70
     1
  9
$DIMALTD
 70
     2
  9
$DIMALTF
 40
25.399999999999999
  9
$DIMLFAC
 40
1.0
  9
$DIMTOFL
 70
     0
  9
$DIMTVP
 40
0.0
  9
$DIMTIX
 70
     0
  9
$DIMSOXD
 70
     0
  9
$DIMSAH
 70
     0
  9
$DIMBLK1
  1

  9
$DIMBLK2
  1

  9
$DIMSTYLE
  2
STANDARD
  9
$DIMCLRD
 70
     0
  9
$DIMCLRE
 70
     0
  9
$DIMCLRT
 70
     0
  9
$DIMTFAC
 40
1.0
  9
$DIMGAP
 40
0.09
  9
$LUNITS
 70
     2
  9
$LUPREC
 70
     4
  9
$SKETCHINC
 40
0.1
  9
$FILLETRAD
 40
0.0
  9
$AUNITS
 70
     0
  9
$AUPREC
 70
     0
  9
$MENU
  1
.
  9
$ELEVATION
 40
0.0
  9
$PELEVATION
 40
0.0
  9
$THICKNESS
 40
0.0
  9
$LIMCHECK
 70
     0
  9
$BLIPMODE
 70
     0
  9
$CHAMFERA
 40
0.0
  9
$CHAMFERB
 40
0.0
  9
$SKPOLY
 70
     0
  9
$TDCREATE
 40
2458128.4655779982
  9
$TDUPDATE
 40
2458128.5032717371
  9
$TDINDWG
 40
0.0238545949
  9
$TDUSRTIMER
 40
0.0238545949
  9
$USRTIMER
 70
     1
  9
$ANGBASE
 50
0.0
  9
$ANGDIR
 70
     0
  9
$PDMODE
 70
     0
  9
$PDSIZE
 40
0.3125
  9
$PLINEWID
 40
0.0
  9
$COORDS
 70
     1
  9
$SPLFRAME
 70
     0
  9
$SPLINETYPE
 70
     6
  9
$SPLINESEGS
 70
     8
  9
$ATTDIA
 70
     1
  9
$ATTREQ
 70
     1
  9
$HANDLING
 70
     1
  9
$HANDSEED
  5
C48
  9
$SURFTAB1
 70
     6
  9
$SURFTAB2
 70
     6
  9
$SURFTYPE
 70
     6
  9
$SURFU
 70
     6
  9
$SURFV
 70
     6
  9
$UCSNAME
  2

  9
$UCSORG
 10
0.0
 20
0.0
 30
0.0
  9
$UCSXDIR
 10
1.0
 20
0.0
 30
0.0
  9
$UCSYDIR
 10
0.0
 20
1.0
 30
0.0
  9
$PUCSNAME
  2

  9
$PUCSORG
 10
0.0
 20
0.0
 30
0.0
  9
$PUCSXDIR
 10
1.0
 20
0.0
 30
0.0
  9
$PUCSYDIR
 10
0.0
 20
1.0
 30
0.0
  9
$USERI1
 70
     0
  9
$USERI2
 70
     0
  9
$USERI3
 70
     0
  9
$USERI4
 70
     0
  9
$USERI5
 70
     0
  9
$USERR1
 40
0.0
  9
$USERR2
 40
0.0
  9
$USERR3
 40
0.0
  9
$USERR4
 40
0.0
  9
$USERR5
 40
0.0
  9
$WORLDVIEW
 70
     1
  9
$SHADEDGE
 70
     3
  9
$SHADEDIF
 70
    70
  9
$TILEMODE
 70
     1
  9
$MAXACTVP
 70
    64
  9
$PLIMCHECK
 70
     0
  9
$PEXTMIN
 10
1.0000000000000000E+020
 20
1.0000000000000000E+020
 30
1.0000000000000000E+020
  9
$PEXTMAX
 10
-1.0000000000000000E+020
 20
-1.0000000000000000E+020
 30
-1.0000000000000000E+020
  9
$PLIMMIN
 10
0.0
 20
0.0
  9
$PLIMMAX
 10
12.0
 20
9.0
  9
$UNITMODE
 70
     0
  9
$VISRETAIN
 70
     1
  9
$PLINEGEN
 70
     0
  9
$PSLTSCALE
 70
     1
  0
ENDSEC
  0
SECTION
  2
TABLES
  0
TABLE
  2
VPORT
 70
     1
  0
VPORT
  2
*ACTIVE
 70
     0
 10
0.0
 20
0.0
 11
1.0
 21
1.0
 12
0.0
 22
0.0
 13
0.0
 23
0.0
 14
1.0
 24
1.0
 15
0.0
 25
0.0
 16
0.0
 26
0.0
 36
60.04269574961247
 17
197.34309493954311
 27
7.0021329271937383
 37
0.0
 40
21.374551412544989
 41
2.0983240223463682
 42
50.0
 43
0.0
 44
0.0
 50
0.0
 51
0.0
 71
     0
 72
   100
 73
     1
 74
     1
 75
     0
 76
     0
 77
     0
 78
     0
  0
ENDTAB
  0
TABLE
  2
LTYPE
 70
     2
  0
LTYPE
  2
CONTINUOUS
 70
     0
  3
Solid line
 72
    65
 73
     0
 40
0.0
  0
LTYPE
  2
PHANTOM2
 70
     0
  3
___ _ _ ___ _ _ ___ _ _ ___ _ _
 72
    65
 73
     6
 40
1.25
 49
0.625
 49
-0.125
 49
0.125
 49
-0.125
 49
0.125
 49
-0.125
  0
ENDTAB
  0
TABLE
  2
LAYER
 70
     2
  0
LAYER
  2
0
 70
     0
 62
   255
  6
CONTINUOUS
  0
LAYER
  2
DEFPOINTS
 70
     0
 62
     7
  6
CONTINUOUS
  0
ENDTAB
  0
TABLE
  2
STYLE
 70
     1
  0
STYLE
  2
STANDARD
 70
     0
 40
0.0
 41
0.8
 50
0.0
 71
     0
 42
0.2
  3
txt
  4

  0
ENDTAB
  0
TABLE
  2
VIEW
 70
     0
  0
ENDTAB
  0
TABLE
  2
UCS
 70
     0
  0
ENDTAB
  0
TABLE
  2
APPID
 70
     9
  0
APPID
  2
ACAD
 70
     0
  0
APPID
  2
ACAD_MLEADERVER
 70
     0
  0
APPID
  2
ACAD_EXEMPT_FROM_CAD_STANDARDS
 70
     0
  0
APPID
  2
ACAD_DSTYLE_DIMJAG
 70
     0
  0
APPID
  2
ACAD_DSTYLE_DIMTALN
 70
     0
  0
APPID
  2
ACAD_NAV_VCDISPLAY
 70
     0
  0
APPID
  2
ACAECLAYERSTANDARD
 70
     0
  0
APPID
  2
ACCMTRANSPARENCY
 70
     0
  0
APPID
  2
AcDbAttr
 70
     0
  0
ENDTAB
  0
TABLE
  2
DIMSTYLE
 70
     1
  0
DIMSTYLE
  2
STANDARD
 70
     0
  3

  4

  5

  6

  7

 40
1.0
 41
0.1875
 42
0.0625
 43
0.38
 44
0.125
 45
0.0
 46
0.0
 47
0.01
 48
0.01
140
0.15625
141
0.09
142
0.0
143
25.399999999999999
144
1.0
145
0.0
146
1.0
147
0.09
 71
     1
 72
     0
 73
     1
 74
     1
 75
     0
 76
     0
 77
     0
 78
     4
170
     0
171
     2
172
     0
173
     0
174
     0
175
     0
176
     0
177
     0
178
     0
  0
ENDTAB
  0
ENDSEC
  0
SECTION
  2
BLOCKS
  0
BLOCK
  8
0
  2
$MODEL_SPACE
 70
     0
 10
0.0
 20
0.0
 30
0.0
  3
$MODEL_SPACE
  1

  0
ENDBLK
  5
21
  8
0
  0
BLOCK
 67
     1
  8
0
  2
$PAPER_SPACE
 70
     0
 10
0.0
 20
0.0
 30
0.0
  3
$PAPER_SPACE
  1

  0
ENDBLK
  5
1D
 67
     1
  8
0
  0
ENDSEC
  0
SECTION
  2
ENTITIES
  0
LINE
  5
A64
  8
0
 10
188.21809493954311
 20
12.5315915923
 30
0.0
 11
206.46809493954311
 21
12.5315915923
 31
0.0
  0
LINE
  5
A65
  8
0
 10
206.46809493954311
 20
12.5315915923
 30
0.0
 11
206.46809493954311
 21
12.4835915923
 31
0.0
  0
LINE
  5
A66
  8
0
 10
206.46809493954311
 20
12.4835915923
 30
0.0
 11
188.21809493954311
 21
12.4835915923
 31
0.0
  0
LINE
  5
A67
  8
0
 10
188.21809493954311
 20
12.4835915923
 30
0.0
 11
188.21809493954311
 21
12.5315915923
 31
0.0
  0
ARC
  5
A68
  8
0
 10
189.04131824422089
 20
12.406591592324849
 30
0.0
 40
0.0770000000000357
 50
44.999999999709352
 51
89.999999999991857
  0
LINE
  5
A69
  8
0
 10
189.09576546632101
 20
12.46103881452488
 30
0.0
 11
189.79002275832099
 21
11.76678152252488
 31
0.0
  0
ARC
  5
A6A
  8
0
 10
189.73557553622669
 20
11.712334300482601
 30
0.0
 40
0.0769999998825161
 50
346.86462289744662
 51
44.99999997262875
  0
LINE
  5
A6B
  8
0
 10
189.81056089552089
 20
11.69483584702488
 30
0.0
 11
189.077930666821
 21
8.5553274632248808
 31
0.0
  0
ARC
  5
A6C
  8
0
 10
189.36813374625811
 20
8.4876061762257855
 30
0.0
 40
0.2980000000359853
 50
166.86462299329349
 51
224.99999999507119
  0
LINE
  5
A6D
  8
0
 10
189.15741592542099
 20
8.2768883554248838
 30
0.0
 11
189.79002275832099
 21
7.6442815225248806
 31
0.0
  0
ARC
  5
A6E
  8
0
 10
189.73557553622669
 20
7.589834300482603
 30
0.0
 40
0.0769999998825167
 50
346.86462289744492
 51
44.999999972628608
  0
LINE
  5
A6F
  8
0
 10
189.81056089552089
 20
7.5723358470248838
 30
0.0
 11
189.077930666821
 21
4.4328274632248821
 31
0.0
  0
ARC
  5
A70
  8
0
 10
189.3681337462576
 20
4.3651061762464378
 30
0.0
 40
0.2980000000411522
 50
166.86462300446499
 51
224.99999999785069
  0
LINE
  5
A71
  8
0
 10
189.15741592542099
 20
4.1543883554248806
 30
0.0
 11
189.80254216162101
 21
3.5092621192248821
 31
0.0
  0
ARC
  5
A72
  8
0
 10
189.7480949395337
 20
3.4548148970274108
 30
0.0
 40
0.0769999999873132
 50
359.99999999812121
 51
45.00000005796047
  0
LINE
  5
A73
  8
0
 10
189.82509493952099
 20
3.4548148970248809
 30
0.0
 11
189.82509493952099
 21
3.0674956306524201
 31
0.0
  0
ARC
  5
A74
  8
0
 10
190.12418003340261
 20
3.0563580942922361
 30
0.0
 40
0.2992923956573955
 50
177.86736579358339
 51
262.78429075509689
  0
ARC
  5
A75
  8
0
 10
205.64487163482099
 20
12.406591592324849
 30
0.0
 40
0.0770000000000357
 50
90.000000000006509
 51
135.00000000029061
  0
LINE
  5
A76
  8
0
 10
205.59042441272101
 20
12.46103881452488
 30
0.0
 11
204.896167120721
 21
11.76678152252488
 31
0.0
  0
ARC
  5
A77
  8
0
 10
204.9506143428153
 20
11.712334300482601
 30
0.0
 40
0.0769999998825161
 50
135.00000002737119
 51
193.13537710255301
  0
LINE
  5
A78
  8
0
 10
204.87562898352101
 20
11.69483584702488
 30
0.0
 11
205.60825921222099
 21
8.5553274632248808
 31
0.0
  0
ARC
  5
A79
  8
0
 10
205.31805613278379
 20
8.4876061762257855
 30
0.0
 40
0.2980000000359853
 50
315.00000000492878
 51
13.135377006706459
  0
LINE
  5
A7A
  8
0
 10
205.528773953621
 20
8.2768883554248838
 30
0.0
 11
204.896167120721
 21
7.6442815225248806
 31
0.0
  0
ARC
  5
A7B
  8
0
 10
204.9506143428153
 20
7.589834300482603
 30
0.0
 40
0.0769999998825167
 50
135.00000002737141
 51
193.13537710255511
  0
LINE
  5
A7C
  8
0
 10
204.87562898352101
 20
7.5723358470248838
 30
0.0
 11
205.60825921222099
 21
4.4328274632248821
 31
0.0
  0
ARC
  5
A7D
  8
0
 10
205.31805613278431
 20
4.3651061762464378
 30
0.0
 40
0.2980000000411522
 50
315.00000000214931
 51
13.13537699553495
  0
LINE
  5
A7E
  8
0
 10
205.528773953621
 20
4.1543883554248806
 30
0.0
 11
204.88364771742101
 21
3.5092621192248821
 31
0.0
  0
ARC
  5
A7F
  8
0
 10
204.93809493950829
 20
3.4548148970274108
 30
0.0
 40
0.0769999999873132
 50
134.99999994203949
 51
180.00000000187839
  0
LINE
  5
A80
  8
0
 10
204.861094939521
 20
3.4548148970248809
 30
0.0
 11
204.861094939521
 21
3.0674956306524201
 31
0.0
  0
ARC
  5
A81
  8
0
 10
204.56200720264681
 20
3.056360337793206
 30
0.0
 40
0.2992949533412792
 50
277.2161572069935
 51
2.1321861890465428
  0
LINE
  5
A82
  8
0
 10
190.0865873387431
 20
2.759436004499999
 30
0.0
 11
193.31944968496569
 21
2.3496831056028218
 31
0.0
  0
ARC
  5
A83
  8
0
 10
193.31743296729309
 20
2.2727095213999999
 30
0.0
 40
0.0769999987999987
 50
68.197461804802003
 51
88.49918665360002
  0
LINE
  5
A84
  8
0
 10
193.346031457305
 20
2.3442016621166002
 30
0.0
 11
194.95726579282021
 21
1.699329038789174
 31
0.0
  0
ARC
  5
A85
  8
0
 10
194.94537446629309
 20
1.669620515500025
 30
0.0
 40
0.0319999999999733
 50
43.821048088337022
 51
68.185428693911177
  0
LINE
  5
A86
  8
0
 10
194.96846265560359
 20
1.691777580160406
 30
0.0
 11
195.04846265551151
 21
1.608415674085095
 31
0.0
  0
ARC
  5
A87
  8
0
 10
195.10474011708439
 20
1.662423519312143
 30
0.0
 40
0.0780000001434859
 50
223.8210479868049
 51
251.99999995418821
  0
LINE
  5
A88
  8
0
 10
195.0806367915211
 20
1.588241110900001
 30
0.0
 11
195.47549248639311
 21
1.4599447184000001
 31
0.0
  0
LINE
  5
A89
  8
0
 10
195.47549248639311
 20
1.4599447184000001
 30
0.0
 11
199.21069739269311
 21
1.4599447184000001
 31
0.0
  0
LINE
  5
A8A
  8
0
 10
204.59960254004309
 20
2.759436004499999
 30
0.0
 11
201.3667401941205
 21
2.3496831056028218
 31
0.0
  0
ARC
  5
A8B
  8
0
 10
201.3687569117931
 20
2.2727095213999999
 30
0.0
 40
0.0769999987999987
 50
91.500813346399994
 51
111.802538195198
  0
LINE
  5
A8C
  8
0
 10
201.3401584217813
 20
2.3442016621166002
 30
0.0
 11
199.72892408626609
 21
1.699329038789174
 31
0.0
  0
ARC
  5
A8D
  8
0
 10
199.7408154127931
 20
1.669620515500025
 30
0.0
 40
0.0319999999999733
 50
111.81457130608879
 51
136.1789519116609
  0
LINE
  5
A8E
  8
0
 10
199.71772722348271
 20
1.691777580160406
 30
0.0
 11
199.6377272235747
 21
1.608415674085095
 31
0.0
  0
ARC
  5
A8F
  8
0
 10
199.58144976200191
 20
1.662423519312143
 30
0.0
 40
0.0780000001434859
 50
288.00000004581182
 51
316.1789520131951
  0
LINE
  5
A90
  8
0
 10
199.6055530875652
 20
1.588241110900001
 30
0.0
 11
199.21069739269311
 21
1.4599447184000001
 31
0.0
  0
LINE
  5
A91
  8
0
 10
193.31944968496569
 20
2.3496831056028218
 30
0.0
 11
201.3667401941205
 21
2.3496831056028218
 31
0.0
  0
ATTDEF
  5
B3A
  8
DEFPOINTS
 10
197.33896845208119
 20
12.538321135987481
 30
0.0
 40
0.001
  1
STAINLESS STEEL
  3

  2
MATERIAL
 70
     0
1001
AcDbAttr
1070
     0
1070
     1
  0
ATTDEF
  5
B3B
  8
DEFPOINTS
 10
197.33896845208119
 20
12.53998780265414
 30
0.0
 40
0.001
  1
KITCHEN SINK 
  3

  2
PRODUCT
 70
     0
1001
AcDbAttr
1070
     0
1070
     1
  0
ATTDEF
  5
B3C
  8
DEFPOINTS
 10
197.33896845208119
 20
12.541654469320809
 30
0.0
 40
0.001
  1
PROLIFIC
  3

  2
TRADENAME
 70
     0
1001
AcDbAttr
1070
     0
1070
     1
  0
ATTDEF
  5
B3D
  8
DEFPOINTS
 10
197.33896845208119
 20
12.543321135987471
 30
0.0
 40
0.001
  1
K-23652
  3

  2
MODELNUMBER
 70
     0
1001
AcDbAttr
1070
     0
1070
     1
  0
ENDSEC
  0
EOF
