  0
SECTION
  2
HEADER
  9
$ACADVER
  1
AC1009
  9
$INSBASE
 10
142.9139787477576
 20
11.59139801394651
 30
0.0
  9
$EXTMIN
 10
134.0554787477576
 20
0.6860276144465108
 30
0.0
  9
$EXTMAX
 10
151.77247874775759
 20
11.60345005489401
 30
0.0
  9
$LIMMIN
 10
0.0
 20
0.0
  9
$LIMMAX
 10
11.692913385800001
 20
8.2677165353999982
  9
$ORTHOMODE
 70
     0
  9
$REGENMODE
 70
     1
  9
$FILLMODE
 70
     1
  9
$QTEXTMODE
 70
     0
  9
$MIRRTEXT
 70
     0
  9
$DRAGMODE
 70
     2
  9
$LTSCALE
 40
0.6431102362
  9
$OSMODE
 70
  3071
  9
$ATTMODE
 70
     1
  9
$TEXTSIZE
 40
0.2
  9
$TRACEWID
 40
0.05
  9
$TEXTSTYLE
  7
STANDARD
  9
$CLAYER
  8
0
  9
$CELTYPE
  6
BYLAYER
  9
$CECOLOR
 62
   256
  9
$DIMSCALE
 40
1.0
  9
$DIMASZ
 40
0.1875
  9
$DIMEXO
 40
0.0625
  9
$DIMDLI
 40
0.4443307087
  9
$DIMRND
 40
0.0
  9
$DIMDLE
 40
0.0
  9
$DIMEXE
 40
0.125
  9
$DIMTP
 40
0.01
  9
$DIMTM
 40
0.01
  9
$DIMTXT
 40
0.15625
  9
$DIMCEN
 40
0.1052362205
  9
$DIMTSZ
 40
0.0
  9
$DIMTOL
 70
     1
  9
$DIMLIM
 70
     0
  9
$DIMTIH
 70
     1
  9
$DIMTOH
 70
     1
  9
$DIMSE1
 70
     0
  9
$DIMSE2
 70
     0
  9
$DIMTAD
 70
     0
  9
$DIMZIN
 70
     0
  9
$DIMBLK
  1

  9
$DIMASO
 70
     1
  9
$DIMSHO
 70
     1
  9
$DIMPOST
  1

  9
$DIMAPOST
  1

  9
$DIMALT
 70
     0
  9
$DIMALTD
 70
     2
  9
$DIMALTF
 40
25.399999999999999
  9
$DIMLFAC
 40
1.0
  9
$DIMTOFL
 70
     0
  9
$DIMTVP
 40
0.0
  9
$DIMTIX
 70
     0
  9
$DIMSOXD
 70
     0
  9
$DIMSAH
 70
     0
  9
$DIMBLK1
  1

  9
$DIMBLK2
  1

  9
$DIMSTYLE
  2
STANDARD
  9
$DIMCLRD
 70
     0
  9
$DIMCLRE
 70
     0
  9
$DIMCLRT
 70
     0
  9
$DIMTFAC
 40
1.0
  9
$DIMGAP
 40
0.09
  9
$LUNITS
 70
     2
  9
$LUPREC
 70
     4
  9
$SKETCHINC
 40
0.1
  9
$FILLETRAD
 40
0.0
  9
$AUNITS
 70
     0
  9
$AUPREC
 70
     0
  9
$MENU
  1
.
  9
$ELEVATION
 40
0.0
  9
$PELEVATION
 40
0.0
  9
$THICKNESS
 40
0.0
  9
$LIMCHECK
 70
     0
  9
$BLIPMODE
 70
     0
  9
$CHAMFERA
 40
0.0
  9
$CHAMFERB
 40
0.0
  9
$SKPOLY
 70
     0
  9
$TDCREATE
 40
2458065.714160162
  9
$TDUPDATE
 40
2458065.7926259949
  9
$TDINDWG
 40
0.0405327199
  9
$TDUSRTIMER
 40
0.0405327199
  9
$USRTIMER
 70
     1
  9
$ANGBASE
 50
0.0
  9
$ANGDIR
 70
     0
  9
$PDMODE
 70
     0
  9
$PDSIZE
 40
0.3125
  9
$PLINEWID
 40
0.0
  9
$COORDS
 70
     1
  9
$SPLFRAME
 70
     0
  9
$SPLINETYPE
 70
     6
  9
$SPLINESEGS
 70
     8
  9
$ATTDIA
 70
     1
  9
$ATTREQ
 70
     1
  9
$HANDLING
 70
     1
  9
$HANDSEED
  5
DFC
  9
$SURFTAB1
 70
     6
  9
$SURFTAB2
 70
     6
  9
$SURFTYPE
 70
     6
  9
$SURFU
 70
     6
  9
$SURFV
 70
     6
  9
$UCSNAME
  2

  9
$UCSORG
 10
0.0
 20
0.0
 30
0.0
  9
$UCSXDIR
 10
1.0
 20
0.0
 30
0.0
  9
$UCSYDIR
 10
0.0
 20
1.0
 30
0.0
  9
$PUCSNAME
  2

  9
$PUCSORG
 10
0.0
 20
0.0
 30
0.0
  9
$PUCSXDIR
 10
1.0
 20
0.0
 30
0.0
  9
$PUCSYDIR
 10
0.0
 20
1.0
 30
0.0
  9
$USERI1
 70
     0
  9
$USERI2
 70
     0
  9
$USERI3
 70
     0
  9
$USERI4
 70
     0
  9
$USERI5
 70
     0
  9
$USERR1
 40
0.0
  9
$USERR2
 40
0.0
  9
$USERR3
 40
0.0
  9
$USERR4
 40
0.0
  9
$USERR5
 40
0.0
  9
$WORLDVIEW
 70
     1
  9
$SHADEDGE
 70
     3
  9
$SHADEDIF
 70
    70
  9
$TILEMODE
 70
     1
  9
$MAXACTVP
 70
    64
  9
$PLIMCHECK
 70
     0
  9
$PEXTMIN
 10
1.0000000000000000E+020
 20
1.0000000000000000E+020
 30
1.0000000000000000E+020
  9
$PEXTMAX
 10
-1.0000000000000000E+020
 20
-1.0000000000000000E+020
 30
-1.0000000000000000E+020
  9
$PLIMMIN
 10
0.0
 20
0.0
  9
$PLIMMAX
 10
12.0
 20
9.0
  9
$UNITMODE
 70
     0
  9
$VISRETAIN
 70
     1
  9
$PLINEGEN
 70
     0
  9
$PSLTSCALE
 70
     1
  0
ENDSEC
  0
SECTION
  2
TABLES
  0
TABLE
  2
VPORT
 70
     1
  0
VPORT
  2
*ACTIVE
 70
     0
 10
0.0
 20
0.0
 11
1.0
 21
1.0
 12
0.0
 22
0.0
 13
0.0
 23
0.0
 14
1.0
 24
1.0
 15
0.0
 25
0.0
 16
0.0
 26
0.0
 36
58.519178164360788
 17
142.9139787477576
 27
6.1447388346702603
 37
0.0
 40
20.813585583788161
 41
2.0983240223463682
 42
50.0
 43
0.0
 44
0.0
 50
0.0
 51
0.0
 71
     0
 72
   100
 73
     1
 74
     1
 75
     0
 76
     0
 77
     0
 78
     0
  0
ENDTAB
  0
TABLE
  2
LTYPE
 70
     2
  0
LTYPE
  2
CONTINUOUS
 70
     0
  3
Solid line
 72
    65
 73
     0
 40
0.0
  0
LTYPE
  2
PHANTOM2
 70
     0
  3
___ _ _ ___ _ _ ___ _ _ ___ _ _
 72
    65
 73
     6
 40
1.25
 49
0.625
 49
-0.125
 49
0.125
 49
-0.125
 49
0.125
 49
-0.125
  0
ENDTAB
  0
TABLE
  2
LAYER
 70
     2
  0
LAYER
  2
0
 70
     0
 62
   255
  6
CONTINUOUS
  0
LAYER
  2
DEFPOINTS
 70
     0
 62
     7
  6
CONTINUOUS
  0
ENDTAB
  0
TABLE
  2
STYLE
 70
     1
  0
STYLE
  2
STANDARD
 70
     0
 40
0.0
 41
0.8
 50
0.0
 71
     0
 42
0.2
  3
txt
  4

  0
ENDTAB
  0
TABLE
  2
VIEW
 70
     0
  0
ENDTAB
  0
TABLE
  2
UCS
 70
     0
  0
ENDTAB
  0
TABLE
  2
APPID
 70
     7
  0
APPID
  2
ACAD
 70
     0
  0
APPID
  2
ACAD_MLEADERVER
 70
     0
  0
APPID
  2
ACAD_EXEMPT_FROM_CAD_STANDARDS
 70
     0
  0
APPID
  2
ACAD_NAV_VCDISPLAY
 70
     0
  0
APPID
  2
ACAECLAYERSTANDARD
 70
     0
  0
APPID
  2
ACCMTRANSPARENCY
 70
     0
  0
APPID
  2
AcDbAttr
 70
     0
  0
ENDTAB
  0
TABLE
  2
DIMSTYLE
 70
     1
  0
DIMSTYLE
  2
STANDARD
 70
     0
  3

  4

  5

  6

  7

 40
1.0
 41
0.1875
 42
0.0625
 43
0.38
 44
0.125
 45
0.0
 46
0.0
 47
0.01
 48
0.01
140
0.15625
141
0.09
142
0.0
143
25.399999999999999
144
1.0
145
0.0
146
1.0
147
0.09
 71
     1
 72
     0
 73
     1
 74
     1
 75
     0
 76
     0
 77
     0
 78
     4
170
     0
171
     2
172
     0
173
     0
174
     0
175
     0
176
     0
177
     0
178
     0
  0
ENDTAB
  0
ENDSEC
  0
SECTION
  2
BLOCKS
  0
BLOCK
  8
0
  2
$MODEL_SPACE
 70
     0
 10
0.0
 20
0.0
 30
0.0
  3
$MODEL_SPACE
  1

  0
ENDBLK
  5
21
  8
0
  0
BLOCK
 67
     1
  8
0
  2
$PAPER_SPACE
 70
     0
 10
0.0
 20
0.0
 30
0.0
  3
$PAPER_SPACE
  1

  0
ENDBLK
  5
1D
 67
     1
  8
0
  0
ENDSEC
  0
SECTION
  2
ENTITIES
  0
ATTDEF
  5
B01
  8
DEFPOINTS
 10
142.91078055154529
 20
11.59745005489401
 30
0.0
 40
0.001
  1
STAINLESS STEEL
  3

  2
MATERIAL
 70
     0
1001
AcDbAttr
1070
     0
1070
     1
  0
ATTDEF
  5
B02
  8
DEFPOINTS
 10
142.91078055154529
 20
11.59911672156068
 30
0.0
 40
0.001
  1
KITCHEN SINK 
  3

  2
PRODUCT
 70
     0
1001
AcDbAttr
1070
     0
1070
     1
  0
ATTDEF
  5
B03
  8
DEFPOINTS
 10
142.91078055154529
 20
11.60078338822734
 30
0.0
 40
0.001
  1
PROLIFIC
  3

  2
TRADENAME
 70
     0
1001
AcDbAttr
1070
     0
1070
     1
  0
ATTDEF
  5
B04
  8
DEFPOINTS
 10
142.91078055154529
 20
11.60245005489401
 30
0.0
 40
0.001
  1
K-23651
  3

  2
MODELNUMBER
 70
     0
1001
AcDbAttr
1070
     0
1070
     1
  0
LINE
  5
C3F
  8
0
 10
134.0554787477576
 20
11.59139801394651
 30
0.0
 11
151.77247874775759
 21
11.59139801394651
 31
0.0
  0
LINE
  5
C40
  8
0
 10
151.77247874775759
 20
11.59139801394651
 30
0.0
 11
151.77247874775759
 21
11.54339801394651
 31
0.0
  0
LINE
  5
C41
  8
0
 10
151.77247874775759
 20
11.54339801394651
 30
0.0
 11
134.0554787477576
 21
11.54339801394651
 31
0.0
  0
LINE
  5
C42
  8
0
 10
134.0554787477576
 20
11.54339801394651
 30
0.0
 11
134.0554787477576
 21
11.59139801394651
 31
0.0
  0
ARC
  5
C43
  8
0
 10
134.6122020524576
 20
11.466398013946471
 30
0.0
 40
0.0770000000000357
 50
44.999999999709388
 51
89.999999999991857
  0
LINE
  5
C44
  8
0
 10
134.66664927455761
 20
11.52084523614651
 30
0.0
 11
135.36090656655759
 21
10.82658794414651
 31
0.0
  0
ARC
  5
C45
  8
0
 10
135.30645934446329
 20
10.772140722104229
 30
0.0
 40
0.0769999998825161
 50
346.86462289744708
 51
44.9999999726288
  0
LINE
  5
C46
  8
0
 10
135.38144470375761
 20
10.75464226864651
 30
0.0
 11
134.64881447505761
 21
7.6151338848465091
 31
0.0
  0
ARC
  5
C47
  8
0
 10
134.9390175544948
 20
7.5474125978474156
 30
0.0
 40
0.2980000000359853
 50
166.86462299329349
 51
224.99999999507119
  0
LINE
  5
C48
  8
0
 10
134.72829973365759
 20
7.3366947770465103
 30
0.0
 11
135.36090656655759
 21
6.7040879441465089
 31
0.0
  0
ARC
  5
C49
  8
0
 10
135.30645934446329
 20
6.6496407221042313
 30
0.0
 40
0.0769999998825167
 50
346.86462289744509
 51
44.999999972627002
  0
LINE
  5
C4A
  8
0
 10
135.38144470375761
 20
6.6321422686465104
 30
0.0
 11
134.64881447505761
 21
3.4926338848465099
 31
0.0
  0
ARC
  5
C4B
  8
0
 10
134.9390175544942
 20
3.424912597868067
 30
0.0
 40
0.2980000000411522
 50
166.8646230044651
 51
224.9999999978491
  0
LINE
  5
C4C
  8
0
 10
134.72829973365759
 20
3.2141947770465098
 30
0.0
 11
135.37342596985761
 21
2.5690685408465099
 31
0.0
  0
ARC
  5
C4D
  8
0
 10
135.3189787477703
 20
2.5146213186490392
 30
0.0
 40
0.0769999999873132
 50
359.99999999812138
 51
45.00000005795885
  0
LINE
  5
C4E
  8
0
 10
135.3959787477576
 20
2.5146213186465101
 30
0.0
 11
135.3959787477576
 21
2.127302052274048
 31
0.0
  0
ARC
  5
C4F
  8
0
 10
135.6939721533972
 20
2.120877026412046
 30
0.0
 40
0.2980626624755073
 50
178.76483898727079
 51
265.64622915576888
  0
LINE
  5
C50
  8
0
 10
135.6713448663921
 20
1.823674474867893
 30
0.0
 11
138.8910320810885
 21
1.5761293440705091
 31
0.0
  0
ARC
  5
C51
  8
0
 10
138.88928413036351
 20
1.5081760916971161
 30
0.0
 40
0.0679757297854091
 50
68.251282666550281
 51
88.526514684842496
  0
ARC
  5
C52
  8
0
 10
151.21575544305759
 20
11.466398013946471
 30
0.0
 40
0.0770000000000357
 50
90.000000000006509
 51
135.00000000029061
  0
LINE
  5
C53
  8
0
 10
151.16130822095761
 20
11.52084523614651
 30
0.0
 11
150.4670509289576
 21
10.82658794414651
 31
0.0
  0
ARC
  5
C54
  8
0
 10
150.5214981510519
 20
10.772140722104229
 30
0.0
 40
0.0769999998825161
 50
135.00000002737119
 51
193.13537710255289
  0
LINE
  5
C55
  8
0
 10
150.44651279175761
 20
10.75464226864651
 30
0.0
 11
151.17914302045759
 21
7.6151338848465091
 31
0.0
  0
ARC
  5
C56
  8
0
 10
150.8889399410204
 20
7.5474125978474156
 30
0.0
 40
0.2980000000359853
 50
315.00000000492878
 51
13.13537700670647
  0
LINE
  5
C57
  8
0
 10
151.0996577618576
 20
7.3366947770465103
 30
0.0
 11
150.4670509289576
 21
6.7040879441465089
 31
0.0
  0
ARC
  5
C58
  8
0
 10
150.5214981510519
 20
6.6496407221042313
 30
0.0
 40
0.0769999998825167
 50
135.00000002737289
 51
193.13537710255491
  0
LINE
  5
C59
  8
0
 10
150.44651279175761
 20
6.6321422686465104
 30
0.0
 11
151.17914302045759
 21
3.4926338848465099
 31
0.0
  0
ARC
  5
C5A
  8
0
 10
150.88893994102091
 20
3.424912597868067
 30
0.0
 40
0.2980000000411522
 50
315.0000000021497
 51
13.13537699553485
  0
LINE
  5
C5B
  8
0
 10
151.0996577618576
 20
3.2141947770465098
 30
0.0
 11
150.45453152565759
 21
2.5690685408465099
 31
0.0
  0
ARC
  5
C5C
  8
0
 10
150.50897874774489
 20
2.5146213186490392
 30
0.0
 40
0.0769999999873132
 50
134.99999994204109
 51
180.00000000187859
  0
LINE
  5
C5D
  8
0
 10
150.4319787477576
 20
2.5146213186465101
 30
0.0
 11
150.4319787477576
 21
2.127302052274048
 31
0.0
  0
ARC
  5
C5E
  8
0
 10
150.133985342118
 20
2.120877026412046
 30
0.0
 40
0.2980626624755073
 50
274.35377084423112
 51
1.2351610127291801
  0
LINE
  5
C5F
  8
0
 10
150.15661262912309
 20
1.823674474867893
 30
0.0
 11
146.9369254144267
 21
1.5761293440705091
 31
0.0
  0
ARC
  5
C60
  8
0
 10
146.9414453276687
 20
1.4946854142019059
 30
0.0
 40
0.0815692547971159
 50
93.176499098194483
 51
110.04570355056551
  0
LINE
  5
C62
  8
0
 10
138.9144716291778
 20
1.5713131627674191
 30
0.0
 11
140.52814960098459
 21
0.925411934835683
 31
0.0
  0
ARC
  5
C63
  8
0
 10
140.51625827445761
 20
0.8957034115465338
 30
0.0
 40
0.0319999999999733
 50
43.821048088338578
 51
68.185428693911078
  0
LINE
  5
C64
  8
0
 10
140.53934646376811
 20
0.9178604762069157
 30
0.0
 11
140.61934646367601
 21
0.8344985701316041
 31
0.0
  0
ARC
  5
C65
  8
0
 10
140.67562392524891
 20
0.8885064153586528
 30
0.0
 40
0.0780000001434859
 50
223.8210479868049
 51
251.99999995418821
  0
LINE
  5
C66
  8
0
 10
140.65152059968551
 20
0.81432400694651
 30
0.0
 11
141.0463762945576
 21
0.6860276144465108
 31
0.0
  0
LINE
  5
C67
  8
0
 10
141.0463762945576
 20
0.6860276144465108
 30
0.0
 11
144.7815812008576
 21
0.6860276144465108
 31
0.0
  0
LINE
  5
C68
  8
0
 10
146.9134858663372
 20
1.571313162767372
 30
0.0
 11
145.2998078944305
 21
0.925411934835683
 31
0.0
  0
ARC
  5
C69
  8
0
 10
145.31169922095759
 20
0.8957034115465338
 30
0.0
 40
0.0319999999999733
 50
111.81457130608889
 51
136.1789519116613
  0
LINE
  5
C6A
  8
0
 10
145.28861103164721
 20
0.9178604762069157
 30
0.0
 11
145.2086110317392
 21
0.8344985701316041
 31
0.0
  0
ARC
  5
C6B
  8
0
 10
145.15233357016629
 20
0.8885064153586528
 30
0.0
 40
0.0780000001434859
 50
288.00000004581182
 51
316.1789520131951
  0
LINE
  5
C6C
  8
0
 10
145.17643689572969
 20
0.81432400694651
 30
0.0
 11
144.7815812008576
 21
0.6860276144465108
 31
0.0
  0
ENDSEC
  0
EOF
