  0
SECTION
  2
HEADER
  9
$ACADVER
  1
AC1009
  9
$INSBASE
 10
130.694866761783
 20
13.844024239099999
 30
0.0
  9
$EXTMIN
 10
121.836366761783
 20
2.9936477437
 30
0.0
  9
$EXTMAX
 10
139.553366761783
 20
13.8563155408615
 30
0.0
  9
$LIMMIN
 10
0.0
 20
0.0
  9
$LIMMAX
 10
11.692913385800001
 20
8.2677165353999982
  9
$ORTHOMODE
 70
     0
  9
$REGENMODE
 70
     1
  9
$FILLMODE
 70
     1
  9
$QTEXTMODE
 70
     0
  9
$MIRRTEXT
 70
     0
  9
$DRAGMODE
 70
     2
  9
$LTSCALE
 40
0.6431102362
  9
$OSMODE
 70
  3071
  9
$ATTMODE
 70
     1
  9
$TEXTSIZE
 40
0.2
  9
$TRACEWID
 40
0.05
  9
$TEXTSTYLE
  7
STANDARD
  9
$CLAYER
  8
0
  9
$CELTYPE
  6
BYLAYER
  9
$CECOLOR
 62
   256
  9
$DIMSCALE
 40
1.0
  9
$DIMASZ
 40
0.1875
  9
$DIMEXO
 40
0.0625
  9
$DIMDLI
 40
0.4443307087
  9
$DIMRND
 40
0.0
  9
$DIMDLE
 40
0.0
  9
$DIMEXE
 40
0.125
  9
$DIMTP
 40
0.01
  9
$DIMTM
 40
0.01
  9
$DIMTXT
 40
1.0
  9
$DIMCEN
 40
0.1052362205
  9
$DIMTSZ
 40
0.0
  9
$DIMTOL
 70
     1
  9
$DIMLIM
 70
     0
  9
$DIMTIH
 70
     1
  9
$DIMTOH
 70
     1
  9
$DIMSE1
 70
     0
  9
$DIMSE2
 70
     0
  9
$DIMTAD
 70
     0
  9
$DIMZIN
 70
     0
  9
$DIMBLK
  1

  9
$DIMASO
 70
     1
  9
$DIMSHO
 70
     1
  9
$DIMPOST
  1
\X
  9
$DIMAPOST
  1

  9
$DIMALT
 70
     1
  9
$DIMALTD
 70
     2
  9
$DIMALTF
 40
25.399999999999999
  9
$DIMLFAC
 40
1.0
  9
$DIMTOFL
 70
     0
  9
$DIMTVP
 40
0.0
  9
$DIMTIX
 70
     0
  9
$DIMSOXD
 70
     0
  9
$DIMSAH
 70
     0
  9
$DIMBLK1
  1

  9
$DIMBLK2
  1

  9
$DIMSTYLE
  2
STANDARD
  9
$DIMCLRD
 70
     0
  9
$DIMCLRE
 70
     0
  9
$DIMCLRT
 70
     0
  9
$DIMTFAC
 40
1.0
  9
$DIMGAP
 40
0.09
  9
$LUNITS
 70
     2
  9
$LUPREC
 70
     4
  9
$SKETCHINC
 40
0.1
  9
$FILLETRAD
 40
0.0
  9
$AUNITS
 70
     0
  9
$AUPREC
 70
     0
  9
$MENU
  1
.
  9
$ELEVATION
 40
0.0
  9
$PELEVATION
 40
0.0
  9
$THICKNESS
 40
0.0
  9
$LIMCHECK
 70
     0
  9
$BLIPMODE
 70
     0
  9
$CHAMFERA
 40
0.0
  9
$CHAMFERB
 40
0.0
  9
$SKPOLY
 70
     0
  9
$TDCREATE
 40
2458128.400675972
  9
$TDUPDATE
 40
2458128.4595776279
  9
$TDINDWG
 40
0.0512617593
  9
$TDUSRTIMER
 40
0.0512617593
  9
$USRTIMER
 70
     1
  9
$ANGBASE
 50
0.0
  9
$ANGDIR
 70
     0
  9
$PDMODE
 70
     0
  9
$PDSIZE
 40
0.3125
  9
$PLINEWID
 40
0.0
  9
$COORDS
 70
     1
  9
$SPLFRAME
 70
     0
  9
$SPLINETYPE
 70
     6
  9
$SPLINESEGS
 70
     8
  9
$ATTDIA
 70
     1
  9
$ATTREQ
 70
     1
  9
$HANDLING
 70
     1
  9
$HANDSEED
  5
DC9
  9
$SURFTAB1
 70
     6
  9
$SURFTAB2
 70
     6
  9
$SURFTYPE
 70
     6
  9
$SURFU
 70
     6
  9
$SURFV
 70
     6
  9
$UCSNAME
  2

  9
$UCSORG
 10
0.0
 20
0.0
 30
0.0
  9
$UCSXDIR
 10
1.0
 20
0.0
 30
0.0
  9
$UCSYDIR
 10
0.0
 20
1.0
 30
0.0
  9
$PUCSNAME
  2

  9
$PUCSORG
 10
0.0
 20
0.0
 30
0.0
  9
$PUCSXDIR
 10
1.0
 20
0.0
 30
0.0
  9
$PUCSYDIR
 10
0.0
 20
1.0
 30
0.0
  9
$USERI1
 70
     0
  9
$USERI2
 70
     0
  9
$USERI3
 70
     0
  9
$USERI4
 70
     0
  9
$USERI5
 70
     0
  9
$USERR1
 40
0.0
  9
$USERR2
 40
0.0
  9
$USERR3
 40
0.0
  9
$USERR4
 40
0.0
  9
$USERR5
 40
0.0
  9
$WORLDVIEW
 70
     1
  9
$SHADEDGE
 70
     3
  9
$SHADEDIF
 70
    70
  9
$TILEMODE
 70
     1
  9
$MAXACTVP
 70
    64
  9
$PLIMCHECK
 70
     0
  9
$PEXTMIN
 10
1.0000000000000000E+020
 20
1.0000000000000000E+020
 30
1.0000000000000000E+020
  9
$PEXTMAX
 10
-1.0000000000000000E+020
 20
-1.0000000000000000E+020
 30
-1.0000000000000000E+020
  9
$PLIMMIN
 10
0.0
 20
0.0
  9
$PLIMMAX
 10
12.0
 20
9.0
  9
$UNITMODE
 70
     0
  9
$VISRETAIN
 70
     1
  9
$PLINEGEN
 70
     0
  9
$PSLTSCALE
 70
     1
  0
ENDSEC
  0
SECTION
  2
TABLES
  0
TABLE
  2
VPORT
 70
     1
  0
VPORT
  2
*ACTIVE
 70
     0
 10
0.0
 20
0.0
 11
1.0
 21
1.0
 12
0.0
 22
0.0
 13
0.0
 23
0.0
 14
1.0
 24
1.0
 15
0.0
 25
0.0
 16
0.0
 26
0.0
 36
58.438551665858782
 17
130.694866761783
 27
8.4249816422807502
 37
0.0
 40
20.78423561498731
 41
2.0983240223463682
 42
50.0
 43
0.0
 44
0.0
 50
0.0
 51
0.0
 71
     0
 72
   100
 73
     1
 74
     1
 75
     0
 76
     0
 77
     0
 78
     0
  0
ENDTAB
  0
TABLE
  2
LTYPE
 70
     2
  0
LTYPE
  2
CONTINUOUS
 70
     0
  3
Solid line
 72
    65
 73
     0
 40
0.0
  0
LTYPE
  2
PHANTOM2
 70
     0
  3
___ _ _ ___ _ _ ___ _ _ ___ _ _
 72
    65
 73
     6
 40
1.25
 49
0.625
 49
-0.125
 49
0.125
 49
-0.125
 49
0.125
 49
-0.125
  0
ENDTAB
  0
TABLE
  2
LAYER
 70
     2
  0
LAYER
  2
0
 70
     0
 62
   255
  6
CONTINUOUS
  0
LAYER
  2
DEFPOINTS
 70
     0
 62
     7
  6
CONTINUOUS
  0
ENDTAB
  0
TABLE
  2
STYLE
 70
     1
  0
STYLE
  2
STANDARD
 70
     0
 40
0.0
 41
0.8
 50
0.0
 71
     0
 42
0.2
  3
txt
  4

  0
ENDTAB
  0
TABLE
  2
VIEW
 70
     0
  0
ENDTAB
  0
TABLE
  2
UCS
 70
     0
  0
ENDTAB
  0
TABLE
  2
APPID
 70
    10
  0
APPID
  2
ACAD
 70
     0
  0
APPID
  2
ACAD_MLEADERVER
 70
     0
  0
APPID
  2
ACAD_EXEMPT_FROM_CAD_STANDARDS
 70
     0
  0
APPID
  2
ACAD_DSTYLE_DIMJAG
 70
     0
  0
APPID
  2
ACAD_DSTYLE_DIMTALN
 70
     0
  0
APPID
  2
ACAD_NAV_VCDISPLAY
 70
     0
  0
APPID
  2
ACAECLAYERSTANDARD
 70
     0
  0
APPID
  2
ACCMTRANSPARENCY
 70
     0
  0
APPID
  2
ACAD_DSTYLE_DIMRADIAL_EXTENSION
 70
     0
  0
APPID
  2
AcDbAttr
 70
     0
  0
ENDTAB
  0
TABLE
  2
DIMSTYLE
 70
     1
  0
DIMSTYLE
  2
STANDARD
 70
     0
  3

  4

  5

  6

  7

 40
1.0
 41
0.1875
 42
0.0625
 43
0.38
 44
0.125
 45
0.0
 46
0.0
 47
0.01
 48
0.01
140
0.15625
141
0.09
142
0.0
143
25.399999999999999
144
1.0
145
0.0
146
1.0
147
0.09
 71
     1
 72
     0
 73
     1
 74
     1
 75
     0
 76
     0
 77
     0
 78
     4
170
     0
171
     2
172
     0
173
     0
174
     0
175
     0
176
     0
177
     0
178
     0
  0
ENDTAB
  0
ENDSEC
  0
SECTION
  2
BLOCKS
  0
BLOCK
  8
0
  2
$MODEL_SPACE
 70
     0
 10
0.0
 20
0.0
 30
0.0
  3
$MODEL_SPACE
  1

  0
ENDBLK
  5
21
  8
0
  0
BLOCK
 67
     1
  8
0
  2
$PAPER_SPACE
 70
     0
 10
0.0
 20
0.0
 30
0.0
  3
$PAPER_SPACE
  1

  0
ENDBLK
  5
1D
 67
     1
  8
0
  0
ENDSEC
  0
SECTION
  2
ENTITIES
  0
LINE
  5
B07
  8
0
 10
121.836366761783
 20
13.844024239099999
 30
0.0
 11
139.553366761783
 21
13.844024239099999
 31
0.0
  0
LINE
  5
B08
  8
0
 10
139.553366761783
 20
13.844024239099999
 30
0.0
 11
139.553366761783
 21
13.796024239099999
 31
0.0
  0
LINE
  5
B09
  8
0
 10
139.553366761783
 20
13.796024239099999
 30
0.0
 11
121.836366761783
 21
13.796024239099999
 31
0.0
  0
LINE
  5
B0A
  8
0
 10
121.836366761783
 20
13.796024239099999
 30
0.0
 11
121.836366761783
 21
13.844024239099999
 31
0.0
  0
ARC
  5
B0B
  8
0
 10
122.393090066483
 20
13.71902423909996
 30
0.0
 40
0.0770000000000357
 50
44.999999999709367
 51
89.999999999991857
  0
LINE
  5
B0C
  8
0
 10
122.44753728858301
 20
13.7734714613
 30
0.0
 11
123.141794580583
 21
13.0792141693
 31
0.0
  0
ARC
  5
B0D
  8
0
 10
123.0873473584887
 20
13.024766947257721
 30
0.0
 40
0.0769999998825161
 50
346.86462289744719
 51
44.999999972628778
  0
LINE
  5
B0E
  8
0
 10
123.162332717783
 20
13.0072684938
 30
0.0
 11
122.429702489083
 21
9.8677601100000008
 31
0.0
  0
ARC
  5
B0F
  8
0
 10
122.7199055685202
 20
9.8000388230009055
 30
0.0
 40
0.2980000000359853
 50
166.86462299329349
 51
224.99999999507119
  0
LINE
  5
B10
  8
0
 10
122.509187747683
 20
9.5893210022000002
 30
0.0
 11
123.141794580583
 21
8.9567141692999996
 31
0.0
  0
ARC
  5
B11
  8
0
 10
123.0873473584887
 20
8.9022669472577203
 30
0.0
 40
0.0769999998825167
 50
346.86462289744497
 51
44.99999997262762
  0
LINE
  5
B12
  8
0
 10
123.162332717783
 20
8.8847684938000011
 30
0.0
 11
122.429702489083
 21
5.7452601100000003
 31
0.0
  0
ARC
  5
B13
  8
0
 10
122.71990556851971
 20
5.677538823021556
 30
0.0
 40
0.2980000000411522
 50
166.86462300446519
 51
224.9999999978497
  0
LINE
  5
B14
  8
0
 10
122.509187747683
 20
5.4668210022000006
 30
0.0
 11
123.154313983883
 21
4.8216947660000002
 31
0.0
  0
ARC
  5
B15
  8
0
 10
123.0998667617957
 20
4.7672475438025286
 30
0.0
 40
0.0769999999873132
 50
359.99999999812138
 51
45.00000005795949
  0
LINE
  5
B16
  8
0
 10
123.176866761783
 20
4.767247543799999
 30
0.0
 11
123.176866761783
 21
4.3799282774275383
 31
0.0
  0
ARC
  5
B17
  8
0
 10
123.474834466196
 20
4.3756474818119484
 30
0.0
 40
0.2979984531574045
 50
179.1769086197325
 51
265.68915027008558
  0
ARC
  5
B18
  8
0
 10
138.996643457083
 20
13.71902423909996
 30
0.0
 40
0.0770000000000357
 50
90.000000000007333
 51
135.00000000029061
  0
LINE
  5
B19
  8
0
 10
138.94219623498299
 20
13.7734714613
 30
0.0
 11
138.24793894298301
 21
13.0792141693
 31
0.0
  0
ARC
  5
B1A
  8
0
 10
138.30238616507731
 20
13.024766947257721
 30
0.0
 40
0.0769999998825161
 50
135.00000002737119
 51
193.1353771025527
  0
LINE
  5
B1B
  8
0
 10
138.22740080578299
 20
13.0072684938
 30
0.0
 11
138.96003103448299
 21
9.8677601100000008
 31
0.0
  0
ARC
  5
B1C
  8
0
 10
138.66982795504589
 20
9.8000388230009055
 30
0.0
 40
0.2980000000359853
 50
315.00000000492878
 51
13.135377006706459
  0
LINE
  5
B1D
  8
0
 10
138.88054577588301
 20
9.5893210022000002
 30
0.0
 11
138.24793894298301
 21
8.9567141692999996
 31
0.0
  0
ARC
  5
B1E
  8
0
 10
138.30238616507731
 20
8.9022669472577203
 30
0.0
 40
0.0769999998825167
 50
135.00000002737229
 51
193.135377102555
  0
LINE
  5
B1F
  8
0
 10
138.22740080578299
 20
8.8847684938000011
 30
0.0
 11
138.96003103448299
 21
5.7452601100000003
 31
0.0
  0
ARC
  5
B20
  8
0
 10
138.6698279550464
 20
5.677538823021556
 30
0.0
 40
0.2980000000411522
 50
315.00000000215027
 51
13.13537699553495
  0
LINE
  5
B21
  8
0
 10
138.88054577588301
 20
5.4668210022000006
 30
0.0
 11
138.23541953968299
 21
4.8216947660000002
 31
0.0
  0
ARC
  5
B22
  8
0
 10
138.28986676177041
 20
4.7672475438025286
 30
0.0
 40
0.0769999999873132
 50
134.99999994204049
 51
180.00000000187859
  0
LINE
  5
B23
  8
0
 10
138.212866761783
 20
4.767247543799999
 30
0.0
 11
138.212866761783
 21
4.3799282774275383
 31
0.0
  0
ARC
  5
B24
  8
0
 10
137.914527688324
 20
4.3759364175239099
 30
0.0
 40
0.2983657783625153
 50
273.5278334443762
 51
0.7665877436096301
  0
LINE
  5
B62
  8
0
 10
123.4524346507929
 20
4.0784920908897648
 30
0.0
 11
126.67122150725559
 21
3.883386130902819
 31
0.0
  0
ARC
  5
B63
  8
0
 10
126.66920478958301
 20
3.8064125466999981
 30
0.0
 40
0.0769999987999987
 50
68.197461804802003
 51
88.49918665360002
  0
LINE
  5
B64
  8
0
 10
126.69780327959489
 20
3.8779046874166001
 30
0.0
 11
128.3090376151101
 21
3.2330320640891719
 31
0.0
  0
ARC
  5
B65
  8
0
 10
128.29714628858301
 20
3.203323540800024
 30
0.0
 40
0.0319999999999733
 50
43.82104808833801
 51
68.18542869391031
  0
LINE
  5
B66
  8
0
 10
128.32023447789351
 20
3.2254806054604042
 30
0.0
 11
128.4002344778014
 21
3.1421186993850929
 31
0.0
  0
ARC
  5
B67
  8
0
 10
128.45651193937431
 20
3.1961265446121412
 30
0.0
 40
0.0780000001434859
 50
223.8210479868049
 51
251.99999995418739
  0
LINE
  5
B68
  8
0
 10
128.43240861381099
 20
3.1219441361999989
 30
0.0
 11
128.827264308683
 21
2.9936477437
 31
0.0
  0
LINE
  5
B69
  8
0
 10
128.827264308683
 20
2.9936477437
 30
0.0
 11
132.562469214983
 21
2.9936477437
 31
0.0
  0
LINE
  5
B6A
  8
0
 10
137.932887152533
 20
4.0781360351
 30
0.0
 11
134.71851201641039
 21
3.883386130902819
 31
0.0
  0
ARC
  5
B6B
  8
0
 10
134.72052873408299
 20
3.8064125466999981
 30
0.0
 40
0.0769999987999987
 50
91.500813346399994
 51
111.802538195198
  0
LINE
  5
B6C
  8
0
 10
134.69193024407119
 20
3.8779046874165979
 30
0.0
 11
133.08069590855601
 21
3.2330320640891719
 31
0.0
  0
ARC
  5
B6D
  8
0
 10
133.09258723508299
 20
3.203323540800024
 30
0.0
 40
0.0319999999999733
 50
111.8145713060896
 51
136.1789519116619
  0
LINE
  5
B6E
  8
0
 10
133.0694990457726
 20
3.2254806054604042
 30
0.0
 11
132.9894990458647
 21
3.1421186993850929
 31
0.0
  0
ARC
  5
B6F
  8
0
 10
132.9332215842918
 20
3.1961265446121412
 30
0.0
 40
0.0780000001434859
 50
288.00000004581261
 51
316.1789520131951
  0
LINE
  5
B70
  8
0
 10
132.95732490985509
 20
3.1219441361999989
 30
0.0
 11
132.562469214983
 21
2.9936477437
 31
0.0
  0
LINE
  5
B73
  8
0
 10
126.67122150725559
 20
3.883386130902819
 30
0.0
 11
134.71851201641039
 21
3.883386130902819
 31
0.0
  0
ATTDEF
  5
CFA
  8
DEFPOINTS
 10
130.6913354848954
 20
13.85031554086151
 30
0.0
 40
0.001
  1
STAINLESS STEEL
  3

  2
MATERIAL
 70
     0
1001
AcDbAttr
1070
     0
1070
     1
  0
ATTDEF
  5
CFB
  8
DEFPOINTS
 10
130.6913354848954
 20
13.85198220752817
 30
0.0
 40
0.001
  1
KITCHEN SINK 
  3

  2
PRODUCT
 70
     0
1001
AcDbAttr
1070
     0
1070
     1
  0
ATTDEF
  5
CFC
  8
DEFPOINTS
 10
130.6913354848954
 20
13.853648874194841
 30
0.0
 40
0.001
  1
PROLIFIC
  3

  2
TRADENAME
 70
     0
1001
AcDbAttr
1070
     0
1070
     1
  0
ATTDEF
  5
CFD
  8
DEFPOINTS
 10
130.6913354848954
 20
13.855315540861501
 30
0.0
 40
0.001
  1
K-23650
  3

  2
MODELNUMBER
 70
     0
1001
AcDbAttr
1070
     0
1070
     1
  0
ENDSEC
  0
EOF
