  0
SECTION
  2
HEADER
  9
$ACADVER
  1
AC1009
  9
$INSBASE
 10
83.235621785183056
 20
13.844024239099999
 30
0.0
  9
$EXTMIN
 10
71.735621785183056
 20
2.9936477437
 30
0.0
  9
$EXTMAX
 10
94.735621785183056
 20
13.844024239099999
 30
0.0
  9
$LIMMIN
 10
0.0
 20
0.0
  9
$LIMMAX
 10
11.692913385800001
 20
8.2677165353999982
  9
$ORTHOMODE
 70
     0
  9
$REGENMODE
 70
     1
  9
$FILLMODE
 70
     1
  9
$QTEXTMODE
 70
     0
  9
$MIRRTEXT
 70
     0
  9
$DRAGMODE
 70
     2
  9
$LTSCALE
 40
0.6431102362
  9
$OSMODE
 70
  3071
  9
$ATTMODE
 70
     1
  9
$TEXTSIZE
 40
0.2
  9
$TRACEWID
 40
0.05
  9
$TEXTSTYLE
  7
STANDARD
  9
$CLAYER
  8
0
  9
$CELTYPE
  6
BYLAYER
  9
$CECOLOR
 62
   256
  9
$DIMSCALE
 40
1.0
  9
$DIMASZ
 40
0.1875
  9
$DIMEXO
 40
0.0625
  9
$DIMDLI
 40
0.4443307087
  9
$DIMRND
 40
0.0
  9
$DIMDLE
 40
0.0
  9
$DIMEXE
 40
0.125
  9
$DIMTP
 40
0.01
  9
$DIMTM
 40
0.01
  9
$DIMTXT
 40
1.0
  9
$DIMCEN
 40
0.1052362205
  9
$DIMTSZ
 40
0.0
  9
$DIMTOL
 70
     1
  9
$DIMLIM
 70
     0
  9
$DIMTIH
 70
     1
  9
$DIMTOH
 70
     1
  9
$DIMSE1
 70
     0
  9
$DIMSE2
 70
     0
  9
$DIMTAD
 70
     0
  9
$DIMZIN
 70
     0
  9
$DIMBLK
  1

  9
$DIMASO
 70
     1
  9
$DIMSHO
 70
     1
  9
$DIMPOST
  1
\X
  9
$DIMAPOST
  1

  9
$DIMALT
 70
     1
  9
$DIMALTD
 70
     2
  9
$DIMALTF
 40
25.399999999999999
  9
$DIMLFAC
 40
1.0
  9
$DIMTOFL
 70
     0
  9
$DIMTVP
 40
0.0
  9
$DIMTIX
 70
     0
  9
$DIMSOXD
 70
     0
  9
$DIMSAH
 70
     0
  9
$DIMBLK1
  1

  9
$DIMBLK2
  1

  9
$DIMSTYLE
  2
STANDARD
  9
$DIMCLRD
 70
     0
  9
$DIMCLRE
 70
     0
  9
$DIMCLRT
 70
     0
  9
$DIMTFAC
 40
1.0
  9
$DIMGAP
 40
0.09
  9
$LUNITS
 70
     2
  9
$LUPREC
 70
     4
  9
$SKETCHINC
 40
0.1
  9
$FILLETRAD
 40
0.0
  9
$AUNITS
 70
     0
  9
$AUPREC
 70
     0
  9
$MENU
  1
.
  9
$ELEVATION
 40
0.0
  9
$PELEVATION
 40
0.0
  9
$THICKNESS
 40
0.0
  9
$LIMCHECK
 70
     0
  9
$BLIPMODE
 70
     0
  9
$CHAMFERA
 40
0.0
  9
$CHAMFERB
 40
0.0
  9
$SKPOLY
 70
     0
  9
$TDCREATE
 40
2458128.400675972
  9
$TDUPDATE
 40
2458128.4594398262
  9
$TDINDWG
 40
0.0491923032
  9
$TDUSRTIMER
 40
0.0491923032
  9
$USRTIMER
 70
     1
  9
$ANGBASE
 50
0.0
  9
$ANGDIR
 70
     0
  9
$PDMODE
 70
     0
  9
$PDSIZE
 40
0.3125
  9
$PLINEWID
 40
0.0
  9
$COORDS
 70
     1
  9
$SPLFRAME
 70
     0
  9
$SPLINETYPE
 70
     6
  9
$SPLINESEGS
 70
     8
  9
$ATTDIA
 70
     1
  9
$ATTREQ
 70
     1
  9
$HANDLING
 70
     1
  9
$HANDSEED
  5
DCA
  9
$SURFTAB1
 70
     6
  9
$SURFTAB2
 70
     6
  9
$SURFTYPE
 70
     6
  9
$SURFU
 70
     6
  9
$SURFV
 70
     6
  9
$UCSNAME
  2

  9
$UCSORG
 10
0.0
 20
0.0
 30
0.0
  9
$UCSXDIR
 10
1.0
 20
0.0
 30
0.0
  9
$UCSYDIR
 10
0.0
 20
1.0
 30
0.0
  9
$PUCSNAME
  2

  9
$PUCSORG
 10
0.0
 20
0.0
 30
0.0
  9
$PUCSXDIR
 10
1.0
 20
0.0
 30
0.0
  9
$PUCSYDIR
 10
0.0
 20
1.0
 30
0.0
  9
$USERI1
 70
     0
  9
$USERI2
 70
     0
  9
$USERI3
 70
     0
  9
$USERI4
 70
     0
  9
$USERI5
 70
     0
  9
$USERR1
 40
0.0
  9
$USERR2
 40
0.0
  9
$USERR3
 40
0.0
  9
$USERR4
 40
0.0
  9
$USERR5
 40
0.0
  9
$WORLDVIEW
 70
     1
  9
$SHADEDGE
 70
     3
  9
$SHADEDIF
 70
    70
  9
$TILEMODE
 70
     1
  9
$MAXACTVP
 70
    64
  9
$PLIMCHECK
 70
     0
  9
$PEXTMIN
 10
1.0000000000000000E+020
 20
1.0000000000000000E+020
 30
1.0000000000000000E+020
  9
$PEXTMAX
 10
-1.0000000000000000E+020
 20
-1.0000000000000000E+020
 30
-1.0000000000000000E+020
  9
$PLIMMIN
 10
0.0
 20
0.0
  9
$PLIMMAX
 10
12.0
 20
9.0
  9
$UNITMODE
 70
     0
  9
$VISRETAIN
 70
     1
  9
$PLINEGEN
 70
     0
  9
$PSLTSCALE
 70
     1
  0
ENDSEC
  0
SECTION
  2
TABLES
  0
TABLE
  2
VPORT
 70
     1
  0
VPORT
  2
*ACTIVE
 70
     0
 10
0.0
 20
0.0
 11
1.0
 21
1.0
 12
0.0
 22
0.0
 13
0.0
 23
0.0
 14
1.0
 24
1.0
 15
0.0
 25
0.0
 16
-0.0000000000000142
 26
0.0
 36
71.511317410703924
 17
83.235621785183056
 27
8.4188359914000017
 37
0.0
 40
25.433350610762439
 41
2.0983240223463682
 42
50.0
 43
0.0
 44
0.0
 50
0.0
 51
0.0
 71
     0
 72
   100
 73
     1
 74
     1
 75
     0
 76
     0
 77
     0
 78
     0
  0
ENDTAB
  0
TABLE
  2
LTYPE
 70
     2
  0
LTYPE
  2
CONTINUOUS
 70
     0
  3
Solid line
 72
    65
 73
     0
 40
0.0
  0
LTYPE
  2
PHANTOM2
 70
     0
  3
___ _ _ ___ _ _ ___ _ _ ___ _ _
 72
    65
 73
     6
 40
1.25
 49
0.625
 49
-0.125
 49
0.125
 49
-0.125
 49
0.125
 49
-0.125
  0
ENDTAB
  0
TABLE
  2
LAYER
 70
     2
  0
LAYER
  2
0
 70
     0
 62
   255
  6
CONTINUOUS
  0
LAYER
  2
DEFPOINTS
 70
     0
 62
     7
  6
CONTINUOUS
  0
ENDTAB
  0
TABLE
  2
STYLE
 70
     1
  0
STYLE
  2
STANDARD
 70
     0
 40
0.0
 41
0.8
 50
0.0
 71
     0
 42
0.2
  3
txt
  4

  0
ENDTAB
  0
TABLE
  2
VIEW
 70
     0
  0
ENDTAB
  0
TABLE
  2
UCS
 70
     0
  0
ENDTAB
  0
TABLE
  2
APPID
 70
    10
  0
APPID
  2
ACAD
 70
     0
  0
APPID
  2
ACAD_MLEADERVER
 70
     0
  0
APPID
  2
ACAD_EXEMPT_FROM_CAD_STANDARDS
 70
     0
  0
APPID
  2
ACAD_DSTYLE_DIMJAG
 70
     0
  0
APPID
  2
ACAD_DSTYLE_DIMTALN
 70
     0
  0
APPID
  2
ACAD_NAV_VCDISPLAY
 70
     0
  0
APPID
  2
ACAECLAYERSTANDARD
 70
     0
  0
APPID
  2
ACCMTRANSPARENCY
 70
     0
  0
APPID
  2
ACAD_DSTYLE_DIMRADIAL_EXTENSION
 70
     0
  0
APPID
  2
AcDbAttr
 70
     0
  0
ENDTAB
  0
TABLE
  2
DIMSTYLE
 70
     1
  0
DIMSTYLE
  2
STANDARD
 70
     0
  3

  4

  5

  6

  7

 40
1.0
 41
0.1875
 42
0.0625
 43
0.38
 44
0.125
 45
0.0
 46
0.0
 47
0.01
 48
0.01
140
0.15625
141
0.09
142
0.0
143
25.399999999999999
144
1.0
145
0.0
146
1.0
147
0.09
 71
     1
 72
     0
 73
     1
 74
     1
 75
     0
 76
     0
 77
     0
 78
     4
170
     0
171
     2
172
     0
173
     0
174
     0
175
     0
176
     0
177
     0
178
     0
  0
ENDTAB
  0
ENDSEC
  0
SECTION
  2
BLOCKS
  0
BLOCK
  8
0
  2
$MODEL_SPACE
 70
     0
 10
0.0
 20
0.0
 30
0.0
  3
$MODEL_SPACE
  1

  0
ENDBLK
  5
21
  8
0
  0
BLOCK
 67
     1
  8
0
  2
$PAPER_SPACE
 70
     0
 10
0.0
 20
0.0
 30
0.0
  3
$PAPER_SPACE
  1

  0
ENDBLK
  5
1D
 67
     1
  8
0
  0
ENDSEC
  0
SECTION
  2
ENTITIES
  0
LINE
  5
B25
  8
0
 10
71.735621785183056
 20
13.844024239099999
 30
0.0
 11
94.735621785183056
 21
13.844024239099999
 31
0.0
  0
LINE
  5
B26
  8
0
 10
94.735621785183056
 20
13.844024239099999
 30
0.0
 11
94.735621785183056
 21
13.796024239099999
 31
0.0
  0
LINE
  5
B27
  8
0
 10
94.735621785183056
 20
13.796024239099999
 30
0.0
 11
71.735621785183056
 21
13.796024239099999
 31
0.0
  0
LINE
  5
B28
  8
0
 10
71.735621785183056
 20
13.796024239099999
 30
0.0
 11
71.735621785183056
 21
13.844024239099999
 31
0.0
  0
ARC
  5
B29
  8
0
 10
72.360621785183071
 20
13.71902423910001
 30
0.0
 40
0.0769999999999911
 50
359.99999999999858
 51
90.000000000004874
  0
LINE
  5
B2A
  8
0
 10
72.437621785183055
 20
13.71902423910001
 30
0.0
 11
72.437621785183055
 21
4.0843371047000012
 31
0.0
  0
LINE
  5
B2B
  8
0
 10
72.437621785183055
 20
4.0843371047000012
 30
0.0
 11
79.211976530605654
 21
3.883386130902819
 31
0.0
  0
ARC
  5
B2C
  8
0
 10
79.20995981293305
 20
3.8064125466999981
 30
0.0
 40
0.0769999987999987
 50
68.197461804802003
 51
88.49918665360002
  0
LINE
  5
B2D
  8
0
 10
79.238558302944909
 20
3.8779046874166001
 30
0.0
 11
80.849792638460116
 21
3.2330320640891719
 31
0.0
  0
ARC
  5
B2E
  8
0
 10
80.837901311933095
 20
3.203323540800024
 30
0.0
 40
0.0319999999999733
 50
43.821048088338031
 51
68.18542869391031
  0
LINE
  5
B2F
  8
0
 10
80.860989501243495
 20
3.2254806054604042
 30
0.0
 11
80.940989501151392
 21
3.1421186993850929
 31
0.0
  0
ARC
  5
B30
  8
0
 10
80.997266962724296
 20
3.1961265446121412
 30
0.0
 40
0.0780000001434859
 50
223.8210479868049
 51
251.99999995418739
  0
LINE
  5
B31
  8
0
 10
80.973163637161008
 20
3.1219441361999989
 30
0.0
 11
81.368019332033043
 21
2.9936477437
 31
0.0
  0
LINE
  5
B32
  8
0
 10
81.368019332033043
 20
2.9936477437
 30
0.0
 11
85.103224238333055
 21
2.9936477437
 31
0.0
  0
ARC
  5
B33
  8
0
 10
94.110621785183056
 20
13.71902423910001
 30
0.0
 40
0.0769999999999911
 50
89.999999999994287
 51
180.00000000000119
  0
LINE
  5
B34
  8
0
 10
94.033621785183044
 20
13.71902423910001
 30
0.0
 11
94.033621785183044
 21
4.0844452807026981
 31
0.0
  0
LINE
  5
B35
  8
0
 10
94.033621785183044
 20
4.0844452807026981
 30
0.0
 11
87.259267039760459
 21
3.883386130902819
 31
0.0
  0
ARC
  5
B36
  8
0
 10
87.261283757433048
 20
3.8064125466999981
 30
0.0
 40
0.0769999987999987
 50
91.500813346399994
 51
111.802538195198
  0
LINE
  5
B37
  8
0
 10
87.232685267421203
 20
3.8779046874165979
 30
0.0
 11
85.621450931905997
 21
3.2330320640891719
 31
0.0
  0
ARC
  5
B38
  8
0
 10
85.633342258433046
 20
3.203323540800024
 30
0.0
 40
0.0319999999999733
 50
111.8145713060896
 51
136.1789519116619
  0
LINE
  5
B39
  8
0
 10
85.610254069122618
 20
3.2254806054604042
 30
0.0
 11
85.53025406921472
 21
3.1421186993850929
 31
0.0
  0
ARC
  5
B3A
  8
0
 10
85.473976607641816
 20
3.1961265446121412
 30
0.0
 40
0.0780000001434859
 50
288.00000004581261
 51
316.1789520131951
  0
LINE
  5
B3B
  8
0
 10
85.498079933205105
 20
3.1219441361999989
 30
0.0
 11
85.103224238333041
 21
2.9936477437
 31
0.0
  0
LINE
  5
B3C
  8
0
 10
94.033621785183044
 20
13.0072684938
 30
0.0
 11
72.437621785183055
 21
13.0072684938
 31
0.0
  0
LINE
  5
B3D
  8
0
 10
72.437621785183055
 20
13.0792141693
 30
0.0
 11
94.033621785183044
 21
13.0792141693
 31
0.0
  0
LINE
  5
B3E
  8
0
 10
72.437621785183055
 20
8.9567141693000014
 30
0.0
 11
94.033621785183044
 21
8.9567141693000032
 31
0.0
  0
LINE
  5
B3F
  8
0
 10
72.437621785183055
 20
8.8847684938000029
 30
0.0
 11
94.033621785183044
 21
8.8847684938000029
 31
0.0
  0
LINE
  5
B40
  8
0
 10
72.437621785183055
 20
4.821694766000002
 30
0.0
 11
94.033621785183044
 21
4.821694766000002
 31
0.0
  0
LINE
  5
B41
  8
0
 10
72.437621785183055
 20
4.7672475438000008
 30
0.0
 11
94.033621785183044
 21
4.7672475438000008
 31
0.0
  0
LINE
  5
B42
  8
0
 10
94.033621785183044
 20
9.8677601100000025
 30
0.0
 11
72.437621785183069
 21
9.8677601100000008
 31
0.0
  0
LINE
  5
B43
  8
0
 10
94.033621785183044
 20
5.745260110000002
 30
0.0
 11
72.437621785183055
 21
5.745260110000002
 31
0.0
  0
LINE
  5
B46
  8
0
 10
79.211976530605654
 20
3.883386130902819
 30
0.0
 11
87.259267039760473
 21
3.883386130902819
 31
0.0
  0
ATTDEF
  5
CB9
  8
DEFPOINTS
 10
83.230947576229298
 20
13.841784520021539
 30
0.0
 40
0.001
  1
K-23650
  3

  2
MODELNUMBER
 70
     0
1001
AcDbAttr
1070
     0
1070
     1
  0
ATTDEF
  5
CBA
  8
DEFPOINTS
 10
83.230947576229298
 20
13.840117853354879
 30
0.0
 40
0.001
  1
PROLIFIC
  3

  2
TRADENAME
 70
     0
1001
AcDbAttr
1070
     0
1070
     1
  0
ATTDEF
  5
CBB
  8
DEFPOINTS
 10
83.230947576229298
 20
13.838451186688211
 30
0.0
 40
0.001
  1
KITCHEN SINK 
  3

  2
PRODUCT
 70
     0
1001
AcDbAttr
1070
     0
1070
     1
  0
ATTDEF
  5
CBC
  8
DEFPOINTS
 10
83.230947576229298
 20
13.836784520021549
 30
0.0
 40
0.001
  1
STAINLESS STEEL
  3

  2
MATERIAL
 70
     0
1001
AcDbAttr
1070
     0
1070
     1
  0
ENDSEC
  0
EOF
