  0
SECTION
  2
HEADER
  9
$ACADVER
  1
AC1009
  9
$INSBASE
 10
404.79322518139372
 20
61.164255636012342
 30
0.0
  9
$EXTMIN
 10
393.44751821662447
 20
61.157547580939678
 30
0.0
  9
$EXTMAX
 10
416.1389321461628
 20
95.697088847111615
 30
0.0
  9
$LIMMIN
 10
0.0
 20
0.0
  9
$LIMMAX
 10
11.692913385800001
 20
8.2677165353999982
  9
$ORTHOMODE
 70
     1
  9
$REGENMODE
 70
     1
  9
$FILLMODE
 70
     1
  9
$QTEXTMODE
 70
     0
  9
$MIRRTEXT
 70
     0
  9
$DRAGMODE
 70
     2
  9
$LTSCALE
 40
0.6431102362
  9
$OSMODE
 70
  3071
  9
$ATTMODE
 70
     1
  9
$TEXTSIZE
 40
0.2
  9
$TRACEWID
 40
0.05
  9
$TEXTSTYLE
  7
STANDARD
  9
$CLAYER
  8
0
  9
$CELTYPE
  6
BYLAYER
  9
$CECOLOR
 62
   256
  9
$DIMSCALE
 40
1.0
  9
$DIMASZ
 40
0.1875
  9
$DIMEXO
 40
0.0625
  9
$DIMDLI
 40
0.4443307087
  9
$DIMRND
 40
0.0
  9
$DIMDLE
 40
0.0
  9
$DIMEXE
 40
0.125
  9
$DIMTP
 40
0.01
  9
$DIMTM
 40
0.01
  9
$DIMTXT
 40
2.0
  9
$DIMCEN
 40
0.1052362205
  9
$DIMTSZ
 40
0.0
  9
$DIMTOL
 70
     1
  9
$DIMLIM
 70
     0
  9
$DIMTIH
 70
     1
  9
$DIMTOH
 70
     1
  9
$DIMSE1
 70
     0
  9
$DIMSE2
 70
     0
  9
$DIMTAD
 70
     0
  9
$DIMZIN
 70
     0
  9
$DIMBLK
  1

  9
$DIMASO
 70
     1
  9
$DIMSHO
 70
     1
  9
$DIMPOST
  1
\X
  9
$DIMAPOST
  1

  9
$DIMALT
 70
     1
  9
$DIMALTD
 70
     2
  9
$DIMALTF
 40
25.399999999999999
  9
$DIMLFAC
 40
1.0
  9
$DIMTOFL
 70
     0
  9
$DIMTVP
 40
0.0
  9
$DIMTIX
 70
     0
  9
$DIMSOXD
 70
     0
  9
$DIMSAH
 70
     0
  9
$DIMBLK1
  1

  9
$DIMBLK2
  1

  9
$DIMSTYLE
  2
STANDARD
  9
$DIMCLRD
 70
     0
  9
$DIMCLRE
 70
     0
  9
$DIMCLRT
 70
     0
  9
$DIMTFAC
 40
1.0
  9
$DIMGAP
 40
0.09
  9
$LUNITS
 70
     2
  9
$LUPREC
 70
     4
  9
$SKETCHINC
 40
0.1
  9
$FILLETRAD
 40
0.0
  9
$AUNITS
 70
     0
  9
$AUPREC
 70
     0
  9
$MENU
  1
.
  9
$ELEVATION
 40
0.0
  9
$PELEVATION
 40
0.0
  9
$THICKNESS
 40
0.0
  9
$LIMCHECK
 70
     0
  9
$BLIPMODE
 70
     0
  9
$CHAMFERA
 40
0.0
  9
$CHAMFERB
 40
0.0
  9
$SKPOLY
 70
     0
  9
$TDCREATE
 40
2458060.4683680669
  9
$TDUPDATE
 40
2458618.812247986
  9
$TDINDWG
 40
0.2472849306
  9
$TDUSRTIMER
 40
0.2472849306
  9
$USRTIMER
 70
     1
  9
$ANGBASE
 50
0.0
  9
$ANGDIR
 70
     0
  9
$PDMODE
 70
     0
  9
$PDSIZE
 40
0.3125
  9
$PLINEWID
 40
0.0
  9
$COORDS
 70
     1
  9
$SPLFRAME
 70
     0
  9
$SPLINETYPE
 70
     6
  9
$SPLINESEGS
 70
     8
  9
$ATTDIA
 70
     1
  9
$ATTREQ
 70
     1
  9
$HANDLING
 70
     1
  9
$HANDSEED
  5
43C2
  9
$SURFTAB1
 70
     6
  9
$SURFTAB2
 70
     6
  9
$SURFTYPE
 70
     6
  9
$SURFU
 70
     6
  9
$SURFV
 70
     6
  9
$UCSNAME
  2

  9
$UCSORG
 10
0.0
 20
0.0
 30
0.0
  9
$UCSXDIR
 10
1.0
 20
0.0
 30
0.0
  9
$UCSYDIR
 10
0.0
 20
1.0
 30
0.0
  9
$PUCSNAME
  2

  9
$PUCSORG
 10
0.0
 20
0.0
 30
0.0
  9
$PUCSXDIR
 10
1.0
 20
0.0
 30
0.0
  9
$PUCSYDIR
 10
0.0
 20
1.0
 30
0.0
  9
$USERI1
 70
     0
  9
$USERI2
 70
     0
  9
$USERI3
 70
     0
  9
$USERI4
 70
     0
  9
$USERI5
 70
     0
  9
$USERR1
 40
0.0
  9
$USERR2
 40
0.0
  9
$USERR3
 40
0.0
  9
$USERR4
 40
0.0
  9
$USERR5
 40
0.0
  9
$WORLDVIEW
 70
     1
  9
$SHADEDGE
 70
     3
  9
$SHADEDIF
 70
    70
  9
$TILEMODE
 70
     1
  9
$MAXACTVP
 70
    64
  9
$PLIMCHECK
 70
     0
  9
$PEXTMIN
 10
1.0000000000000000E+020
 20
1.0000000000000000E+020
 30
1.0000000000000000E+020
  9
$PEXTMAX
 10
-1.0000000000000000E+020
 20
-1.0000000000000000E+020
 30
-1.0000000000000000E+020
  9
$PLIMMIN
 10
0.0
 20
0.0
  9
$PLIMMAX
 10
12.0
 20
9.0
  9
$UNITMODE
 70
     0
  9
$VISRETAIN
 70
     1
  9
$PLINEGEN
 70
     0
  9
$PSLTSCALE
 70
     1
  0
ENDSEC
  0
SECTION
  2
TABLES
  0
TABLE
  2
VPORT
 70
     1
  0
VPORT
  2
*ACTIVE
 70
     0
 10
0.0
 20
0.0
 11
1.0
 21
1.0
 12
0.0
 22
0.0
 13
0.0
 23
0.0
 14
1.0
 24
1.0
 15
0.0
 25
0.0
 16
0.0
 26
0.0
 36
116.2142788368641
 17
404.79322518139372
 27
78.427313661426012
 37
0.0
 40
41.340863055668493
 41
2.0984340044742731
 42
50.0
 43
0.0
 44
0.0
 50
0.0
 51
0.0
 71
     0
 72
   100
 73
     1
 74
     1
 75
     0
 76
     0
 77
     0
 78
     0
  0
ENDTAB
  0
TABLE
  2
LTYPE
 70
     2
  0
LTYPE
  2
CONTINUOUS
 70
     0
  3
Solid line
 72
    65
 73
     0
 40
0.0
  0
LTYPE
  2
PHANTOM2
 70
     0
  3
___ _ _ ___ _ _ ___ _ _ ___ _ _
 72
    65
 73
     6
 40
1.25
 49
0.625
 49
-0.125
 49
0.125
 49
-0.125
 49
0.125
 49
-0.125
  0
ENDTAB
  0
TABLE
  2
LAYER
 70
     2
  0
LAYER
  2
0
 70
     0
 62
   255
  6
CONTINUOUS
  0
LAYER
  2
DEFPOINTS
 70
     0
 62
     7
  6
CONTINUOUS
  0
ENDTAB
  0
TABLE
  2
STYLE
 70
     1
  0
STYLE
  2
STANDARD
 70
     0
 40
0.0
 41
0.8
 50
0.0
 71
     0
 42
0.2
  3
txt
  4

  0
ENDTAB
  0
TABLE
  2
VIEW
 70
     0
  0
ENDTAB
  0
TABLE
  2
UCS
 70
     0
  0
ENDTAB
  0
TABLE
  2
APPID
 70
     9
  0
APPID
  2
ACAD
 70
     0
  0
APPID
  2
ACAD_MLEADERVER
 70
     0
  0
APPID
  2
ACAD_EXEMPT_FROM_CAD_STANDARDS
 70
     0
  0
APPID
  2
ACAD_NAV_VCDISPLAY
 70
     0
  0
APPID
  2
ACAECLAYERSTANDARD
 70
     0
  0
APPID
  2
ACCMTRANSPARENCY
 70
     0
  0
APPID
  2
ACAD_DSTYLE_DIMJAG
 70
     0
  0
APPID
  2
ACAD_DSTYLE_DIMTALN
 70
     0
  0
APPID
  2
ACDBATTR
 70
     0
  0
ENDTAB
  0
TABLE
  2
DIMSTYLE
 70
     1
  0
DIMSTYLE
  2
STANDARD
 70
     0
  3

  4

  5

  6

  7

 40
1.0
 41
0.1875
 42
0.0625
 43
0.38
 44
0.125
 45
0.0
 46
0.0
 47
0.01
 48
0.01
140
0.15625
141
0.09
142
0.0
143
25.399999999999999
144
1.0
145
0.0
146
1.0
147
0.09
 71
     1
 72
     0
 73
     1
 74
     1
 75
     0
 76
     0
 77
     0
 78
     4
170
     0
171
     2
172
     0
173
     0
174
     0
175
     0
176
     0
177
     0
178
     0
  0
ENDTAB
  0
ENDSEC
  0
SECTION
  2
BLOCKS
  0
BLOCK
  8
0
  2
$MODEL_SPACE
 70
     0
 10
0.0
 20
0.0
 30
0.0
  3
$MODEL_SPACE
  1

  0
ENDBLK
  5
21
  8
0
  0
BLOCK
 67
     1
  8
0
  2
$PAPER_SPACE
 70
     0
 10
0.0
 20
0.0
 30
0.0
  3
$PAPER_SPACE
  1

  0
ENDBLK
  5
1D
 67
     1
  8
0
  0
ENDSEC
  0
SECTION
  2
ENTITIES
  0
ATTDEF
  5
3930
  8
DEFPOINTS
 10
404.78751089305842
 20
61.162547580939687
 30
0.0
 40
0.001
  1
K-2362-8
  3

  2
MODELNUMBER
 70
     0
1001
ACDBATTR
1070
     0
1070
     1
  0
ATTDEF
  5
3931
  8
DEFPOINTS
 10
404.78751089305842
 20
61.160880914273022
 30
0.0
 40
0.001
  1
CIMARRON
  3

  2
TRADENAME
 70
     0
1001
ACDBATTR
1070
     0
1070
     1
  0
ATTDEF
  5
3932
  8
DEFPOINTS
 10
404.78751089305842
 20
61.15921424760635
 30
0.0
 40
0.001
  1
BATHROOM SINK
  3

  2
PRODUCT
 70
     0
1001
ACDBATTR
1070
     0
1070
     1
  0
ATTDEF
  5
3933
  8
DEFPOINTS
 10
404.78751089305842
 20
61.157547580939692
 30
0.0
 40
0.001
  1
VITREOUS CHINA
  3

  2
MATERIAL
 70
     0
1001
ACDBATTR
1070
     0
1070
     1
  0
LINE
  5
4321
  8
0
 10
399.49897047979368
 20
61.164255636012342
 30
0.0
 11
410.0874798829937
 21
61.164255636012342
 31
0.0
  0
LINE
  5
4322
  8
0
 10
399.89834010289371
 20
88.314255636012334
 30
0.0
 11
409.68811025989368
 21
88.314255636012334
 31
0.0
  0
LINE
  5
4323
  8
0
 10
398.2271061187937
 20
89.914255636012342
 30
0.0
 11
398.2757851022937
 21
89.914255636012342
 31
0.0
  0
ARC
  5
4324
  8
0
 10
399.9155440660968
 20
88.534348748942932
 30
0.0
 40
0.2207644779156499
 50
228.0205054719917
 51
265.53046339333463
  0
ARC
  5
4325
  8
0
 10
399.51893002566487
 20
61.431019268041602
 30
0.0
 40
0.267509287399186
 50
174.72913472213739
 51
265.72104022472149
  0
ARC
  5
4326
  8
0
 10
187.50890685850459
 20
91.987725331987818
 30
0.0
 40
213.9335931238154
 50
351.79485577259618
 51
358.44016337436972
  0
ARC
  5
4327
  8
0
 10
395.89174640218829
 20
86.512442986870866
 30
0.0
 40
5.4825463527810561
 50
356.35879060027582
 51
19.186566444376648
  0
ARC
  5
4328
  8
0
 10
398.22861136556372
 20
90.097761598111504
 30
0.0
 40
0.183512135549073
 50
222.2270176699102
 51
269.53002969583991
  0
ARC
  5
4329
  8
0
 10
377.59816430444039
 20
68.4390115449158
 30
0.0
 40
29.811912227027491
 50
41.956467338603993
 51
46.084030594724581
  0
ARC
  5
432A
  8
0
 10
367.53035178987432
 20
59.550645226203507
 30
0.0
 40
43.123834740231878
 50
44.869798714489313
 51
52.740119106516509
  0
ARC
  5
432B
  8
0
 10
393.76652875185817
 20
94.056095920800971
 30
0.0
 40
0.2233688488021303
 50
187.36543915232701
 51
235.14374244123059
  0
LINE
  5
432C
  8
0
 10
393.54500299279368
 20
94.027460615912332
 30
0.0
 11
393.4480026359937
 21
95.482181062412337
 31
0.0
  0
ARC
  5
432D
  8
0
 10
393.64848090278718
 20
95.496126160948876
 30
0.0
 40
0.2009626861627425
 50
89.45458599679209
 51
183.9790366913241
  0
LINE
  5
432E
  8
0
 10
393.6503938919937
 20
95.697079741912347
 30
0.0
 11
415.93605647079329
 21
95.697079741912347
 31
0.0
  0
LINE
  5
432F
  8
0
 10
415.94758127758939
 20
93.872802025312424
 30
0.0
 11
393.638869085198
 21
93.872802025312396
 31
0.0
  0
LINE
  5
4330
  8
0
 10
411.35934424399358
 20
89.914255636012342
 30
0.0
 11
411.31066526049369
 21
89.914255636012342
 31
0.0
  0
ARC
  5
4331
  8
0
 10
409.67090629669059
 20
88.534348748942932
 30
0.0
 40
0.2207644779156499
 50
274.46953660666537
 51
311.97949452800827
  0
ARC
  5
4332
  8
0
 10
410.0675203371224
 20
61.431019268041602
 30
0.0
 40
0.267509287399186
 50
274.27895977527521
 51
5.270865277862562
  0
ARC
  5
4333
  8
0
 10
622.07754350428274
 20
91.987725331987818
 30
0.0
 40
213.9335931238154
 50
181.55983662563031
 51
188.20514422740371
  0
ARC
  5
4334
  8
0
 10
413.69470396059887
 20
86.512442986870866
 30
0.0
 40
5.4825463527810561
 50
160.81343355562331
 51
183.64120939972409
  0
ARC
  5
4335
  8
0
 10
411.35783899722372
 20
90.097761598111504
 30
0.0
 40
0.183512135549073
 50
270.46997030416009
 51
317.7729823300898
  0
ARC
  5
4336
  8
0
 10
431.98828605834689
 20
68.4390115449158
 30
0.0
 40
29.811912227027491
 50
133.9159694052754
 51
138.04353266139569
  0
ARC
  5
4337
  8
0
 10
442.05609857291302
 20
59.550645226203507
 30
0.0
 40
43.123834740231878
 50
127.2598808934835
 51
135.13020128551059
  0
ARC
  5
4338
  8
0
 10
415.8199216109291
 20
94.056095920800971
 30
0.0
 40
0.2233688488021303
 50
304.85625755876941
 51
352.6345608476729
  0
LINE
  5
4339
  8
0
 10
416.04144736999359
 20
94.027460615912332
 30
0.0
 11
416.13844772679369
 21
95.482181062412337
 31
0.0
  0
ARC
  5
433A
  8
0
 10
415.93796946000009
 20
95.496126160948876
 30
0.0
 40
0.2009626861627425
 50
356.0209633086759
 51
90.545414003207924
  0
ENDSEC
  0
EOF
