  0
SECTION
  2
HEADER
  9
$ACADVER
  1
AC1009
  9
$INSBASE
 10
339.94769396643778
 20
55.106874005379801
 30
0.0
  9
$EXTMIN
 10
331.94769389273779
 20
49.992297121379771
 30
0.0
  9
$EXTMAX
 10
347.94769404013778
 20
55.121299295481514
 30
0.0
  9
$LIMMIN
 10
0.0
 20
0.0
  9
$LIMMAX
 10
11.692913385800001
 20
8.2677165353999982
  9
$ORTHOMODE
 70
     1
  9
$REGENMODE
 70
     1
  9
$FILLMODE
 70
     1
  9
$QTEXTMODE
 70
     0
  9
$MIRRTEXT
 70
     0
  9
$DRAGMODE
 70
     2
  9
$LTSCALE
 40
0.6431102362
  9
$OSMODE
 70
  3071
  9
$ATTMODE
 70
     1
  9
$TEXTSIZE
 40
0.2
  9
$TRACEWID
 40
0.05
  9
$TEXTSTYLE
  7
STANDARD
  9
$CLAYER
  8
0
  9
$CELTYPE
  6
BYLAYER
  9
$CECOLOR
 62
   256
  9
$DIMSCALE
 40
1.0
  9
$DIMASZ
 40
0.1875
  9
$DIMEXO
 40
0.0625
  9
$DIMDLI
 40
0.4443307087
  9
$DIMRND
 40
0.0
  9
$DIMDLE
 40
0.0
  9
$DIMEXE
 40
0.125
  9
$DIMTP
 40
0.01
  9
$DIMTM
 40
0.01
  9
$DIMTXT
 40
2.0
  9
$DIMCEN
 40
0.1052362205
  9
$DIMTSZ
 40
0.0
  9
$DIMTOL
 70
     1
  9
$DIMLIM
 70
     0
  9
$DIMTIH
 70
     1
  9
$DIMTOH
 70
     1
  9
$DIMSE1
 70
     0
  9
$DIMSE2
 70
     0
  9
$DIMTAD
 70
     0
  9
$DIMZIN
 70
     0
  9
$DIMBLK
  1

  9
$DIMASO
 70
     1
  9
$DIMSHO
 70
     1
  9
$DIMPOST
  1
\X
  9
$DIMAPOST
  1

  9
$DIMALT
 70
     1
  9
$DIMALTD
 70
     2
  9
$DIMALTF
 40
25.399999999999999
  9
$DIMLFAC
 40
1.0
  9
$DIMTOFL
 70
     0
  9
$DIMTVP
 40
0.0
  9
$DIMTIX
 70
     0
  9
$DIMSOXD
 70
     0
  9
$DIMSAH
 70
     0
  9
$DIMBLK1
  1

  9
$DIMBLK2
  1

  9
$DIMSTYLE
  2
STANDARD
  9
$DIMCLRD
 70
     0
  9
$DIMCLRE
 70
     0
  9
$DIMCLRT
 70
     0
  9
$DIMTFAC
 40
1.0
  9
$DIMGAP
 40
0.09
  9
$LUNITS
 70
     2
  9
$LUPREC
 70
     4
  9
$SKETCHINC
 40
0.1
  9
$FILLETRAD
 40
0.0
  9
$AUNITS
 70
     0
  9
$AUPREC
 70
     0
  9
$MENU
  1
.
  9
$ELEVATION
 40
0.0
  9
$PELEVATION
 40
0.0
  9
$THICKNESS
 40
0.0
  9
$LIMCHECK
 70
     0
  9
$BLIPMODE
 70
     0
  9
$CHAMFERA
 40
0.0
  9
$CHAMFERB
 40
0.0
  9
$SKPOLY
 70
     0
  9
$TDCREATE
 40
2458060.4683680669
  9
$TDUPDATE
 40
2458540.796411192
  9
$TDINDWG
 40
0.2515821296
  9
$TDUSRTIMER
 40
0.2515821296
  9
$USRTIMER
 70
     1
  9
$ANGBASE
 50
0.0
  9
$ANGDIR
 70
     0
  9
$PDMODE
 70
     0
  9
$PDSIZE
 40
0.3125
  9
$PLINEWID
 40
0.0
  9
$COORDS
 70
     1
  9
$SPLFRAME
 70
     0
  9
$SPLINETYPE
 70
     6
  9
$SPLINESEGS
 70
     8
  9
$ATTDIA
 70
     1
  9
$ATTREQ
 70
     1
  9
$HANDLING
 70
     1
  9
$HANDSEED
  5
5278
  9
$SURFTAB1
 70
     6
  9
$SURFTAB2
 70
     6
  9
$SURFTYPE
 70
     6
  9
$SURFU
 70
     6
  9
$SURFV
 70
     6
  9
$UCSNAME
  2

  9
$UCSORG
 10
0.0
 20
0.0
 30
0.0
  9
$UCSXDIR
 10
1.0
 20
0.0
 30
0.0
  9
$UCSYDIR
 10
0.0
 20
1.0
 30
0.0
  9
$PUCSNAME
  2

  9
$PUCSORG
 10
0.0
 20
0.0
 30
0.0
  9
$PUCSXDIR
 10
1.0
 20
0.0
 30
0.0
  9
$PUCSYDIR
 10
0.0
 20
1.0
 30
0.0
  9
$USERI1
 70
     0
  9
$USERI2
 70
     0
  9
$USERI3
 70
     0
  9
$USERI4
 70
     0
  9
$USERI5
 70
     0
  9
$USERR1
 40
0.0
  9
$USERR2
 40
0.0
  9
$USERR3
 40
0.0
  9
$USERR4
 40
0.0
  9
$USERR5
 40
0.0
  9
$WORLDVIEW
 70
     1
  9
$SHADEDGE
 70
     3
  9
$SHADEDIF
 70
    70
  9
$TILEMODE
 70
     1
  9
$MAXACTVP
 70
    64
  9
$PLIMCHECK
 70
     0
  9
$PEXTMIN
 10
1.0000000000000000E+020
 20
1.0000000000000000E+020
 30
1.0000000000000000E+020
  9
$PEXTMAX
 10
-1.0000000000000000E+020
 20
-1.0000000000000000E+020
 30
-1.0000000000000000E+020
  9
$PLIMMIN
 10
0.0
 20
0.0
  9
$PLIMMAX
 10
12.0
 20
9.0
  9
$UNITMODE
 70
     0
  9
$VISRETAIN
 70
     1
  9
$PLINEGEN
 70
     0
  9
$PSLTSCALE
 70
     1
  0
ENDSEC
  0
SECTION
  2
TABLES
  0
TABLE
  2
VPORT
 70
     1
  0
VPORT
  2
*ACTIVE
 70
     0
 10
0.0
 20
0.0
 11
1.0
 21
1.0
 12
0.0
 22
0.0
 13
0.0
 23
0.0
 14
1.0
 24
1.0
 15
0.0
 25
0.0
 16
0.0
 26
0.0
 36
47.50297509251525
 17
339.94769396643778
 27
52.556798208430628
 37
0.0
 40
16.80868854473459
 41
2.112723214285714
 42
50.0
 43
0.0
 44
0.0
 50
0.0
 51
0.0
 71
     0
 72
   100
 73
     1
 74
     1
 75
     0
 76
     0
 77
     0
 78
     0
  0
ENDTAB
  0
TABLE
  2
LTYPE
 70
     2
  0
LTYPE
  2
CONTINUOUS
 70
     0
  3
Solid line
 72
    65
 73
     0
 40
0.0
  0
LTYPE
  2
PHANTOM2
 70
     0
  3
___ _ _ ___ _ _ ___ _ _ ___ _ _
 72
    65
 73
     6
 40
1.25
 49
0.625
 49
-0.125
 49
0.125
 49
-0.125
 49
0.125
 49
-0.125
  0
ENDTAB
  0
TABLE
  2
LAYER
 70
     2
  0
LAYER
  2
0
 70
     0
 62
   255
  6
CONTINUOUS
  0
LAYER
  2
DEFPOINTS
 70
     0
 62
     7
  6
CONTINUOUS
  0
ENDTAB
  0
TABLE
  2
STYLE
 70
     1
  0
STYLE
  2
STANDARD
 70
     0
 40
0.0
 41
0.8
 50
0.0
 71
     0
 42
0.2
  3
txt
  4

  0
ENDTAB
  0
TABLE
  2
VIEW
 70
     0
  0
ENDTAB
  0
TABLE
  2
UCS
 70
     0
  0
ENDTAB
  0
TABLE
  2
APPID
 70
     9
  0
APPID
  2
ACAD
 70
     0
  0
APPID
  2
ACAD_MLEADERVER
 70
     0
  0
APPID
  2
ACAD_EXEMPT_FROM_CAD_STANDARDS
 70
     0
  0
APPID
  2
ACAD_NAV_VCDISPLAY
 70
     0
  0
APPID
  2
ACAECLAYERSTANDARD
 70
     0
  0
APPID
  2
ACCMTRANSPARENCY
 70
     0
  0
APPID
  2
ACAD_DSTYLE_DIMJAG
 70
     0
  0
APPID
  2
ACAD_DSTYLE_DIMTALN
 70
     0
  0
APPID
  2
ACDBATTR
 70
     0
  0
ENDTAB
  0
TABLE
  2
DIMSTYLE
 70
     1
  0
DIMSTYLE
  2
STANDARD
 70
     0
  3

  4

  5

  6

  7

 40
1.0
 41
0.1875
 42
0.0625
 43
0.38
 44
0.125
 45
0.0
 46
0.0
 47
0.01
 48
0.01
140
0.15625
141
0.09
142
0.0
143
25.399999999999999
144
1.0
145
0.0
146
1.0
147
0.09
 71
     1
 72
     0
 73
     1
 74
     1
 75
     0
 76
     0
 77
     0
 78
     4
170
     0
171
     2
172
     0
173
     0
174
     0
175
     0
176
     0
177
     0
178
     0
  0
ENDTAB
  0
ENDSEC
  0
SECTION
  2
BLOCKS
  0
BLOCK
  8
0
  2
$MODEL_SPACE
 70
     0
 10
0.0
 20
0.0
 30
0.0
  3
$MODEL_SPACE
  1

  0
ENDBLK
  5
21
  8
0
  0
BLOCK
 67
     1
  8
0
  2
$PAPER_SPACE
 70
     0
 10
0.0
 20
0.0
 30
0.0
  3
$PAPER_SPACE
  1

  0
ENDBLK
  5
1D
 67
     1
  8
0
  0
ENDSEC
  0
SECTION
  2
ENTITIES
  0
ATTDEF
  5
3930
  8
DEFPOINTS
 10
339.94430902065898
 20
55.120299295481509
 30
0.0
 40
0.001
  1
K-2361
  3

  2
MODELNUMBER
 70
     0
1001
ACDBATTR
1070
     0
1070
     1
  0
ATTDEF
  5
3931
  8
DEFPOINTS
 10
339.94430902065898
 20
55.118632628814836
 30
0.0
 40
0.001
  1
KALLOS
  3

  2
TRADENAME
 70
     0
1001
ACDBATTR
1070
     0
1070
     1
  0
ATTDEF
  5
3932
  8
DEFPOINTS
 10
339.94430902065898
 20
55.116965962148178
 30
0.0
 40
0.001
  1
BATHROOM SINK
  3

  2
PRODUCT
 70
     0
1001
ACDBATTR
1070
     0
1070
     1
  0
ATTDEF
  5
3933
  8
DEFPOINTS
 10
339.94430902065898
 20
55.115299295481513
 30
0.0
 40
0.001
  1
GLASS
  3

  2
MATERIAL
 70
     0
1001
ACDBATTR
1070
     0
1070
     1
  0
LINE
  5
4F3B
  8
0
 10
331.94769389273779
 20
55.106874005379801
 30
0.0
 11
331.97455330733783
 21
54.723155497279798
 31
0.0
  0
LINE
  5
4F3C
  8
0
 10
338.77082507333779
 20
49.992297121379799
 30
0.0
 11
341.12456285953778
 21
49.992297121379799
 31
0.0
  0
LINE
  5
4F3D
  8
0
 10
332.09924433493779
 20
54.606874005379801
 30
0.0
 11
347.79614359793783
 21
54.606874005379801
 31
0.0
  0
LINE
  5
4F3E
  8
0
 10
347.94769404013778
 20
55.106874005379801
 30
0.0
 11
331.94769389273779
 21
55.106874005379801
 31
0.0
  0
ARC
  5
4F3F
  8
0
 10
307.71551193943782
 20
75.886514641779797
 30
0.0
 40
41.644731390399997
 50
328.49469083029999
 51
328.94467386310072
  0
ARC
  5
4F40
  8
0
 10
324.38749097523782
 20
67.212885065879789
 30
0.0
 40
23.809606447
 50
326.65116821199962
 51
327.45273800879983
  0
ARC
  5
4F41
  8
0
 10
340.13045514323778
 20
56.745089129779799
 30
0.0
 40
6.971637360499999
 50
199.62625643929951
 51
202.08472760710001
  0
ARC
  5
4F42
  8
0
 10
340.4036072559378
 20
55.933540801579788
 30
0.0
 40
6.4606329585999989
 50
193.69984939429989
 51
196.2662251593996
  0
ARC
  5
4F43
  8
0
 10
341.26952353103781
 20
55.176121089379798
 30
0.0
 40
6.4034349672999991
 50
186.93064215210009
 51
189.45770496509999
  0
ARC
  5
4F44
  8
0
 10
342.8287184646378
 20
54.366470568279787
 30
0.0
 40
6.936888184699999
 50
179.69470466730019
 51
182.00384128749999
  0
ARC
  5
4F45
  8
0
 10
345.43968236903783
 20
53.2948931165798
 30
0.0
 40
8.4860917614999991
 50
172.49398943169959
 51
174.39374965860009
  0
ARC
  5
4F46
  8
0
 10
349.5928283033378
 20
51.535641391279789
 30
0.0
 40
11.6780093918
 50
165.78436309280031
 51
167.19484259790019
  0
ARC
  5
4F47
  8
0
 10
357.53264199123782
 20
47.848676046079802
 30
0.0
 40
19.1096003999
 50
159.9397205205002
 51
160.8294423029991
  0
ARC
  5
4F48
  8
0
 10
381.64185060703778
 20
35.543941550679797
 30
0.0
 40
44.889895993099998
 50
155.15734627299989
 51
155.54987726329941
  0
ARC
  5
4F49
  8
0
 10
330.92813106453781
 20
63.775564455579797
 30
0.0
 40
17.199930095999999
 50
325.86499056379932
 51
326.98260851179958
  0
ARC
  5
4F4A
  8
0
 10
334.67801925313779
 20
61.631001406379788
 30
0.0
 40
13.4615994985
 50
326.10539425439958
 51
327.52696342189989
  0
ARC
  5
4F4B
  8
0
 10
337.05869461123581
 20
60.045221510382738
 30
0.0
 40
10.98551809821639
 50
327.38368792018542
 51
329.09834787063062
  0
LINE
  5
4F4C
  8
0
 10
342.19195374893781
 20
54.4034329888798
 30
0.0
 11
342.04000085943778
 21
54.123912093579797
 31
0.0
  0
ARC
  5
4F4D
  8
0
 10
332.12246643311141
 20
54.756770655832987
 30
0.0
 40
0.1516847772872154
 50
192.8037279478778
 51
261.1937024726945
  0
ARC
  5
4F4E
  8
0
 10
332.84476018966978
 20
54.221369725040752
 30
0.0
 40
0.385505854992241
 50
28.180322535106122
 51
89.836237391237049
  0
LINE
  5
4F4F
  8
0
 10
333.18457037463781
 20
54.403424119179803
 30
0.0
 11
333.34142297330487
 21
54.123539547079801
 31
0.0
  0
LINE
  5
4F50
  8
0
 10
333.34142297330487
 20
54.123539547079801
 30
0.0
 11
333.64209538449501
 21
53.726989557482632
 31
0.0
  0
LINE
  5
4F51
  8
0
 10
333.64209538449501
 20
53.726989557482632
 30
0.0
 11
333.87772531375361
 21
53.257489960129959
 31
0.0
  0
LINE
  5
4F52
  8
0
 10
333.87772531375361
 20
53.257489960129959
 30
0.0
 11
334.21067833782649
 21
52.94128501456764
 31
0.0
  0
LINE
  5
4F53
  8
0
 10
334.21067833782649
 20
52.94128501456764
 30
0.0
 11
334.44291360079882
 21
52.510524255827349
 31
0.0
  0
LINE
  5
4F54
  8
0
 10
334.44291360079882
 20
52.510524255827349
 30
0.0
 11
334.82776988183781
 21
52.29215886577979
 31
0.0
  0
LINE
  5
4F55
  8
0
 10
334.82776988183781
 20
52.29215886577979
 30
0.0
 11
335.06054877874863
 21
51.887369755296071
 31
0.0
  0
LINE
  5
4F56
  8
0
 10
335.06054877874863
 20
51.887369755296071
 30
0.0
 11
335.47597329783781
 21
51.781413921679793
 31
0.0
  0
LINE
  5
4F57
  8
0
 10
335.47597329783781
 20
51.781413921679793
 30
0.0
 11
335.72604693073828
 21
51.426122744160921
 31
0.0
  0
LINE
  5
4F58
  8
0
 10
335.72604693073828
 20
51.426122744160921
 30
0.0
 11
336.12241055373778
 21
51.396528162479797
 31
0.0
  0
LINE
  5
4F59
  8
0
 10
336.12241055373778
 20
51.396528162479797
 30
0.0
 11
336.3881775878591
 21
51.118007138515047
 31
0.0
  0
LINE
  5
4F5A
  8
0
 10
336.3881775878591
 20
51.118007138515047
 30
0.0
 11
336.73478238493777
 21
51.096323933879802
 31
0.0
  0
LINE
  5
4F5B
  8
0
 10
336.73478238493777
 20
51.096323933879802
 30
0.0
 11
336.98884503393782
 21
50.871828351779797
 31
0.0
  0
LINE
  5
4F5C
  8
0
 10
336.98884503393782
 20
50.871828351779797
 30
0.0
 11
337.29255877048979
 21
50.849748573640078
 31
0.0
  0
LINE
  5
4F5D
  8
0
 10
337.29255877048979
 20
50.849748573640078
 30
0.0
 11
337.52317671446332
 21
50.660606548257341
 31
0.0
  0
LINE
  5
4F5E
  8
0
 10
337.52317671446332
 20
50.660606548257341
 30
0.0
 11
337.78914964203778
 21
50.636696545479801
 31
0.0
  0
LINE
  5
4F5F
  8
0
 10
337.78914964203778
 20
50.636696545479801
 30
0.0
 11
337.97842094981257
 21
50.466216285359721
 31
0.0
  0
LINE
  5
4F60
  8
0
 10
337.97842094981257
 20
50.466216285359721
 30
0.0
 11
338.20130266293779
 21
50.42247363507979
 31
0.0
  0
LINE
  5
4F61
  8
0
 10
338.20130266293779
 20
50.42247363507979
 30
0.0
 11
338.34057541641732
 21
50.254714666483828
 31
0.0
  0
LINE
  5
4F62
  8
0
 10
338.34057541641732
 20
50.254714666483828
 30
0.0
 11
338.5254389243907
 21
50.20004912040099
 31
0.0
  0
LINE
  5
4F63
  8
0
 10
338.5254389243907
 20
50.20004912040099
 30
0.0
 11
338.62014026441238
 21
50.043749523832453
 31
0.0
  0
LINE
  5
4F64
  8
0
 10
338.62014026441238
 20
50.043749523832453
 30
0.0
 11
338.77082507333779
 21
49.992297121379799
 31
0.0
  0
LINE
  5
4F65
  8
0
 10
347.94769404013778
 20
55.106874005379801
 30
0.0
 11
347.92083462553779
 21
54.723155497279798
 31
0.0
  0
ARC
  5
4F66
  8
0
 10
347.77292149976421
 20
54.756770655832987
 30
0.0
 40
0.1516847772872154
 50
278.80629752730562
 51
347.19627205212169
  0
ARC
  5
4F67
  8
0
 10
347.05062774320572
 20
54.221369725040752
 30
0.0
 40
0.385505854992241
 50
90.163762608762937
 51
151.81967746489391
  0
LINE
  5
4F68
  8
0
 10
346.71081755823781
 20
54.403424119179803
 30
0.0
 11
346.55396495957081
 21
54.123539547079801
 31
0.0
  0
LINE
  5
4F69
  8
0
 10
346.55396495957081
 20
54.123539547079801
 30
0.0
 11
346.2532925483805
 21
53.726989557482632
 31
0.0
  0
LINE
  5
4F6A
  8
0
 10
346.2532925483805
 20
53.726989557482632
 30
0.0
 11
346.01766261912201
 21
53.257489960129959
 31
0.0
  0
LINE
  5
4F6B
  8
0
 10
346.01766261912201
 20
53.257489960129959
 30
0.0
 11
345.68470959504913
 21
52.94128501456764
 31
0.0
  0
LINE
  5
4F6C
  8
0
 10
345.68470959504913
 20
52.94128501456764
 30
0.0
 11
345.45247433207692
 21
52.510524255827349
 31
0.0
  0
LINE
  5
4F6D
  8
0
 10
345.45247433207692
 20
52.510524255827349
 30
0.0
 11
345.06761805103781
 21
52.29215886577979
 31
0.0
  0
LINE
  5
4F6E
  8
0
 10
345.06761805103781
 20
52.29215886577979
 30
0.0
 11
344.83483915412688
 21
51.887369755296071
 31
0.0
  0
LINE
  5
4F6F
  8
0
 10
344.83483915412688
 20
51.887369755296071
 30
0.0
 11
344.41941463503781
 21
51.781413921679793
 31
0.0
  0
LINE
  5
4F70
  8
0
 10
344.41941463503781
 20
51.781413921679793
 30
0.0
 11
344.16934100213729
 21
51.426122744160921
 31
0.0
  0
LINE
  5
4F71
  8
0
 10
344.16934100213729
 20
51.426122744160921
 30
0.0
 11
343.77297737913779
 21
51.396528162479797
 31
0.0
  0
LINE
  5
4F72
  8
0
 10
343.77297737913779
 20
51.396528162479797
 30
0.0
 11
343.50721034501652
 21
51.118007138515047
 31
0.0
  0
LINE
  5
4F73
  8
0
 10
343.50721034501652
 20
51.118007138515047
 30
0.0
 11
343.16060554793779
 21
51.096323933879802
 31
0.0
  0
LINE
  5
4F74
  8
0
 10
343.16060554793779
 20
51.096323933879802
 30
0.0
 11
342.9065428989378
 21
50.871828351779797
 31
0.0
  0
LINE
  5
4F75
  8
0
 10
342.9065428989378
 20
50.871828351779797
 30
0.0
 11
342.60282916238577
 21
50.849748573640078
 31
0.0
  0
LINE
  5
4F76
  8
0
 10
342.60282916238577
 20
50.849748573640078
 30
0.0
 11
342.3722112184123
 21
50.660606548257341
 31
0.0
  0
LINE
  5
4F77
  8
0
 10
342.3722112184123
 20
50.660606548257341
 30
0.0
 11
342.10623829083778
 21
50.636696545479801
 31
0.0
  0
LINE
  5
4F78
  8
0
 10
342.10623829083778
 20
50.636696545479801
 30
0.0
 11
341.91696698306288
 21
50.466216285359721
 31
0.0
  0
LINE
  5
4F79
  8
0
 10
341.91696698306288
 20
50.466216285359721
 30
0.0
 11
341.69408526993777
 21
50.42247363507979
 31
0.0
  0
LINE
  5
4F7A
  8
0
 10
341.69408526993777
 20
50.42247363507979
 30
0.0
 11
341.55481251645818
 21
50.254714666483828
 31
0.0
  0
LINE
  5
4F7B
  8
0
 10
341.55481251645818
 20
50.254714666483828
 30
0.0
 11
341.36994900848481
 21
50.20004912040099
 31
0.0
  0
LINE
  5
4F7C
  8
0
 10
341.36994900848481
 20
50.20004912040099
 30
0.0
 11
341.27524766846312
 21
50.043749523832453
 31
0.0
  0
LINE
  5
4F7D
  8
0
 10
341.27524766846312
 20
50.043749523832453
 30
0.0
 11
341.12456285953778
 21
49.992297121379799
 31
0.0
  0
LINE
  5
4F7E
  8
0
 10
333.64209538449501
 20
53.726989557482632
 30
0.0
 11
346.2532925483805
 21
53.726989557482632
 31
0.0
  0
LINE
  5
4F7F
  8
0
 10
334.21067833782649
 20
52.94128501456764
 30
0.0
 11
345.68470959504913
 21
52.94128501456764
 31
0.0
  0
LINE
  5
4F80
  8
0
 10
334.82776988183781
 20
52.29215886577979
 30
0.0
 11
345.06761805103781
 21
52.29215886577979
 31
0.0
  0
LINE
  5
4F81
  8
0
 10
335.47597329783781
 20
51.781413921679793
 30
0.0
 11
344.41941463503781
 21
51.781413921679793
 31
0.0
  0
LINE
  5
4F82
  8
0
 10
336.12241055373778
 20
51.396528162479797
 30
0.0
 11
343.77297737913779
 21
51.396528162479797
 31
0.0
  0
LINE
  5
4F83
  8
0
 10
336.73478238493777
 20
51.096323933879802
 30
0.0
 11
343.16060554793779
 21
51.096323933879802
 31
0.0
  0
LINE
  5
4F84
  8
0
 10
337.29255877048979
 20
50.849748573640078
 30
0.0
 11
342.60282916238577
 21
50.849748573640078
 31
0.0
  0
LINE
  5
4F85
  8
0
 10
337.78914964203778
 20
50.636696545479801
 30
0.0
 11
342.10623829083778
 21
50.636696545479801
 31
0.0
  0
LINE
  5
4F86
  8
0
 10
338.20130266293779
 20
50.42247363507979
 30
0.0
 11
341.69408526993777
 21
50.42247363507979
 31
0.0
  0
LINE
  5
4F87
  8
0
 10
338.5254389243907
 20
50.20004912040099
 30
0.0
 11
341.36994900848481
 21
50.20004912040099
 31
0.0
  0
ARC
  5
4F88
  8
0
 10
333.57570801340762
 20
54.279341968077588
 30
0.0
 40
0.3296279601716427
 50
22.62956082884822
 51
83.535370410734302
  0
ARC
  5
4F89
  8
0
 10
338.96327920169102
 20
55.904934997658067
 30
0.0
 40
5.2996637040901824
 50
196.4275765662361
 51
222.97656209397331
  0
ARC
  5
4F8A
  8
0
 10
337.93373696694363
 20
54.425498039023303
 30
0.0
 40
3.5582957972607638
 50
216.8369297136168
 51
238.20143317397989
  0
ARC
  5
4F8B
  8
0
 10
338.82437869084811
 20
55.054360490391559
 30
0.0
 40
4.3223908218292291
 50
188.6246127323034
 51
229.21862824275041
  0
ARC
  5
4F8C
  8
0
 10
339.85222386705692
 20
56.17827486114205
 30
0.0
 40
5.8449563479632314
 50
228.78554634555621
 51
251.45889250555641
  0
ARC
  5
4F8D
  8
0
 10
335.85735336638152
 20
46.80809210743022
 30
0.0
 40
4.3842705795278221
 50
46.575375685416653
 51
60.839612419450177
  0
ARC
  5
4F8E
  8
0
 10
339.1707815231606
 20
54.404192662160241
 30
0.0
 40
3.7421456259900072
 50
179.9696568519912
 51
233.48751943789219
  0
ARC
  5
4F8F
  8
0
 10
351.10720272931007
 20
72.679363424811243
 30
0.0
 40
25.564611471319282
 50
236.35760979695371
 51
240.529982903058
  0
ARC
  5
4F90
  8
0
 10
337.2751491753703
 20
48.666266455728092
 30
0.0
 40
2.158586151699768
 50
37.901451140931492
 51
54.448322169476789
  0
ARC
  5
4F91
  8
0
 10
340.30891615496142
 20
53.93017719376958
 30
0.0
 40
3.8588468288795119
 50
172.9143925063542
 51
213.8375968520553
  0
ARC
  5
4F92
  8
0
 10
341.3325847049673
 20
55.49954609755634
 30
0.0
 40
5.6309955422460174
 50
221.32256438130571
 51
239.72164786565111
  0
ARC
  5
4F93
  8
0
 10
337.0738018346421
 20
48.577225844304458
 30
0.0
 40
2.501351814682601
 50
34.452485693484178
 51
55.420862573408542
  0
ARC
  5
4F94
  8
0
 10
341.75448961894432
 20
53.34845392956322
 30
0.0
 40
4.2258155214091921
 50
165.50475048337509
 51
201.7665348832171
  0
ARC
  5
4F95
  8
0
 10
341.30311154773659
 20
53.810321830135052
 30
0.0
 40
4.0223403838615619
 50
210.29218140558609
 51
232.0921282706112
  0
ARC
  5
4F96
  8
0
 10
337.1414192324749
 20
48.859128239316611
 30
0.0
 40
2.45299298013953
 50
27.513240286553419
 51
46.439975079677318
  0
ARC
  5
4F97
  8
0
 10
344.29331967383501
 20
52.470539049218551
 30
0.0
 40
5.6980654001027631
 50
160.14137508888939
 51
186.9463668645657
  0
ARC
  5
4F98
  8
0
 10
343.09421095274149
 20
53.22449587749022
 30
0.0
 40
4.6849235478694133
 50
197.94035578185071
 51
216.73347510539239
  0
ARC
  5
4F99
  8
0
 10
336.26336321490521
 20
48.869872163436582
 30
0.0
 40
3.4458295563062951
 50
19.010069657718329
 51
26.780522097714218
  0
ARC
  5
4F9A
  8
0
 10
347.15976591875892
 20
51.079486825192177
 30
0.0
 40
7.6748044458877427
 50
154.31293251580999
 51
177.63247376343341
  0
ARC
  5
4F9B
  8
0
 10
344.53650858505881
 20
51.811416934217299
 30
0.0
 40
5.0620269258690493
 50
184.70129281507479
 51
195.92535625312371
  0
ARC
  5
4F9C
  8
0
 10
331.1302172810453
 20
48.760067416570891
 30
0.0
 40
8.6988704355375521
 50
8.1435668298063195
 51
11.017335354187241
  0
ARC
  5
4F9D
  8
0
 10
362.1229663732019
 20
43.633436003056282
 30
0.0
 40
23.230910383130421
 50
152.37230554362091
 51
159.4674997018289
  0
ARC
  5
4F9E
  8
0
 10
347.28825392677538
 20
49.213119206540149
 30
0.0
 40
7.3816195968822447
 50
159.63917852259041
 51
173.9407702665421
  0
ARC
  5
4F9F
  8
0
 10
193.86102090235531
 20
140.66357432350961
 30
0.0
 40
172.0934836949028
 50
328.90383353835352
 51
329.91898173313052
  0
ARC
  5
4FA0
  8
0
 10
290.24094096161002
 20
85.131322066458168
 30
0.0
 40
60.922786617146713
 50
325.51417298929312
 51
326.81030503278032
  0
ARC
  5
4FA1
  8
0
 10
342.49153155996061
 20
49.432303297535171
 30
0.0
 40
2.363829094182861
 50
149.3688404098022
 51
166.29628457374761
  0
ARC
  5
4FA2
  8
0
 10
323.00688145614021
 20
67.31852966598143
 30
0.0
 40
24.56369035201984
 50
320.76343874566089
 51
328.28674971688707
  0
ARC
  5
4FA3
  8
0
 10
331.28571922212222
 20
61.668939169516072
 30
0.0
 40
14.60327875998823
 50
310.9341228684836
 51
317.38445128422933
  0
ARC
  5
4FA4
  8
0
 10
342.40648468276919
 20
49.095995489079201
 30
0.0
 40
2.1874741851497328
 50
135.2246561244369
 51
155.81132581971309
  0
ARC
  5
4FA5
  8
0
 10
332.23473506420351
 20
62.438822408349878
 30
0.0
 40
14.97820498295108
 50
314.64064642130961
 51
327.56862318681061
  0
ARC
  5
4FA6
  8
0
 10
333.91278473857318
 20
62.10561121586597
 30
0.0
 40
13.59594481518169
 50
302.48265351995019
 51
310.59231604894211
  0
ARC
  5
4FA7
  8
0
 10
342.58792478181908
 20
48.7390509151016
 30
0.0
 40
2.342563875534232
 50
125.89702394026421
 51
147.65682586057241
  0
ARC
  5
4FA8
  8
0
 10
334.89244641565671
 20
61.331102768740827
 30
0.0
 40
12.80281054091172
 50
315.08860182465901
 51
327.25566326056912
  0
ARC
  5
4FA9
  8
0
 10
337.9323327332794
 20
58.674704496230973
 30
0.0
 40
8.7785134269041816
 50
296.95333684550792
 51
313.35913659167738
  0
ARC
  5
4FAA
  8
0
 10
343.1853278427684
 20
47.995320458439352
 30
0.0
 40
3.1258356392110112
 50
114.0524398285642
 51
140.29300856611431
  0
ARC
  5
4FAB
  8
0
 10
337.42749585802159
 20
59.84023616706957
 30
0.0
 40
10.34016220660831
 50
313.11556072108789
 51
328.29609521885942
  0
ARC
  5
4FAC
  8
0
 10
337.78889234617913
 20
60.169779609726241
 30
0.0
 40
10.345282423564919
 50
292.85498399842868
 51
310.40605072234018
  0
ARC
  5
4FAD
  8
0
 10
343.02608122474368
 20
48.025226651831751
 30
0.0
 40
2.8820013943104121
 50
115.0239997261793
 51
136.957844878054
  0
ARC
  5
4FAE
  8
0
 10
334.3044248117522
 20
54.35741438322512
 30
0.0
 40
0.2512178841686738
 50
11.19184441269382
 51
83.217219288929428
  0
ARC
  5
4FAF
  8
0
 10
335.20866547134011
 20
54.393682478509668
 30
0.0
 40
0.2203253699201898
 50
3.25029145999356
 51
75.380046428408136
  0
ARC
  5
4FB0
  8
0
 10
336.2985240168523
 20
54.441087323012447
 30
0.0
 40
0.1843516173525384
 50
349.08328059274999
 51
64.065690635261163
  0
ARC
  5
4FB1
  8
0
 10
337.43420596091562
 20
54.468149000956807
 30
0.0
 40
0.2372211812819764
 50
344.85561848702821
 51
35.788283839085743
  0
ARC
  5
4FB2
  8
0
 10
338.3965075430641
 20
54.60771709892871
 30
0.0
 40
0.5741272869204528
 50
339.44895114734351
 51
359.91586235221791
  0
ARC
  5
4FB3
  8
0
 10
341.4720808229697
 20
53.941665689981932
 30
0.0
 40
1.3135310043483059
 50
149.57383639027711
 51
159.29027259637451
  0
ARC
  5
4FB4
  8
0
 10
341.94009756164633
 20
54.25298906981601
 30
0.0
 40
0.4276216577290285
 50
124.15053674653549
 51
159.00867905186439
  0
ARC
  5
4FB5
  8
0
 10
343.29195578058409
 20
54.071475516615862
 30
0.0
 40
0.6145646582676591
 50
119.40355678300359
 51
147.00188120289641
  0
ARC
  5
4FB6
  8
0
 10
344.28513037564511
 20
54.177769479473312
 30
0.0
 40
0.4452251666482666
 50
105.4652918198601
 51
149.13554118834651
  0
ARC
  5
4FB7
  8
0
 10
345.2267805113346
 20
54.208112081119417
 30
0.0
 40
0.402090424020742
 50
97.377344703922347
 51
150.48959228609311
  0
ARC
  5
4FB8
  8
0
 10
346.01617853228822
 20
54.193804020111337
 30
0.0
 40
0.414003472792594
 50
93.848323158167133
 51
149.13844955841199
  0
ARC
  5
4FB9
  8
0
 10
346.58233359804922
 20
54.188812712791112
 30
0.0
 40
0.4185491698801112
 50
92.766698819068466
 51
148.71321558920519
  0
ARC
  5
4FBA
  8
0
 10
333.83670988535192
 20
54.3031963004698
 30
0.0
 40
0.3069016500145496
 50
19.063050090274029
 51
81.687861826049925
  0
ARC
  5
4FBB
  8
0
 10
334.62840827126593
 20
54.326862859002951
 30
0.0
 40
0.2945954073380277
 50
15.065088197155321
 51
71.895979651936599
  0
ARC
  5
4FBC
  8
0
 10
335.65039375629181
 20
54.390510255959242
 30
0.0
 40
0.2418804506061362
 50
3.062544348223053
 51
63.44517195034998
  0
ARC
  5
4FBD
  8
0
 10
336.75339531759312
 20
54.424546010298528
 30
0.0
 40
0.2737266842852267
 50
355.5762769439105
 51
41.766391154319066
  0
ARC
  5
4FBE
  8
0
 10
338.04169228948189
 20
54.503513899699442
 30
0.0
 40
0.2514972047311815
 50
336.55050618022773
 51
24.266357889578781
  0
ARC
  5
4FBF
  8
0
 10
338.0378281410147
 20
55.018413027743001
 30
0.0
 40
1.6624781883526021
 50
338.2894601042467
 51
345.6676840831546
  0
ARC
  5
4FC0
  8
0
 10
341.4303228679197
 20
54.210860890420392
 30
0.0
 40
0.558715959223461
 50
134.86332781653749
 51
159.8384077089259
  0
ARC
  5
4FC1
  8
0
 10
342.55984097906048
 20
54.250563403953571
 30
0.0
 40
0.3983843923685215
 50
116.5699491129962
 51
157.4354630945555
  0
ARC
  5
4FC2
  8
0
 10
343.73448192786338
 20
54.240963663528937
 30
0.0
 40
0.3797100501848007
 50
105.49425425439679
 51
154.66707408256801
  0
ARC
  5
4FC3
  8
0
 10
344.80551268507401
 20
54.217248836005069
 30
0.0
 40
0.39446601321442
 50
98.985422619975083
 51
151.8364276064315
  0
ARC
  5
4FC4
  8
0
 10
345.70875640651542
 20
54.193809836691507
 30
0.0
 40
0.4151967832324542
 50
95.809689086646941
 51
149.6768370305746
  0
ARC
  5
4FC5
  8
0
 10
346.39634596988878
 20
54.185522624439137
 30
0.0
 40
0.4221210593618248
 50
93.460507442304831
 51
148.92048407539011
  0
LINE
  5
4FC6
  8
0
 10
334.13182092948477
 20
53.726989557482632
 30
0.0
 11
334.20158973126769
 21
54.123911875685579
 31
0.0
  0
LINE
  5
4FC7
  8
0
 10
334.20158973126769
 20
54.123911875685579
 30
0.0
 11
334.7108462887511
 21
53.726989557482632
 31
0.0
  0
LINE
  5
4FC8
  8
0
 10
334.7108462887511
 20
53.726989557482632
 30
0.0
 11
334.9531293737013
 21
54.123911875579807
 31
0.0
  0
LINE
  5
4FC9
  8
0
 10
334.9531293737013
 20
54.123911875579807
 30
0.0
 11
335.4904215080083
 21
53.726989557482632
 31
0.0
  0
LINE
  5
4FCA
  8
0
 10
335.4904215080083
 20
53.726989557482632
 30
0.0
 11
335.89607229110129
 21
54.123911875217019
 31
0.0
  0
LINE
  5
4FCB
  8
0
 10
335.89607229110129
 20
54.123911875217019
 30
0.0
 11
336.45542246310032
 21
53.726989557482632
 31
0.0
  0
LINE
  5
4FCC
  8
0
 10
336.45542246310032
 20
53.726989557482632
 30
0.0
 11
336.99418171583812
 21
54.123911874751776
 31
0.0
  0
LINE
  5
4FCD
  8
0
 10
336.99418171583812
 20
54.123911874751776
 30
0.0
 11
337.54566227639651
 21
53.726989557482632
 31
0.0
  0
LINE
  5
4FCE
  8
0
 10
337.54566227639651
 20
53.726989557482632
 30
0.0
 11
338.20525791888258
 21
54.123911874449803
 31
0.0
  0
LINE
  5
4FCF
  8
0
 10
338.20525791888258
 20
54.123911874449803
 30
0.0
 11
338.7355070263871
 21
53.726989557482632
 31
0.0
  0
LINE
  5
4FD0
  8
0
 10
338.7355070263871
 20
53.726989557482632
 30
0.0
 11
339.48275992107727
 21
54.123911874091263
 31
0.0
  0
LINE
  5
4FD1
  8
0
 10
339.48275992107727
 20
54.123911874091263
 30
0.0
 11
339.9560618323091
 21
53.726989557482632
 31
0.0
  0
LINE
  5
4FD2
  8
0
 10
339.9560618323091
 20
53.726989557482632
 30
0.0
 11
340.77759403643381
 21
54.123911873669748
 31
0.0
  0
LINE
  5
4FD3
  8
0
 10
340.77759403643381
 20
54.123911873669748
 30
0.0
 11
341.19940611513471
 21
53.726989557482632
 31
0.0
  0
LINE
  5
4FD4
  8
0
 10
341.19940611513471
 20
53.726989557482632
 30
0.0
 11
342.04000085943778
 21
54.123912093579797
 31
0.0
  0
LINE
  5
4FD5
  8
0
 10
342.04000085943778
 20
54.123912093579797
 30
0.0
 11
342.38104433174738
 21
53.726989557482632
 31
0.0
  0
LINE
  5
4FD6
  8
0
 10
342.38104433174738
 20
53.726989557482632
 30
0.0
 11
343.22146613208639
 21
54.12391209869908
 31
0.0
  0
LINE
  5
4FD7
  8
0
 10
343.22146613208639
 20
54.12391209869908
 30
0.0
 11
343.46769574074239
 21
53.726989557482632
 31
0.0
  0
LINE
  5
4FD8
  8
0
 10
343.46769574074239
 20
53.726989557482632
 30
0.0
 11
344.2765871290062
 21
54.123912098256362
 31
0.0
  0
LINE
  5
4FD9
  8
0
 10
344.2765871290062
 20
54.123912098256362
 30
0.0
 11
344.41876530422883
 21
53.726989557482632
 31
0.0
  0
LINE
  5
4FDA
  8
0
 10
344.41876530422883
 20
53.726989557482632
 30
0.0
 11
345.16481614489538
 21
54.123912098081199
 31
0.0
  0
LINE
  5
4FDB
  8
0
 10
345.16481614489538
 20
54.123912098081199
 30
0.0
 11
345.19241826109641
 21
53.726989557482632
 31
0.0
  0
LINE
  5
4FDC
  8
0
 10
345.19241826109641
 20
53.726989557482632
 30
0.0
 11
345.85201903713761
 21
54.123912097920247
 31
0.0
  0
LINE
  5
4FDD
  8
0
 10
345.85201903713761
 20
54.123912097920247
 30
0.0
 11
345.76699046796921
 21
53.726989557482632
 31
0.0
  0
LINE
  5
4FDE
  8
0
 10
334.13182092948477
 20
53.726989557482632
 30
0.0
 11
334.5191870172377
 21
53.257489959879798
 31
0.0
  0
LINE
  5
4FDF
  8
0
 10
334.5191870172377
 20
53.257489959879798
 30
0.0
 11
334.7108462887511
 21
53.726989557482632
 31
0.0
  0
LINE
  5
4FE0
  8
0
 10
334.56973687753168
 20
52.94128501456764
 30
0.0
 11
334.5191870172377
 21
53.257489959879798
 31
0.0
  0
LINE
  5
4FE1
  8
0
 10
334.5191870172377
 20
53.257489959879798
 30
0.0
 11
335.05370574691563
 21
52.94128501456764
 31
0.0
  0
LINE
  5
4FE2
  8
0
 10
334.7108462887511
 20
53.726989557482632
 30
0.0
 11
335.16035044527592
 21
53.257489959788927
 31
0.0
  0
LINE
  5
4FE3
  8
0
 10
335.16035044527592
 20
53.257489959788927
 30
0.0
 11
335.4904215080083
 21
53.726989557482632
 31
0.0
  0
LINE
  5
4FE4
  8
0
 10
335.05370574691563
 20
52.94128501456764
 30
0.0
 11
335.16035044527592
 21
53.257489959788927
 31
0.0
  0
LINE
  5
4FE5
  8
0
 10
335.16035044527592
 20
53.257489959788927
 30
0.0
 11
335.72643033596557
 21
52.94128501456764
 31
0.0
  0
LINE
  5
4FE6
  8
0
 10
335.72643033596557
 20
52.94128501456764
 30
0.0
 11
335.98494824430361
 21
53.25748995987788
 31
0.0
  0
LINE
  5
4FE7
  8
0
 10
335.98494824430361
 20
53.25748995987788
 30
0.0
 11
336.57893075195159
 21
52.94128501456764
 31
0.0
  0
LINE
  5
4FE8
  8
0
 10
335.98494824430361
 20
53.25748995987788
 30
0.0
 11
335.4904215080083
 21
53.726989557482632
 31
0.0
  0
LINE
  5
4FE9
  8
0
 10
335.98494824430361
 20
53.25748995987788
 30
0.0
 11
336.45542246310032
 21
53.726989557482632
 31
0.0
  0
LINE
  5
4FEA
  8
0
 10
336.45542246310032
 20
53.726989557482639
 30
0.0
 11
336.96129158333781
 21
53.257489959879763
 31
0.0
  0
LINE
  5
4FEB
  8
0
 10
336.96129158333781
 20
53.257489959879763
 30
0.0
 11
337.54566227639651
 21
53.726989557482639
 31
0.0
  0
LINE
  5
4FEC
  8
0
 10
336.57893075195159
 20
52.94128501456764
 30
0.0
 11
336.96129158333781
 21
53.257489959879763
 31
0.0
  0
LINE
  5
4FED
  8
0
 10
336.96129158333781
 20
53.257489959879763
 30
0.0
 11
337.54833575874801
 21
52.94128501456764
 31
0.0
  0
LINE
  5
4FEE
  8
0
 10
337.54833575874801
 20
52.94128501456764
 30
0.0
 11
338.0518601354932
 21
53.257489959816091
 31
0.0
  0
LINE
  5
4FEF
  8
0
 10
338.0518601354932
 20
53.257489959816091
 30
0.0
 11
338.61473291831601
 21
52.94128501456764
 31
0.0
  0
LINE
  5
4FF0
  8
0
 10
337.54566227639651
 20
53.726989557482639
 30
0.0
 11
338.0518601354932
 21
53.257489959816091
 31
0.0
  0
LINE
  5
4FF1
  8
0
 10
338.0518601354932
 20
53.257489959816091
 30
0.0
 11
338.7355070263871
 21
53.726989557482632
 31
0.0
  0
LINE
  5
4FF2
  8
0
 10
338.7355070263871
 20
53.726989557482632
 30
0.0
 11
339.21475339801469
 21
53.257470684815608
 31
0.0
  0
LINE
  5
4FF3
  8
0
 10
339.21475339801469
 20
53.257470684815608
 30
0.0
 11
339.9560618323091
 21
53.726989557482632
 31
0.0
  0
LINE
  5
4FF4
  8
0
 10
338.61473291831601
 20
52.94128501456764
 30
0.0
 11
339.21475339801469
 21
53.257470684815608
 31
0.0
  0
LINE
  5
4FF5
  8
0
 10
339.21475339801469
 20
53.257470684815608
 30
0.0
 11
339.7142081300733
 21
52.94128501456764
 31
0.0
  0
LINE
  5
4FF6
  8
0
 10
339.9560618323091
 20
53.726989557482639
 30
0.0
 11
340.4052540919933
 21
53.257489959818493
 31
0.0
  0
LINE
  5
4FF7
  8
0
 10
340.4052540919933
 20
53.257489959818493
 30
0.0
 11
341.19940611513471
 21
53.726989557482632
 31
0.0
  0
LINE
  5
4FF8
  8
0
 10
340.83825016630948
 20
52.94128501456764
 30
0.0
 11
340.4052540919933
 21
53.257489959818493
 31
0.0
  0
LINE
  5
4FF9
  8
0
 10
340.4052540919933
 20
53.257489959818493
 30
0.0
 11
339.7142081300733
 21
52.94128501456764
 31
0.0
  0
LINE
  5
4FFA
  8
0
 10
341.19940611513471
 20
53.726989557482632
 30
0.0
 11
341.57763432131628
 21
53.257502874516788
 31
0.0
  0
LINE
  5
4FFB
  8
0
 10
341.57763432131628
 20
53.257502874516788
 30
0.0
 11
342.38104433174738
 21
53.726989557482618
 31
0.0
  0
LINE
  5
4FFC
  8
0
 10
341.9183310516554
 20
52.94128501456764
 30
0.0
 11
341.57763432131628
 21
53.257502874516788
 31
0.0
  0
LINE
  5
4FFD
  8
0
 10
341.57763432131628
 20
53.257502874516788
 30
0.0
 11
340.83825016630948
 21
52.94128501456764
 31
0.0
  0
LINE
  5
4FFE
  8
0
 10
342.38104433174738
 20
53.726989557482618
 30
0.0
 11
342.68683671643328
 21
53.257506850701233
 31
0.0
  0
LINE
  5
4FFF
  8
0
 10
342.68683671643328
 20
53.257506850701233
 30
0.0
 11
343.46769574074239
 21
53.726989557482632
 31
0.0
  0
LINE
  5
5000
  8
0
 10
342.92345043634629
 20
52.94128501456764
 30
0.0
 11
342.68683671643328
 21
53.257506850701233
 31
0.0
  0
LINE
  5
5001
  8
0
 10
342.68683671643328
 20
53.257506850701233
 30
0.0
 11
341.9183310516554
 21
52.941285014567661
 31
0.0
  0
LINE
  5
5002
  8
0
 10
343.46769574074239
 20
53.726989557482632
 30
0.0
 11
343.69024534827599
 21
53.257500166727922
 31
0.0
  0
LINE
  5
5003
  8
0
 10
343.69024534827599
 20
53.257500166727922
 30
0.0
 11
344.41876530422883
 21
53.726989557482632
 31
0.0
  0
LINE
  5
5004
  8
0
 10
343.81676459123412
 20
52.94128501456764
 30
0.0
 11
343.69024534827599
 21
53.257500166727922
 31
0.0
  0
LINE
  5
5005
  8
0
 10
343.69024534827599
 20
53.257500166727922
 30
0.0
 11
342.92345043634629
 21
52.94128501456764
 31
0.0
  0
LINE
  5
5006
  8
0
 10
344.41876530422883
 20
53.726989557482632
 30
0.0
 11
344.54928541878189
 21
53.257494606266029
 31
0.0
  0
LINE
  5
5007
  8
0
 10
344.54928541878189
 20
53.257494606266029
 30
0.0
 11
345.19241826109641
 21
53.726989557482632
 31
0.0
  0
LINE
  5
5008
  8
0
 10
344.56317109368581
 20
52.94128501456764
 30
0.0
 11
344.54928541878189
 21
53.257494606266029
 31
0.0
  0
LINE
  5
5009
  8
0
 10
344.54928541878189
 20
53.257494606266029
 30
0.0
 11
343.81676459123412
 21
52.94128501456764
 31
0.0
  0
LINE
  5
500A
  8
0
 10
345.19241826109641
 20
53.726989557482618
 30
0.0
 11
345.23094674807948
 21
53.257482770606821
 31
0.0
  0
LINE
  5
500B
  8
0
 10
345.23094674807948
 20
53.257482770606821
 30
0.0
 11
345.76699046796921
 21
53.726989557482632
 31
0.0
  0
LINE
  5
500C
  8
0
 10
345.12966616608179
 20
52.94128501456764
 30
0.0
 11
345.23094674807948
 21
53.257482770606821
 31
0.0
  0
LINE
  5
500D
  8
0
 10
345.23094674807948
 20
53.257482770606821
 30
0.0
 11
344.56317109368581
 21
52.94128501456764
 31
0.0
  0
LINE
  5
500E
  8
0
 10
334.56973687753168
 20
52.94128501456764
 30
0.0
 11
334.9371365484655
 21
52.510524255113779
 31
0.0
  0
LINE
  5
500F
  8
0
 10
334.9371365484655
 20
52.510524255113779
 30
0.0
 11
335.05370574691563
 21
52.94128501456764
 31
0.0
  0
LINE
  5
5010
  8
0
 10
335.0858723366095
 20
52.292158865779811
 30
0.0
 11
334.9371365484655
 21
52.510524255113779
 31
0.0
  0
LINE
  5
5011
  8
0
 10
334.9371365484655
 20
52.510524255113779
 30
0.0
 11
335.49972764124522
 21
52.29215886577979
 31
0.0
  0
LINE
  5
5012
  8
0
 10
335.49972764124522
 20
52.29215886577979
 30
0.0
 11
335.47898332194069
 21
52.510524255165777
 31
0.0
  0
LINE
  5
5013
  8
0
 10
335.47898332194069
 20
52.510524255165777
 30
0.0
 11
336.08161219645427
 21
52.29215886577979
 31
0.0
  0
LINE
  5
5014
  8
0
 10
335.05370574691563
 20
52.94128501456764
 30
0.0
 11
335.47898332194069
 21
52.510524255165777
 31
0.0
  0
LINE
  5
5015
  8
0
 10
335.47898332194069
 20
52.510524255165777
 30
0.0
 11
335.72643033596557
 21
52.94128501456764
 31
0.0
  0
LINE
  5
5016
  8
0
 10
335.72643033596569
 20
52.941285014567647
 30
0.0
 11
336.19201606930108
 21
52.510524255188599
 31
0.0
  0
LINE
  5
5017
  8
0
 10
336.19201606930108
 20
52.510524255188599
 30
0.0
 11
336.57893075195159
 21
52.94128501456764
 31
0.0
  0
LINE
  5
5018
  8
0
 10
336.08161219645427
 20
52.29215886577979
 30
0.0
 11
336.19201606930108
 21
52.510524255188599
 31
0.0
  0
LINE
  5
5019
  8
0
 10
336.19201606930108
 20
52.510524255188599
 30
0.0
 11
336.8149792914902
 21
52.29215886577979
 31
0.0
  0
LINE
  5
501A
  8
0
 10
336.8149792914902
 20
52.29215886577979
 30
0.0
 11
337.06484701994248
 21
52.504828966678303
 31
0.0
  0
LINE
  5
501B
  8
0
 10
337.06484701994248
 20
52.504828966678303
 30
0.0
 11
337.66282033132961
 21
52.29215886577979
 31
0.0
  0
LINE
  5
501C
  8
0
 10
336.57893075195159
 20
52.941285014567647
 30
0.0
 11
337.06484701994248
 21
52.504828966678303
 31
0.0
  0
LINE
  5
501D
  8
0
 10
337.06484701994248
 20
52.504828966678303
 30
0.0
 11
337.54833575874801
 21
52.94128501456764
 31
0.0
  0
LINE
  5
501E
  8
0
 10
337.54833575874801
 20
52.941285014567647
 30
0.0
 11
338.01650813223779
 21
52.510524255179789
 31
0.0
  0
LINE
  5
501F
  8
0
 10
338.01650813223779
 20
52.510524255179789
 30
0.0
 11
338.61473291831601
 21
52.94128501456764
 31
0.0
  0
LINE
  5
5020
  8
0
 10
337.66282033132961
 20
52.29215886577979
 30
0.0
 11
338.01650813223779
 21
52.510524255179789
 31
0.0
  0
LINE
  5
5021
  8
0
 10
338.01650813223779
 20
52.510524255179789
 30
0.0
 11
338.59804708913759
 21
52.29215886577979
 31
0.0
  0
LINE
  5
5022
  8
0
 10
338.59804708913759
 20
52.29215886577979
 30
0.0
 11
339.05784846806569
 21
52.510531209847727
 31
0.0
  0
LINE
  5
5023
  8
0
 10
339.05784846806569
 20
52.510531209847727
 30
0.0
 11
339.58137230239169
 21
52.29215886577979
 31
0.0
  0
LINE
  5
5024
  8
0
 10
338.61473291831601
 20
52.941285014567647
 30
0.0
 11
339.05784846806569
 21
52.510531209847727
 31
0.0
  0
LINE
  5
5025
  8
0
 10
339.05784846806569
 20
52.510531209847727
 30
0.0
 11
339.7142081300733
 21
52.94128501456764
 31
0.0
  0
LINE
  5
5026
  8
0
 10
339.7142081300733
 20
52.94128501456764
 30
0.0
 11
340.13284681192192
 21
52.510529889942489
 31
0.0
  0
LINE
  5
5027
  8
0
 10
340.13284681192192
 20
52.510529889942489
 30
0.0
 11
340.83825016630948
 21
52.94128501456764
 31
0.0
  0
LINE
  5
5028
  8
0
 10
339.58137230239169
 20
52.29215886577979
 30
0.0
 11
340.13284681192192
 21
52.510529889942489
 31
0.0
  0
LINE
  5
5029
  8
0
 10
340.13284681192192
 20
52.510529889942489
 30
0.0
 11
340.56602513341579
 21
52.29215886577979
 31
0.0
  0
LINE
  5
502A
  8
0
 10
340.56602513341579
 20
52.29215886577979
 30
0.0
 11
341.20018635283992
 21
52.51052669243527
 31
0.0
  0
LINE
  5
502B
  8
0
 10
341.20018635283992
 20
52.51052669243527
 30
0.0
 11
341.53180359224649
 21
52.292158865779797
 31
0.0
  0
LINE
  5
502C
  8
0
 10
340.83825016630948
 20
52.94128501456764
 30
0.0
 11
341.20018635283992
 21
52.51052669243527
 31
0.0
  0
LINE
  5
502D
  8
0
 10
341.20018635283992
 20
52.51052669243527
 30
0.0
 11
341.9183310516554
 21
52.941285014567647
 31
0.0
  0
LINE
  5
502E
  8
0
 10
341.9183310516554
 20
52.941285014567697
 30
0.0
 11
342.21884870482802
 21
52.510524255138257
 31
0.0
  0
LINE
  5
502F
  8
0
 10
342.21884870482802
 20
52.510524255138257
 30
0.0
 11
342.92345043634629
 21
52.94128501456764
 31
0.0
  0
LINE
  5
5030
  8
0
 10
341.53180359224649
 20
52.29215886577979
 30
0.0
 11
342.21884870482802
 21
52.510524255138257
 31
0.0
  0
LINE
  5
5031
  8
0
 10
342.21884870482802
 20
52.510524255138257
 30
0.0
 11
342.43837816341318
 21
52.29215886577979
 31
0.0
  0
LINE
  5
5032
  8
0
 10
342.43837816341318
 20
52.29215886577979
 30
0.0
 11
343.14968494766617
 21
52.510527259759442
 31
0.0
  0
LINE
  5
5033
  8
0
 10
343.14968494766617
 20
52.510527259759442
 30
0.0
 11
343.25253173437221
 21
52.29215886577979
 31
0.0
  0
LINE
  5
5034
  8
0
 10
342.92345043634629
 20
52.94128501456764
 30
0.0
 11
343.14968494766617
 21
52.510527259759442
 31
0.0
  0
LINE
  5
5035
  8
0
 10
343.14968494766617
 20
52.510527259759442
 30
0.0
 11
343.81676459123412
 21
52.94128501456764
 31
0.0
  0
LINE
  5
5036
  8
0
 10
343.81676459123412
 20
52.94128501456764
 30
0.0
 11
343.95692698414427
 21
52.510532893435951
 31
0.0
  0
LINE
  5
5037
  8
0
 10
343.95692698414427
 20
52.510532893435951
 30
0.0
 11
344.56317109368581
 21
52.94128501456764
 31
0.0
  0
LINE
  5
5038
  8
0
 10
343.95938916752209
 20
52.29215886577979
 30
0.0
 11
343.95692698414427
 21
52.510532893435951
 31
0.0
  0
LINE
  5
5039
  8
0
 10
343.95692698414427
 20
52.510532893435951
 30
0.0
 11
343.25253173437221
 21
52.29215886577979
 31
0.0
  0
LINE
  5
503A
  8
0
 10
343.95938916752209
 20
52.292158865779797
 30
0.0
 11
344.6095551054056
 21
52.510524255152191
 31
0.0
  0
LINE
  5
503B
  8
0
 10
344.6095551054056
 20
52.510524255152191
 30
0.0
 11
344.49470772075261
 21
52.292158865779797
 31
0.0
  0
LINE
  5
503C
  8
0
 10
344.56317109368581
 20
52.94128501456764
 30
0.0
 11
344.6095551054056
 21
52.510524255152191
 31
0.0
  0
LINE
  5
503D
  8
0
 10
344.6095551054056
 20
52.510524255152191
 30
0.0
 11
345.12966616608179
 21
52.94128501456764
 31
0.0
  0
LINE
  5
503E
  8
0
 10
336.08161219645427
 20
52.29215886577979
 30
0.0
 11
336.50330514413781
 21
51.887369755279799
 31
0.0
  0
LINE
  5
503F
  8
0
 10
336.50330514413781
 20
51.887369755279799
 30
0.0
 11
336.8149792914902
 21
52.29215886577979
 31
0.0
  0
LINE
  5
5040
  8
0
 10
336.50157085994948
 20
51.781413921679793
 30
0.0
 11
336.50330514413781
 21
51.887369755279799
 31
0.0
  0
LINE
  5
5041
  8
0
 10
336.50330514413781
 20
51.887369755279799
 30
0.0
 11
337.10368367520721
 21
51.781413921679821
 31
0.0
  0
LINE
  5
5042
  8
0
 10
337.10368367520732
 20
51.781413921679793
 30
0.0
 11
337.24446003784681
 21
51.88736975521671
 31
0.0
  0
LINE
  5
5043
  8
0
 10
337.24446003784681
 20
51.88736975521671
 30
0.0
 11
337.8299638597378
 21
51.781413921679793
 31
0.0
  0
LINE
  5
5044
  8
0
 10
336.8149792914902
 20
52.29215886577979
 30
0.0
 11
337.24446003784681
 21
51.88736975521671
 31
0.0
  0
LINE
  5
5045
  8
0
 10
337.24446003784681
 20
51.88736975521671
 30
0.0
 11
337.66282033132961
 21
52.29215886577979
 31
0.0
  0
LINE
  5
5046
  8
0
 10
337.66282033132961
 20
52.29215886577979
 30
0.0
 11
338.08895256193682
 21
51.88736975522567
 31
0.0
  0
LINE
  5
5047
  8
0
 10
338.08895256193682
 20
51.88736975522567
 30
0.0
 11
338.59804708913759
 21
52.29215886577979
 31
0.0
  0
LINE
  5
5048
  8
0
 10
338.63707923848898
 20
51.781413921679793
 30
0.0
 11
338.08895256193682
 21
51.88736975522567
 31
0.0
  0
LINE
  5
5049
  8
0
 10
338.08895256193682
 20
51.88736975522567
 30
0.0
 11
337.8299638597378
 21
51.781413921679793
 31
0.0
  0
LINE
  5
504A
  8
0
 10
338.59804708913759
 20
52.29215886577979
 30
0.0
 11
339.00432934233783
 21
51.887369755279799
 31
0.0
  0
LINE
  5
504B
  8
0
 10
339.00432934233783
 20
51.887369755279799
 30
0.0
 11
339.58137230239169
 21
52.29215886577979
 31
0.0
  0
LINE
  5
504C
  8
0
 10
338.63707923848898
 20
51.781413921679793
 30
0.0
 11
339.00432934233783
 21
51.887369755279799
 31
0.0
  0
LINE
  5
504D
  8
0
 10
339.00432934233783
 20
51.887369755279799
 30
0.0
 11
339.51712752394809
 21
51.781413921679793
 31
0.0
  0
LINE
  5
504E
  8
0
 10
339.51712752394809
 20
51.781413921679793
 30
0.0
 11
339.95541296276622
 21
51.887369755293442
 31
0.0
  0
LINE
  5
504F
  8
0
 10
339.95541296276622
 20
51.887369755293442
 30
0.0
 11
340.36783702247948
 21
51.781413921679793
 31
0.0
  0
LINE
  5
5050
  8
0
 10
339.58137230239169
 20
52.29215886577979
 30
0.0
 11
339.95541296276622
 21
51.887369755293442
 31
0.0
  0
LINE
  5
5051
  8
0
 10
339.95541296276622
 20
51.887369755293442
 30
0.0
 11
340.56602513341579
 21
52.29215886577979
 31
0.0
  0
LINE
  5
5052
  8
0
 10
340.56602513341579
 20
52.29215886577979
 30
0.0
 11
340.90565164251461
 21
51.88737289183247
 31
0.0
  0
LINE
  5
5053
  8
0
 10
340.90565164251461
 20
51.88737289183247
 30
0.0
 11
341.53180359224649
 21
52.292158865779783
 31
0.0
  0
LINE
  5
5054
  8
0
 10
341.22495371005112
 20
51.781413921679473
 30
0.0
 11
340.90565164251461
 21
51.88737289183247
 31
0.0
  0
LINE
  5
5055
  8
0
 10
340.90565164251461
 20
51.88737289183247
 30
0.0
 11
340.36783702249971
 21
51.781413921733723
 31
0.0
  0
LINE
  5
5056
  8
0
 10
341.22495371005112
 20
51.781413921679473
 30
0.0
 11
341.81853369262922
 21
51.887371094425767
 31
0.0
  0
LINE
  5
5057
  8
0
 10
341.81853369262922
 20
51.887371094425767
 30
0.0
 11
342.03246733563651
 21
51.78141392167975
 31
0.0
  0
LINE
  5
5058
  8
0
 10
341.53180359224649
 20
52.292158865779811
 30
0.0
 11
341.81853369262922
 21
51.887371094425767
 31
0.0
  0
LINE
  5
5059
  8
0
 10
341.81853369262922
 20
51.887371094425767
 30
0.0
 11
342.43837816341318
 21
52.29215886577979
 31
0.0
  0
LINE
  5
505A
  8
0
 10
342.43837816341318
 20
52.29215886577979
 30
0.0
 11
342.6589739134177
 21
51.887369755220092
 31
0.0
  0
LINE
  5
505B
  8
0
 10
342.6589739134177
 20
51.887369755220092
 30
0.0
 11
343.25253173437221
 21
52.29215886577979
 31
0.0
  0
LINE
  5
505C
  8
0
 10
342.75929058258782
 20
51.781413921679793
 30
0.0
 11
342.6589739134177
 21
51.887369755220092
 31
0.0
  0
LINE
  5
505D
  8
0
 10
342.6589739134177
 20
51.887369755220092
 30
0.0
 11
342.03246733563651
 21
51.781413921679793
 31
0.0
  0
LINE
  5
505E
  8
0
 10
342.75929058258782
 20
51.781413921679793
 30
0.0
 11
343.39467269285723
 21
51.887376261756188
 31
0.0
  0
LINE
  5
505F
  8
0
 10
343.39467269285723
 20
51.887376261756188
 30
0.0
 11
343.36784954781888
 21
51.781413921679793
 31
0.0
  0
LINE
  5
5060
  8
0
 10
343.25253173437221
 20
52.29215886577979
 30
0.0
 11
343.39467269285723
 21
51.887376261756188
 31
0.0
  0
LINE
  5
5061
  8
0
 10
343.39467269285723
 20
51.887376261756188
 30
0.0
 11
343.95938916752198
 21
52.292158865779783
 31
0.0
  0
LINE
  5
5062
  8
0
 10
337.10368367520732
 20
51.781413921679793
 30
0.0
 11
337.53715994954558
 21
51.426122744107737
 31
0.0
  0
LINE
  5
5063
  8
0
 10
337.53715994954558
 20
51.426122744107737
 30
0.0
 11
337.8299638597378
 21
51.781413921679793
 31
0.0
  0
LINE
  5
5064
  8
0
 10
337.47598586385942
 20
51.396528162479797
 30
0.0
 11
337.53715994954558
 21
51.426122744107737
 31
0.0
  0
LINE
  5
5065
  8
0
 10
337.53715994954558
 20
51.426122744107737
 30
0.0
 11
338.0855313554755
 21
51.396528162479797
 31
0.0
  0
LINE
  5
5066
  8
0
 10
338.0855313554755
 20
51.396528162479797
 30
0.0
 11
338.25803190815998
 21
51.426122744131717
 31
0.0
  0
LINE
  5
5067
  8
0
 10
338.25803190815998
 20
51.426122744131717
 30
0.0
 11
338.78062280802237
 21
51.396528162479797
 31
0.0
  0
LINE
  5
5068
  8
0
 10
337.8299638597378
 20
51.781413921679793
 30
0.0
 11
338.25803190815998
 21
51.426122744131717
 31
0.0
  0
LINE
  5
5069
  8
0
 10
338.25803190815998
 20
51.426122744131717
 30
0.0
 11
338.63707923848898
 21
51.781413921679793
 31
0.0
  0
LINE
  5
506A
  8
0
 10
338.63707923848898
 20
51.781413921679793
 30
0.0
 11
339.04328942423132
 21
51.42612274417899
 31
0.0
  0
LINE
  5
506B
  8
0
 10
339.04328942423132
 20
51.42612274417899
 30
0.0
 11
339.51712752394809
 21
51.781413921679793
 31
0.0
  0
LINE
  5
506C
  8
0
 10
338.78062280802237
 20
51.396528162479797
 30
0.0
 11
339.04328942423132
 21
51.42612274417899
 31
0.0
  0
LINE
  5
506D
  8
0
 10
339.04328942423132
 20
51.42612274417899
 30
0.0
 11
339.49151265787418
 21
51.396528162479811
 31
0.0
  0
LINE
  5
506E
  8
0
 10
339.51712752394809
 20
51.781413921679793
 30
0.0
 11
339.86275549204919
 21
51.426122744228977
 31
0.0
  0
LINE
  5
506F
  8
0
 10
339.86275549204919
 20
51.426122744228977
 30
0.0
 11
340.36783702222601
 21
51.781413921679793
 31
0.0
  0
LINE
  5
5070
  8
0
 10
339.49151265787418
 20
51.396528162479797
 30
0.0
 11
339.86275549204919
 21
51.426122744228977
 31
0.0
  0
LINE
  5
5071
  8
0
 10
339.86275549204919
 20
51.426122744228977
 30
0.0
 11
340.23693963763759
 21
51.396528162479797
 31
0.0
  0
LINE
  5
5072
  8
0
 10
340.23693963763759
 20
51.396528162479797
 30
0.0
 11
340.68493836785422
 21
51.426122744188959
 31
0.0
  0
LINE
  5
5073
  8
0
 10
340.68493836785422
 20
51.426122744188959
 30
0.0
 11
340.97110565141247
 21
51.396528162479811
 31
0.0
  0
LINE
  5
5074
  8
0
 10
340.36783702247959
 20
51.781413921679757
 30
0.0
 11
340.68493836785422
 21
51.426122744188959
 31
0.0
  0
LINE
  5
5075
  8
0
 10
340.68493836785422
 20
51.426122744188959
 30
0.0
 11
341.224953710053
 21
51.781413921679793
 31
0.0
  0
LINE
  5
5076
  8
0
 10
341.2249537100501
 20
51.781413921677917
 30
0.0
 11
341.47824226593451
 21
51.426122744100653
 31
0.0
  0
LINE
  5
5077
  8
0
 10
341.47824226593451
 20
51.426122744100653
 30
0.0
 11
342.03246733563628
 21
51.781413921679793
 31
0.0
  0
LINE
  5
5078
  8
0
 10
340.97110565141259
 20
51.396528162479797
 30
0.0
 11
341.47824226593451
 21
51.426122744100653
 31
0.0
  0
LINE
  5
5079
  8
0
 10
341.47824226593451
 20
51.426122744100653
 30
0.0
 11
341.66518561709847
 21
51.396528162479797
 31
0.0
  0
LINE
  5
507A
  8
0
 10
342.03246733563651
 20
51.78141392167975
 30
0.0
 11
342.21218084010178
 21
51.426122744188838
 31
0.0
  0
LINE
  5
507B
  8
0
 10
342.21218084010178
 20
51.426122744188838
 30
0.0
 11
342.75929058258782
 21
51.781413921679793
 31
0.0
  0
LINE
  5
507C
  8
0
 10
341.66518561709847
 20
51.396528162479797
 30
0.0
 11
342.21218084010178
 21
51.426122744188838
 31
0.0
  0
LINE
  5
507D
  8
0
 10
342.21218084010178
 20
51.426122744188838
 30
0.0
 11
342.28925509148098
 21
51.396528162479797
 31
0.0
  0
LINE
  5
507E
  8
0
 10
337.47598586385942
 20
51.396528162479797
 30
0.0
 11
337.8759347235378
 21
51.118007138479797
 31
0.0
  0
LINE
  5
507F
  8
0
 10
337.8759347235378
 20
51.118007138479797
 30
0.0
 11
338.0855313554755
 21
51.396528162479797
 31
0.0
  0
LINE
  5
5080
  8
0
 10
337.82263522184053
 20
51.096323933879802
 30
0.0
 11
337.8759347235378
 21
51.118007138479797
 31
0.0
  0
LINE
  5
5081
  8
0
 10
337.8759347235378
 20
51.118007138479797
 30
0.0
 11
338.33436811275169
 21
51.096323933879802
 31
0.0
  0
LINE
  5
5082
  8
0
 10
338.33436811275169
 20
51.096323933879802
 30
0.0
 11
338.47909876186958
 21
51.11800713854695
 31
0.0
  0
LINE
  5
5083
  8
0
 10
338.47909876186958
 20
51.11800713854695
 30
0.0
 11
338.92055633983801
 21
51.096323933879802
 31
0.0
  0
LINE
  5
5084
  8
0
 10
338.0855313554755
 20
51.396528162479797
 30
0.0
 11
338.47909876186958
 21
51.11800713854695
 31
0.0
  0
LINE
  5
5085
  8
0
 10
338.47909876186958
 20
51.11800713854695
 30
0.0
 11
338.78062280802237
 21
51.396528162479797
 31
0.0
  0
LINE
  5
5086
  8
0
 10
338.92055633983801
 20
51.096323933879802
 30
0.0
 11
339.1381523490378
 21
51.118007138479797
 31
0.0
  0
LINE
  5
5087
  8
0
 10
339.1381523490378
 20
51.118007138479797
 30
0.0
 11
339.52524541105839
 21
51.096323933879802
 31
0.0
  0
LINE
  5
5088
  8
0
 10
338.78062280802237
 20
51.396528162479797
 30
0.0
 11
339.1381523490378
 21
51.118007138479797
 31
0.0
  0
LINE
  5
5089
  8
0
 10
339.1381523490378
 20
51.118007138479797
 30
0.0
 11
339.49151265787418
 21
51.396528162479797
 31
0.0
  0
LINE
  5
508A
  8
0
 10
339.52524541105839
 20
51.096323933879802
 30
0.0
 11
339.82776842540619
 21
51.118007138469792
 31
0.0
  0
LINE
  5
508B
  8
0
 10
339.82776842540619
 20
51.118007138469792
 30
0.0
 11
340.15089812592021
 21
51.096323933879802
 31
0.0
  0
LINE
  5
508C
  8
0
 10
339.49151265787418
 20
51.396528162479797
 30
0.0
 11
339.82776842540619
 21
51.118007138469792
 31
0.0
  0
LINE
  5
508D
  8
0
 10
339.82776842540619
 20
51.118007138469792
 30
0.0
 11
340.23693963763759
 21
51.396528162479797
 31
0.0
  0
LINE
  5
508E
  8
0
 10
340.23693963763759
 20
51.396528162479797
 30
0.0
 11
340.52144531389001
 21
51.118007138469942
 31
0.0
  0
LINE
  5
508F
  8
0
 10
340.52144531389001
 20
51.118007138469942
 30
0.0
 11
340.97110565141259
 21
51.396528162479797
 31
0.0
  0
LINE
  5
5090
  8
0
 10
340.15089812592021
 20
51.096323933879802
 30
0.0
 11
340.52144531389001
 21
51.118007138469942
 31
0.0
  0
LINE
  5
5091
  8
0
 10
340.52144531389001
 20
51.118007138469942
 30
0.0
 11
340.7701882478479
 21
51.096323933879802
 31
0.0
  0
LINE
  5
5092
  8
0
 10
340.7701882478479
 20
51.096323933879802
 30
0.0
 11
341.1925256331424
 21
51.118007138440852
 31
0.0
  0
LINE
  5
5093
  8
0
 10
341.1925256331424
 20
51.118007138440852
 30
0.0
 11
341.35922693399272
 21
51.096323933879802
 31
0.0
  0
LINE
  5
5094
  8
0
 10
340.97110565141247
 20
51.396528162479733
 30
0.0
 11
341.1925256331424
 21
51.118007138440852
 31
0.0
  0
LINE
  5
5095
  8
0
 10
341.1925256331424
 20
51.118007138440852
 30
0.0
 11
341.66518561709847
 21
51.396528162479797
 31
0.0
  0
LINE
  5
5096
  8
0
 10
341.35922693399272
 20
51.096323933879802
 30
0.0
 11
341.81522002478329
 21
51.118007138472763
 31
0.0
  0
LINE
  5
5097
  8
0
 10
341.81522002478329
 20
51.118007138472763
 30
0.0
 11
341.89058574888702
 21
51.096323933879802
 31
0.0
  0
LINE
  5
5098
  8
0
 10
341.66518561709847
 20
51.396528162479797
 30
0.0
 11
341.81522002478329
 21
51.118007138472763
 31
0.0
  0
LINE
  5
5099
  8
0
 10
341.81522002478329
 20
51.118007138472763
 30
0.0
 11
342.28925509148098
 21
51.396528162479797
 31
0.0
  0
LINE
  5
509A
  8
0
 10
337.82263522184053
 20
51.096323933879802
 30
0.0
 11
338.20097171433781
 21
50.871828351779797
 31
0.0
  0
LINE
  5
509B
  8
0
 10
338.20097171433781
 20
50.871828351779797
 30
0.0
 11
338.33436811275169
 21
51.096323933879802
 31
0.0
  0
LINE
  5
509C
  8
0
 10
338.15650319099808
 20
50.849748573640078
 30
0.0
 11
338.20097171433781
 21
50.871828351779797
 31
0.0
  0
LINE
  5
509D
  8
0
 10
338.20097171433781
 20
50.871828351779797
 30
0.0
 11
338.58020351466422
 21
50.849748573640078
 31
0.0
  0
LINE
  5
509E
  8
0
 10
338.58020351466422
 20
50.849748573640078
 30
0.0
 11
338.6993229524378
 21
50.871828351779797
 31
0.0
  0
LINE
  5
509F
  8
0
 10
338.6993229524378
 20
50.871828351779797
 30
0.0
 11
339.05576027305779
 21
50.849748573640078
 31
0.0
  0
LINE
  5
50A0
  8
0
 10
338.33436811275169
 20
51.096323933879802
 30
0.0
 11
338.6993229524378
 21
50.871828351779797
 31
0.0
  0
LINE
  5
50A1
  8
0
 10
338.6993229524378
 20
50.871828351779797
 30
0.0
 11
338.92055633983801
 21
51.096323933879802
 31
0.0
  0
LINE
  5
50A2
  8
0
 10
338.92055633983801
 20
51.096323933879802
 30
0.0
 11
339.24510031214697
 21
50.871828351717483
 31
0.0
  0
LINE
  5
50A3
  8
0
 10
339.24510031214697
 20
50.871828351717483
 30
0.0
 11
339.52524541105839
 21
51.096323933879802
 31
0.0
  0
LINE
  5
50A4
  8
0
 10
339.05576027305779
 20
50.849748573640078
 30
0.0
 11
339.24510031214697
 21
50.871828351717483
 31
0.0
  0
LINE
  5
50A5
  8
0
 10
339.24510031214697
 20
50.871828351717483
 30
0.0
 11
339.56666849080142
 21
50.849748573640078
 31
0.0
  0
LINE
  5
50A6
  8
0
 10
339.56666849080142
 20
50.849748573640078
 30
0.0
 11
339.81732987569092
 21
50.87182835184457
 31
0.0
  0
LINE
  5
50A7
  8
0
 10
339.81732987569092
 20
50.87182835184457
 30
0.0
 11
340.09035477578539
 21
50.849748573640078
 31
0.0
  0
LINE
  5
50A8
  8
0
 10
339.52524541105851
 20
51.096323933879802
 30
0.0
 11
339.81732987569092
 21
50.87182835184457
 31
0.0
  0
LINE
  5
50A9
  8
0
 10
339.81732987569092
 20
50.87182835184457
 30
0.0
 11
340.15089812592021
 21
51.096323933879802
 31
0.0
  0
LINE
  5
50AA
  8
0
 10
340.15089812592021
 20
51.096323933879802
 30
0.0
 11
340.3940210681302
 21
50.871828351829009
 31
0.0
  0
LINE
  5
50AB
  8
0
 10
340.3940210681302
 20
50.871828351829009
 30
0.0
 11
340.77018824784773
 21
51.096323933879802
 31
0.0
  0
LINE
  5
50AC
  8
0
 10
340.09035477578539
 20
50.849748573640078
 30
0.0
 11
340.3940210681302
 21
50.871828351829009
 31
0.0
  0
LINE
  5
50AD
  8
0
 10
340.3940210681302
 20
50.871828351829009
 30
0.0
 11
340.6032249453105
 21
50.849748573640071
 31
0.0
  0
LINE
  5
50AE
  8
0
 10
340.6032249453105
 20
50.849748573640078
 30
0.0
 11
340.95301219423777
 21
50.871828351779797
 31
0.0
  0
LINE
  5
50AF
  8
0
 10
340.95301219423777
 20
50.871828351779797
 30
0.0
 11
341.09392320613631
 21
50.849748573640078
 31
0.0
  0
LINE
  5
50B0
  8
0
 10
340.77018824784773
 20
51.096323933879802
 30
0.0
 11
340.95301219423777
 21
50.871828351779797
 31
0.0
  0
LINE
  5
50B1
  8
0
 10
340.95301219423777
 20
50.871828351779797
 30
0.0
 11
341.35922693399272
 21
51.096323933879802
 31
0.0
  0
LINE
  5
50B2
  8
0
 10
341.35922693399272
 20
51.096323933879802
 30
0.0
 11
341.47282142487393
 21
50.87182835170411
 31
0.0
  0
LINE
  5
50B3
  8
0
 10
341.47282142487393
 20
50.87182835170411
 30
0.0
 11
341.89058574888702
 21
51.096323933879802
 31
0.0
  0
LINE
  5
50B4
  8
0
 10
341.09392320613631
 20
50.849748573640078
 30
0.0
 11
341.47282142487393
 21
50.87182835170411
 31
0.0
  0
LINE
  5
50B5
  8
0
 10
341.47282142487393
 20
50.87182835170411
 30
0.0
 11
341.53874511067119
 21
50.849748573640078
 31
0.0
  0
LINE
  5
50B6
  8
0
 10
338.15650319099808
 20
50.849748573640078
 30
0.0
 11
338.49994172593779
 21
50.6606065481798
 31
0.0
  0
LINE
  5
50B7
  8
0
 10
338.49994172593779
 20
50.6606065481798
 30
0.0
 11
338.58020351466422
 21
50.849748573640078
 31
0.0
  0
LINE
  5
50B8
  8
0
 10
338.49342901521311
 20
50.636696545479801
 30
0.0
 11
338.49994172593779
 21
50.6606065481798
 31
0.0
  0
LINE
  5
50B9
  8
0
 10
338.49994172593779
 20
50.6606065481798
 30
0.0
 11
338.83181134010078
 21
50.636696545482991
 31
0.0
  0
LINE
  5
50BA
  8
0
 10
338.83181134014518
 20
50.636696545479801
 30
0.0
 11
338.90614797017457
 21
50.66060654817295
 31
0.0
  0
LINE
  5
50BB
  8
0
 10
338.90614797017457
 20
50.66060654817295
 30
0.0
 11
339.18885523698037
 21
50.636696545479801
 31
0.0
  0
LINE
  5
50BC
  8
0
 10
338.58020351466422
 20
50.849748573640078
 30
0.0
 11
338.90614797017457
 21
50.66060654817295
 31
0.0
  0
LINE
  5
50BD
  8
0
 10
338.90614797017457
 20
50.66060654817295
 30
0.0
 11
339.05576027305779
 21
50.849748573640078
 31
0.0
  0
LINE
  5
50BE
  8
0
 10
339.05576027305779
 20
50.849748573640078
 30
0.0
 11
339.35183193544998
 21
50.660606548168012
 31
0.0
  0
LINE
  5
50BF
  8
0
 10
339.35183193544998
 20
50.660606548168012
 30
0.0
 11
339.56666849080142
 21
50.849748573640078
 31
0.0
  0
LINE
  5
50C0
  8
0
 10
339.18885523698037
 20
50.636696545479801
 30
0.0
 11
339.35183193544998
 21
50.660606548168012
 31
0.0
  0
LINE
  5
50C1
  8
0
 10
339.35183193544998
 20
50.660606548168012
 30
0.0
 11
339.61267383899877
 21
50.636696545479801
 31
0.0
  0
LINE
  5
50C2
  8
0
 10
339.61267383899877
 20
50.636696545479801
 30
0.0
 11
339.81986623693763
 21
50.660606548179913
 31
0.0
  0
LINE
  5
50C3
  8
0
 10
339.81986623693763
 20
50.660606548179913
 30
0.0
 11
340.04520654096228
 21
50.636696545479801
 31
0.0
  0
LINE
  5
50C4
  8
0
 10
339.56666849080142
 20
50.849748573640078
 30
0.0
 11
339.81986623693763
 21
50.660606548179913
 31
0.0
  0
LINE
  5
50C5
  8
0
 10
339.81986623693763
 20
50.660606548179913
 30
0.0
 11
340.09035477578539
 21
50.849748573640078
 31
0.0
  0
LINE
  5
50C6
  8
0
 10
340.09035477578539
 20
50.849748573640078
 30
0.0
 11
340.29226446884519
 21
50.660606548178933
 31
0.0
  0
LINE
  5
50C7
  8
0
 10
340.29226446884519
 20
50.660606548178933
 30
0.0
 11
340.6032249453105
 21
50.849748573640078
 31
0.0
  0
LINE
  5
50C8
  8
0
 10
340.04520654096228
 20
50.636696545479801
 30
0.0
 11
340.29226446884519
 21
50.660606548178933
 31
0.0
  0
LINE
  5
50C9
  8
0
 10
340.29226446884519
 20
50.660606548178933
 30
0.0
 11
340.45753920726833
 21
50.636696545479751
 31
0.0
  0
LINE
  5
50CA
  8
0
 10
340.45753920726798
 20
50.636696545479801
 30
0.0
 11
340.7508728486377
 21
50.6606065481798
 31
0.0
  0
LINE
  5
50CB
  8
0
 10
340.7508728486377
 20
50.6606065481798
 30
0.0
 11
340.85365385956197
 21
50.636696545479793
 31
0.0
  0
LINE
  5
50CC
  8
0
 10
340.6032249453105
 20
50.849748573640071
 30
0.0
 11
340.7508728486377
 21
50.6606065481798
 31
0.0
  0
LINE
  5
50CD
  8
0
 10
340.7508728486377
 20
50.6606065481798
 30
0.0
 11
341.09392320613631
 21
50.849748573640078
 31
0.0
  0
LINE
  5
50CE
  8
0
 10
341.09392320613631
 20
50.849748573640078
 30
0.0
 11
341.17806720343782
 21
50.6606065481798
 31
0.0
  0
LINE
  5
50CF
  8
0
 10
341.17806720343782
 20
50.6606065481798
 30
0.0
 11
341.53874511067119
 21
50.849748573640078
 31
0.0
  0
LINE
  5
50D0
  8
0
 10
340.85365385956197
 20
50.636696545479801
 30
0.0
 11
341.17806720343782
 21
50.6606065481798
 31
0.0
  0
LINE
  5
50D1
  8
0
 10
341.17806720343782
 20
50.6606065481798
 30
0.0
 11
341.21440864705619
 21
50.636696545482593
 31
0.0
  0
LINE
  5
50D2
  8
0
 10
338.49342901521271
 20
50.636696545480078
 30
0.0
 11
338.7599749371837
 21
50.466214670076418
 31
0.0
  0
LINE
  5
50D3
  8
0
 10
338.7599749371837
 20
50.466214670076418
 30
0.0
 11
338.83181134014518
 21
50.636696545479801
 31
0.0
  0
LINE
  5
50D4
  8
0
 10
338.7625355292945
 20
50.42247363507979
 30
0.0
 11
338.7599749371837
 21
50.466214670076418
 31
0.0
  0
LINE
  5
50D5
  8
0
 10
338.7599749371837
 20
50.466214670076418
 30
0.0
 11
339.0316905712408
 21
50.42247363507979
 31
0.0
  0
LINE
  5
50D6
  8
0
 10
338.83181134010078
 20
50.636696545482991
 30
0.0
 11
339.0882667029403
 21
50.466216285384029
 31
0.0
  0
LINE
  5
50D7
  8
0
 10
339.0882667029403
 20
50.466216285384029
 30
0.0
 11
339.18885523698037
 21
50.636696545479801
 31
0.0
  0
LINE
  5
50D8
  8
0
 10
339.0316905712408
 20
50.42247363507979
 30
0.0
 11
339.0882667029403
 21
50.466216285384029
 31
0.0
  0
LINE
  5
50D9
  8
0
 10
339.0882667029403
 20
50.466216285384029
 30
0.0
 11
339.33958979975972
 21
50.42247363507979
 31
0.0
  0
LINE
  5
50DA
  8
0
 10
339.33958979975972
 20
50.42247363507979
 30
0.0
 11
339.4490361753389
 21
50.466216285381087
 31
0.0
  0
LINE
  5
50DB
  8
0
 10
339.4490361753389
 20
50.466216285381087
 30
0.0
 11
339.66876238070461
 21
50.42247363507979
 31
0.0
  0
LINE
  5
50DC
  8
0
 10
339.18885523698037
 20
50.636696545479801
 30
0.0
 11
339.4490361753389
 21
50.466216285381087
 31
0.0
  0
LINE
  5
50DD
  8
0
 10
339.4490361753389
 20
50.466216285381087
 30
0.0
 11
339.61267383899877
 21
50.636696545479801
 31
0.0
  0
LINE
  5
50DE
  8
0
 10
339.61267383899877
 20
50.636696545479801
 30
0.0
 11
339.8284203070483
 21
50.466216285377918
 31
0.0
  0
LINE
  5
50DF
  8
0
 10
339.8284203070483
 20
50.466216285377918
 30
0.0
 11
340.04520654096228
 21
50.636696545479801
 31
0.0
  0
LINE
  5
50E0
  8
0
 10
339.66876238070779
 20
50.422473635068499
 30
0.0
 11
339.8284203070483
 21
50.466216285377918
 31
0.0
  0
LINE
  5
50E1
  8
0
 10
339.8284203070483
 20
50.466216285377918
 30
0.0
 11
340.00637437962217
 21
50.42247363507979
 31
0.0
  0
LINE
  5
50E2
  8
0
 10
340.00637437962217
 20
50.42247363507979
 30
0.0
 11
340.2118394716631
 21
50.466216285374003
 31
0.0
  0
LINE
  5
50E3
  8
0
 10
340.2118394716631
 20
50.466216285374003
 30
0.0
 11
340.34508084094739
 21
50.42247363507979
 31
0.0
  0
LINE
  5
50E4
  8
0
 10
340.04520654096228
 20
50.636696545479801
 30
0.0
 11
340.2118394716631
 21
50.466216285374003
 31
0.0
  0
LINE
  5
50E5
  8
0
 10
340.2118394716631
 20
50.466216285374003
 30
0.0
 11
340.45753920726798
 21
50.636696545479801
 31
0.0
  0
LINE
  5
50E6
  8
0
 10
340.45753920726798
 20
50.636696545479801
 30
0.0
 11
340.58455929603781
 21
50.466216285379801
 31
0.0
  0
LINE
  5
50E7
  8
0
 10
340.58455929603781
 20
50.466216285379801
 30
0.0
 11
340.85365385956197
 21
50.636696545479801
 31
0.0
  0
LINE
  5
50E8
  8
0
 10
340.34508084094739
 20
50.42247363507979
 30
0.0
 11
340.58455929603781
 21
50.466216285379801
 31
0.0
  0
LINE
  5
50E9
  8
0
 10
340.58455929603781
 20
50.466216285379801
 30
0.0
 11
340.66708851200212
 21
50.42247363507979
 31
0.0
  0
LINE
  5
50EA
  8
0
 10
340.66708851200212
 20
50.42247363507979
 30
0.0
 11
340.93225277224781
 21
50.466215841375693
 31
0.0
  0
LINE
  5
50EB
  8
0
 10
340.93225277224781
 20
50.466215841375693
 30
0.0
 11
340.95890868097189
 21
50.42247363507979
 31
0.0
  0
LINE
  5
50EC
  8
0
 10
340.85365385956197
 20
50.636696545479801
 30
0.0
 11
340.93225277224781
 21
50.466215841375693
 31
0.0
  0
LINE
  5
50ED
  8
0
 10
340.93225277224781
 20
50.466215841375693
 30
0.0
 11
341.21440864705181
 21
50.636696545479793
 31
0.0
  0
LINE
  5
50EE
  8
0
 10
338.7625355292945
 20
50.42247363507979
 30
0.0
 11
338.96855700454603
 21
50.254714666614149
 31
0.0
  0
LINE
  5
50EF
  8
0
 10
338.96855700454603
 20
50.254714666614149
 30
0.0
 11
339.0316905712408
 21
50.42247363507979
 31
0.0
  0
LINE
  5
50F0
  8
0
 10
338.97727379802251
 20
50.20004912040099
 30
0.0
 11
338.96855700454603
 21
50.254714666614149
 31
0.0
  0
LINE
  5
50F1
  8
0
 10
338.96855700454603
 20
50.254714666614149
 30
0.0
 11
339.19546542262867
 21
50.20004912040099
 31
0.0
  0
LINE
  5
50F2
  8
0
 10
339.0316905712408
 20
50.42247363507979
 30
0.0
 11
339.23505551407811
 21
50.254714666547251
 31
0.0
  0
LINE
  5
50F3
  8
0
 10
339.23505551407811
 20
50.254714666547251
 30
0.0
 11
339.33958979975972
 21
50.422473635079783
 31
0.0
  0
LINE
  5
50F4
  8
0
 10
339.19546542262867
 20
50.20004912040099
 30
0.0
 11
339.23505551407811
 21
50.254714666547251
 31
0.0
  0
LINE
  5
50F5
  8
0
 10
339.23505551407811
 20
50.254714666547251
 30
0.0
 11
339.4421004790205
 21
50.20004912040099
 31
0.0
  0
LINE
  5
50F6
  8
0
 10
339.33958979975972
 20
50.42247363507979
 30
0.0
 11
339.52839168993631
 21
50.254714666581229
 31
0.0
  0
LINE
  5
50F7
  8
0
 10
339.52839168993631
 20
50.254714666581229
 30
0.0
 11
339.66876238074911
 21
50.42247363507979
 31
0.0
  0
LINE
  5
50F8
  8
0
 10
339.4421004790205
 20
50.20004912040099
 30
0.0
 11
339.52839168993631
 21
50.254714666581229
 31
0.0
  0
LINE
  5
50F9
  8
0
 10
339.52839168993631
 20
50.254714666581229
 30
0.0
 11
339.7090749874597
 21
50.20004912040099
 31
0.0
  0
LINE
  5
50FA
  8
0
 10
339.7090749874597
 20
50.20004912040099
 30
0.0
 11
339.83729278763678
 21
50.254714666580817
 31
0.0
  0
LINE
  5
50FB
  8
0
 10
339.83729278763678
 20
50.254714666580817
 30
0.0
 11
339.97290860217157
 21
50.20004912040099
 31
0.0
  0
LINE
  5
50FC
  8
0
 10
339.66876238074911
 20
50.42247363507979
 30
0.0
 11
339.83729278763678
 21
50.254714666580817
 31
0.0
  0
LINE
  5
50FD
  8
0
 10
339.83729278763678
 20
50.254714666580817
 30
0.0
 11
340.00637437962217
 21
50.42247363507979
 31
0.0
  0
LINE
  5
50FE
  8
0
 10
340.00637437962217
 20
50.42247363507979
 30
0.0
 11
340.14988780663703
 21
50.254714666580888
 31
0.0
  0
LINE
  5
50FF
  8
0
 10
340.14988780663703
 20
50.254714666580888
 30
0.0
 11
340.34508084094739
 21
50.42247363507979
 31
0.0
  0
LINE
  5
5100
  8
0
 10
339.97290860217157
 20
50.20004912040099
 30
0.0
 11
340.14988780663703
 21
50.254714666580888
 31
0.0
  0
LINE
  5
5101
  8
0
 10
340.14988780663703
 20
50.254714666580888
 30
0.0
 11
340.25585395843183
 21
50.20004912040099
 31
0.0
  0
LINE
  5
5102
  8
0
 10
340.25585395843183
 20
50.20004912040099
 30
0.0
 11
340.4541641010378
 21
50.254714666579801
 31
0.0
  0
LINE
  5
5103
  8
0
 10
340.4541641010378
 20
50.254714666579801
 30
0.0
 11
340.51807029766678
 21
50.20004912040099
 31
0.0
  0
LINE
  5
5104
  8
0
 10
340.34508084094739
 20
50.42247363507979
 30
0.0
 11
340.4541641010378
 21
50.254714666579801
 31
0.0
  0
LINE
  5
5105
  8
0
 10
340.4541641010378
 20
50.254714666579801
 30
0.0
 11
340.66708851200212
 21
50.42247363507979
 31
0.0
  0
LINE
  5
5106
  8
0
 10
340.66708851200212
 20
50.42247363507979
 30
0.0
 11
340.73842839911572
 21
50.254714666607512
 31
0.0
  0
LINE
  5
5107
  8
0
 10
340.73842839911572
 20
50.254714666607512
 30
0.0
 11
340.95890868097189
 21
50.42247363507979
 31
0.0
  0
LINE
  5
5108
  8
0
 10
340.51807029766678
 20
50.20004912040099
 30
0.0
 11
340.73842839911572
 21
50.254714666607512
 31
0.0
  0
LINE
  5
5109
  8
0
 10
340.73842839911572
 20
50.254714666607512
 30
0.0
 11
340.75678039781491
 21
50.20004912040099
 31
0.0
  0
LINE
  5
510A
  8
0
 10
340.75678039781491
 20
50.20004912040099
 30
0.0
 11
340.9917565831729
 21
50.254714666586828
 31
0.0
  0
LINE
  5
510B
  8
0
 10
340.9917565831729
 20
50.254714666586828
 30
0.0
 11
340.96947135587982
 21
50.20004912040099
 31
0.0
  0
LINE
  5
510C
  8
0
 10
340.95890868097189
 20
50.42247363507979
 30
0.0
 11
340.9917565831729
 21
50.254714666586828
 31
0.0
  0
LINE
  5
510D
  8
0
 10
340.9917565831729
 20
50.254714666586828
 30
0.0
 11
341.2156131678762
 21
50.42247363507979
 31
0.0
  0
LINE
  5
510E
  8
0
 10
338.97727379802251
 20
50.20004912040099
 30
0.0
 11
339.13128722824467
 21
50.043749523911423
 31
0.0
  0
LINE
  5
510F
  8
0
 10
339.13128722824467
 20
50.043749523911423
 30
0.0
 11
339.19546542262867
 21
50.20004912040099
 31
0.0
  0
LINE
  5
5110
  8
0
 10
339.13640557303012
 20
49.992297121379799
 30
0.0
 11
339.13128722824467
 21
50.043749523911423
 31
0.0
  0
LINE
  5
5111
  8
0
 10
339.13128722824467
 20
50.043749523911423
 30
0.0
 11
339.31698877752223
 21
49.992297121379799
 31
0.0
  0
LINE
  5
5112
  8
0
 10
339.19546542262867
 20
50.20004912040099
 30
0.0
 11
339.35027610277052
 21
50.043749523944477
 31
0.0
  0
LINE
  5
5113
  8
0
 10
339.35027610277052
 20
50.043749523944477
 30
0.0
 11
339.4421004790205
 21
50.20004912040099
 31
0.0
  0
LINE
  5
5114
  8
0
 10
339.31698877752223
 20
49.992297121379799
 30
0.0
 11
339.35027610277052
 21
50.043749523944477
 31
0.0
  0
LINE
  5
5115
  8
0
 10
339.35027610277052
 20
50.043749523944477
 30
0.0
 11
339.5212618543506
 21
49.992297121379799
 31
0.0
  0
LINE
  5
5116
  8
0
 10
339.5212618543506
 20
49.992297121379799
 30
0.0
 11
339.59167466555698
 21
50.043749523903273
 31
0.0
  0
LINE
  5
5117
  8
0
 10
339.59167466555698
 20
50.043749523903273
 30
0.0
 11
339.74137032862598
 21
49.992297121379799
 31
0.0
  0
LINE
  5
5118
  8
0
 10
339.4421004790205
 20
50.20004912040099
 30
0.0
 11
339.59167466555698
 21
50.043749523903273
 31
0.0
  0
LINE
  5
5119
  8
0
 10
339.59167466555698
 20
50.043749523903273
 30
0.0
 11
339.7090749874597
 21
50.20004912040099
 31
0.0
  0
LINE
  5
511A
  8
0
 10
339.7090749874597
 20
50.20004912040099
 30
0.0
 11
339.84620610551048
 21
50.043749523861109
 31
0.0
  0
LINE
  5
511B
  8
0
 10
339.84620610551048
 20
50.043749523861109
 30
0.0
 11
339.97290860217157
 21
50.20004912040099
 31
0.0
  0
LINE
  5
511C
  8
0
 10
339.74137032862598
 20
49.992297121379799
 30
0.0
 11
339.84620610551048
 21
50.043749523861109
 31
0.0
  0
LINE
  5
511D
  8
0
 10
339.84620610551048
 20
50.043749523861109
 30
0.0
 11
339.9478731702954
 21
49.992297121379799
 31
0.0
  0
LINE
  5
511E
  8
0
 10
339.9478731702954
 20
49.992297121379799
 30
0.0
 11
340.10408881933319
 21
50.043749523897311
 31
0.0
  0
LINE
  5
511F
  8
0
 10
340.10408881933319
 20
50.043749523897311
 30
0.0
 11
340.19499179244917
 21
49.992297121379799
 31
0.0
  0
LINE
  5
5120
  8
0
 10
339.97290860217157
 20
50.20004912040099
 30
0.0
 11
340.10408881933319
 21
50.043749523897311
 31
0.0
  0
LINE
  5
5121
  8
0
 10
340.10408881933319
 20
50.043749523897311
 30
0.0
 11
340.25585395843183
 21
50.20004912040099
 31
0.0
  0
LINE
  5
5122
  8
0
 10
340.25585395843183
 20
50.20004912040099
 30
0.0
 11
340.35541272063779
 21
50.043749523879796
 31
0.0
  0
LINE
  5
5123
  8
0
 10
340.35541272063779
 20
50.043749523879796
 30
0.0
 11
340.51807029766678
 21
50.20004912040099
 31
0.0
  0
LINE
  5
5124
  8
0
 10
340.19499179244917
 20
49.992297121379799
 30
0.0
 11
340.35541272063779
 21
50.043749523879796
 31
0.0
  0
LINE
  5
5125
  8
0
 10
340.35541272063779
 20
50.043749523879796
 30
0.0
 11
340.41106826140958
 21
49.992297121379799
 31
0.0
  0
LINE
  5
5126
  8
0
 10
340.41106826140958
 20
49.992297121379799
 30
0.0
 11
340.59051947013779
 21
50.043749523879796
 31
0.0
  0
LINE
  5
5127
  8
0
 10
340.59051947013779
 20
50.043749523879796
 30
0.0
 11
340.60878874369348
 21
49.992297121379799
 31
0.0
  0
LINE
  5
5128
  8
0
 10
340.51807029766678
 20
50.20004912040099
 30
0.0
 11
340.59051947013779
 21
50.043749523879796
 31
0.0
  0
LINE
  5
5129
  8
0
 10
340.59051947013779
 20
50.043749523879796
 30
0.0
 11
340.75678039781491
 21
50.20004912040099
 31
0.0
  0
LINE
  5
512A
  8
0
 10
340.75678039781491
 20
50.20004912040099
 30
0.0
 11
340.8003740474569
 21
50.043749523937663
 31
0.0
  0
LINE
  5
512B
  8
0
 10
340.8003740474569
 20
50.043749523937663
 30
0.0
 11
340.96947135587982
 21
50.20004912040099
 31
0.0
  0
LINE
  5
512C
  8
0
 10
340.60878874369348
 20
49.992297121379799
 30
0.0
 11
340.8003740474569
 21
50.043749523937663
 31
0.0
  0
LINE
  5
512D
  8
0
 10
340.8003740474569
 20
50.043749523937663
 30
0.0
 11
340.7805549530691
 21
49.992297121379799
 31
0.0
  0
LINE
  5
512E
  8
0
 10
345.76699046796921
 20
53.726989557482632
 30
0.0
 11
346.31178524623778
 21
54.123910710679787
 31
0.0
  0
LINE
  5
512F
  8
0
 10
346.31178524623778
 20
54.123910710679787
 30
0.0
 11
346.11476285415557
 21
53.726989557482632
 31
0.0
  0
LINE
  5
5130
  8
0
 10
346.11476285415557
 20
53.726989557482632
 30
0.0
 11
345.70903558643778
 21
53.257489959879791
 31
0.0
  0
LINE
  5
5131
  8
0
 10
345.70903558643778
 20
53.257489959879791
 30
0.0
 11
345.49960986213779
 21
52.94128501456764
 31
0.0
  0
LINE
  5
5132
  8
0
 10
345.49960986213779
 20
52.94128501456764
 30
0.0
 11
345.08248435454863
 21
52.510524255231658
 31
0.0
  0
LINE
  5
5133
  8
0
 10
345.08248435454863
 20
52.510524255231658
 30
0.0
 11
344.85466010943782
 21
52.29215886537979
 31
0.0
  0
LINE
  5
5134
  8
0
 10
344.85466010943782
 20
52.29215886537979
 30
0.0
 11
344.44387875645691
 21
51.887369755235881
 31
0.0
  0
LINE
  5
5135
  8
0
 10
344.44387875645691
 20
51.887369755235881
 30
0.0
 11
344.19829455138552
 21
51.781413921679793
 31
0.0
  0
LINE
  5
5136
  8
0
 10
344.19829455138552
 20
51.781413921679793
 30
0.0
 11
343.7935370732842
 21
51.426122744144777
 31
0.0
  0
LINE
  5
5137
  8
0
 10
343.7935370732842
 20
51.426122744144777
 30
0.0
 11
343.55979102390211
 21
51.396528458379791
 31
0.0
  0
LINE
  5
5138
  8
0
 10
343.55979102390211
 20
51.396528458379791
 30
0.0
 11
343.16839774563363
 21
51.118007138447219
 31
0.0
  0
LINE
  5
5139
  8
0
 10
343.16839774563363
 20
51.118007138447219
 30
0.0
 11
342.756323403284
 21
51.096323933879802
 31
0.0
  0
LINE
  5
513A
  8
0
 10
345.76699046796921
 20
53.726989557482632
 30
0.0
 11
345.70903558648649
 21
53.257489959936173
 31
0.0
  0
LINE
  5
513B
  8
0
 10
345.70903558648649
 20
53.257489959936173
 30
0.0
 11
345.12966616608179
 21
52.94128501456764
 31
0.0
  0
LINE
  5
513C
  8
0
 10
345.12966616608179
 20
52.94128501456764
 30
0.0
 11
345.08248435497637
 21
52.510524255673417
 31
0.0
  0
LINE
  5
513D
  8
0
 10
345.08248435497637
 20
52.510524255673417
 30
0.0
 11
344.49470772075261
 21
52.292158865779783
 31
0.0
  0
LINE
  5
513E
  8
0
 10
344.49470772075261
 20
52.292158865779783
 30
0.0
 11
344.44387875651643
 21
51.88736975528996
 31
0.0
  0
LINE
  5
513F
  8
0
 10
344.44387875651643
 20
51.88736975528996
 30
0.0
 11
343.84365819688941
 21
51.781413921679793
 31
0.0
  0
LINE
  5
5140
  8
0
 10
343.84365819688941
 20
51.781413921679793
 30
0.0
 11
343.79353707318683
 21
51.426122744132449
 31
0.0
  0
LINE
  5
5141
  8
0
 10
343.79353707318683
 20
51.426122744132449
 30
0.0
 11
343.27207594911158
 21
51.397119465855781
 31
0.0
  0
LINE
  5
5142
  8
0
 10
343.27207594911158
 20
51.397119465855781
 30
0.0
 11
343.16839774563363
 21
51.118007138447219
 31
0.0
  0
LINE
  5
5143
  8
0
 10
340.7805549530691
 20
49.992297121379799
 30
0.0
 11
340.97662666274749
 21
50.051471463082393
 31
0.0
  0
LINE
  5
5144
  8
0
 10
340.97662666274749
 20
50.051471463082393
 30
0.0
 11
340.96947135587982
 21
50.20004912040099
 31
0.0
  0
LINE
  5
5145
  8
0
 10
340.96947135587982
 20
50.20004912040099
 30
0.0
 11
341.20477021694239
 21
50.258779483011018
 31
0.0
  0
LINE
  5
5146
  8
0
 10
341.20477021694239
 20
50.258779483011018
 30
0.0
 11
341.2156131678762
 21
50.422473635079783
 31
0.0
  0
LINE
  5
5147
  8
0
 10
341.2156131678762
 20
50.422473635079783
 30
0.0
 11
341.50159257749141
 21
50.471012088293023
 31
0.0
  0
LINE
  5
5148
  8
0
 10
341.50159257749141
 20
50.471012088293023
 30
0.0
 11
341.51195864166868
 21
50.635525745944989
 31
0.0
  0
LINE
  5
5149
  8
0
 10
341.51195864166868
 20
50.635525745944989
 30
0.0
 11
341.8758770210228
 21
50.666021158938769
 31
0.0
  0
LINE
  5
514A
  8
0
 10
341.8758770210228
 20
50.666021158938769
 30
0.0
 11
341.91132290615582
 21
50.849748573640078
 31
0.0
  0
LINE
  5
514B
  8
0
 10
341.91132290615582
 20
50.849748573640078
 30
0.0
 11
342.318678059744
 21
50.868924282795042
 31
0.0
  0
LINE
  5
514C
  8
0
 10
342.318678059744
 20
50.868924282795042
 30
0.0
 11
342.362958652776
 21
51.096323933879802
 31
0.0
  0
LINE
  5
514D
  8
0
 10
342.362958652776
 20
51.096323933879802
 30
0.0
 11
342.82466321668932
 21
51.132861984615182
 31
0.0
  0
LINE
  5
514E
  8
0
 10
342.82466321668932
 20
51.132861984615182
 30
0.0
 11
342.84053477080408
 21
51.396528162479797
 31
0.0
  0
LINE
  5
514F
  8
0
 10
342.84053477080408
 20
51.396528162479797
 30
0.0
 11
343.39431429620271
 21
51.474717034591251
 31
0.0
  0
LINE
  5
5150
  8
0
 10
343.39431429620271
 20
51.474717034591251
 30
0.0
 11
343.36784954781888
 21
51.781413921679793
 31
0.0
  0
LINE
  5
5151
  8
0
 10
343.36784954781888
 20
51.781413921679793
 30
0.0
 11
343.99732656768708
 21
51.894502397415522
 31
0.0
  0
LINE
  5
5152
  8
0
 10
343.99732656768708
 20
51.894502397415522
 30
0.0
 11
343.95938916752209
 21
52.29215886577979
 31
0.0
  0
LINE
  5
5153
  8
0
 10
340.91976553030491
 20
49.992297121379799
 30
0.0
 11
341.11334865468081
 21
50.043749523772931
 31
0.0
  0
LINE
  5
5154
  8
0
 10
341.11334865468081
 20
50.043749523772931
 30
0.0
 11
341.13502880161701
 21
50.20004912040099
 31
0.0
  0
LINE
  5
5155
  8
0
 10
341.13502880161701
 20
50.20004912040099
 30
0.0
 11
341.36822654716508
 21
50.254714666444052
 31
0.0
  0
LINE
  5
5156
  8
0
 10
341.36822654716508
 20
50.254714666444052
 30
0.0
 11
341.42635032921311
 21
50.42247363507979
 31
0.0
  0
LINE
  5
5157
  8
0
 10
341.42635032921311
 20
50.42247363507979
 30
0.0
 11
341.6994242942169
 21
50.466216285274932
 31
0.0
  0
LINE
  5
5158
  8
0
 10
341.6994242942169
 20
50.466216285274932
 30
0.0
 11
341.80700082075998
 21
50.636696545479779
 31
0.0
  0
LINE
  5
5159
  8
0
 10
341.0805799897858
 20
49.992297121379799
 30
0.0
 11
341.2044412367872
 21
50.043749511081373
 31
0.0
  0
LINE
  5
515A
  8
0
 10
341.2044412367872
 20
50.043749511081373
 30
0.0
 11
341.32435292808788
 21
50.200145911892911
 31
0.0
  0
LINE
  5
515B
  8
0
 10
341.32435292808788
 20
50.200145911892911
 30
0.0
 11
341.47690079762378
 21
50.254714666524023
 31
0.0
  0
LINE
  5
515C
  8
0
 10
341.47690079762378
 20
50.254714666524023
 30
0.0
 11
341.64683064986991
 21
50.422473643428631
 31
0.0
  0
LINE
  5
515D
  8
0
 10
341.64683064986991
 20
50.422473643428631
 30
0.0
 11
341.83026072220309
 21
50.46619260372141
 31
0.0
  0
LINE
  5
515E
  8
0
 10
341.83026072220309
 20
50.46619260372141
 30
0.0
 11
342.05754382468751
 21
50.636696545479801
 31
0.0
  0
LINE
  5
515F
  8
0
 10
342.05754382468751
 20
50.636696545479801
 30
0.0
 11
342.30952381871492
 21
50.665267066062754
 31
0.0
  0
LINE
  5
5160
  8
0
 10
342.30952381871492
 20
50.665267066062754
 30
0.0
 11
342.54900841633872
 21
50.849748573640099
 31
0.0
  0
LINE
  5
5161
  8
0
 10
341.0210721073318
 20
49.992297121379799
 30
0.0
 11
341.11334865512509
 21
50.043749524031611
 31
0.0
  0
LINE
  5
5162
  8
0
 10
341.11334865512509
 20
50.043749524031611
 30
0.0
 11
341.25377729283832
 21
50.200051191439499
 31
0.0
  0
LINE
  5
5163
  8
0
 10
341.25377729283832
 20
50.200051191439499
 30
0.0
 11
341.2044412367872
 21
50.043749511081373
 31
0.0
  0
LINE
  5
5164
  8
0
 10
341.2044412367872
 20
50.043749511081373
 30
0.0
 11
341.0210721073318
 21
49.992297121379799
 31
0.0
  0
LINE
  5
5165
  8
0
 10
341.25377768688469
 20
50.200051297660472
 30
0.0
 11
341.47690079746758
 21
50.25471466649855
 31
0.0
  0
LINE
  5
5166
  8
0
 10
341.47690079746758
 20
50.25471466649855
 30
0.0
 11
341.56228389758849
 21
50.422472720042187
 31
0.0
  0
LINE
  5
5167
  8
0
 10
341.56228389758849
 20
50.422472720042187
 30
0.0
 11
341.36822654716508
 21
50.254714666444038
 31
0.0
  0
LINE
  5
5168
  8
0
 10
341.36822654716508
 20
50.254714666444038
 30
0.0
 11
341.2536743249504
 21
50.199724978621198
 31
0.0
  0
LINE
  5
5169
  8
0
 10
341.56228389758849
 20
50.422472720042187
 30
0.0
 11
341.83026072220309
 21
50.46619260372141
 31
0.0
  0
LINE
  5
516A
  8
0
 10
341.83026072220309
 20
50.46619260372141
 30
0.0
 11
341.95580361780378
 21
50.636729038849012
 31
0.0
  0
LINE
  5
516B
  8
0
 10
341.95580361780378
 20
50.636729038849012
 30
0.0
 11
341.69942429451669
 21
50.466216285750029
 31
0.0
  0
LINE
  5
516C
  8
0
 10
341.69942429451669
 20
50.466216285750029
 30
0.0
 11
341.56228389758849
 21
50.422472720042187
 31
0.0
  0
LINE
  5
516D
  8
0
 10
341.95580361780378
 20
50.636729038849012
 30
0.0
 11
342.1167485404066
 21
50.660606548195133
 31
0.0
  0
LINE
  5
516E
  8
0
 10
342.1167485404066
 20
50.660606548195133
 30
0.0
 11
342.42766025183801
 21
50.84943359799724
 31
0.0
  0
LINE
  5
516F
  8
0
 10
342.42766025183801
 20
50.84943359799724
 30
0.0
 11
342.27660241553838
 21
50.661534302949143
 31
0.0
  0
LINE
  5
5170
  8
0
 10
342.11674854040649
 20
50.660606548195119
 30
0.0
 11
342.27909166354942
 21
50.849748573640078
 31
0.0
  0
LINE
  5
5171
  8
0
 10
342.42766025183801
 20
50.849433597997233
 30
0.0
 11
342.60944528983782
 21
50.871828351779797
 31
0.0
  0
LINE
  5
5172
  8
0
 10
342.60944528983782
 20
50.871828351779797
 30
0.0
 11
342.96236057445878
 21
51.10810205602511
 31
0.0
  0
LINE
  5
5173
  8
0
 10
342.96236057445878
 20
51.10810205602511
 30
0.0
 11
342.7987891951783
 21
50.871828351789297
 31
0.0
  0
LINE
  5
5174
  8
0
 10
342.7987891951783
 20
50.871828351789297
 30
0.0
 11
342.54900841633872
 21
50.849748573640078
 31
0.0
  0
LINE
  5
5175
  8
0
 10
342.60944529000761
 20
50.871828351887139
 30
0.0
 11
342.756323403284
 21
51.096323933879802
 31
0.0
  0
LINE
  5
5176
  8
0
 10
343.55979102390211
 20
51.396528458379791
 30
0.0
 11
343.38996701381819
 21
51.118007138592993
 31
0.0
  0
LINE
  5
5177
  8
0
 10
343.38996701381819
 20
51.118007138592993
 30
0.0
 11
343.16839774563363
 21
51.118007138447219
 31
0.0
  0
LINE
  5
5178
  8
0
 10
343.38996701361577
 20
51.118007138434997
 30
0.0
 11
343.7444957371377
 21
51.396528162479797
 31
0.0
  0
LINE
  5
5179
  8
0
 10
343.7444957371377
 20
51.396528162479797
 30
0.0
 11
344.05451037823491
 21
51.434196359413697
 31
0.0
  0
LINE
  5
517A
  8
0
 10
344.05451037823491
 20
51.434196359413697
 30
0.0
 11
344.3692459638782
 21
51.781402593738939
 31
0.0
  0
LINE
  5
517B
  8
0
 10
344.3692459638782
 20
51.781402593738939
 30
0.0
 11
344.71706273026342
 21
51.887369755342469
 31
0.0
  0
LINE
  5
517C
  8
0
 10
344.71706273026342
 20
51.887369755342469
 30
0.0
 11
345.02560406740002
 21
52.292232544871872
 31
0.0
  0
LINE
  5
517D
  8
0
 10
345.02560406740002
 20
52.292232544871872
 30
0.0
 11
345.3575424146901
 21
52.510524255074252
 31
0.0
  0
LINE
  5
517E
  8
0
 10
345.3575424146901
 20
52.510524255074252
 30
0.0
 11
345.65228687113779
 21
52.941284955579803
 31
0.0
  0
LINE
  5
517F
  8
0
 10
345.65228687113779
 20
52.941284955579803
 30
0.0
 11
345.96517740633777
 21
53.257489959879798
 31
0.0
  0
LINE
  5
5180
  8
0
 10
345.96517740633777
 20
53.257489959879798
 30
0.0
 11
346.11476285415557
 21
53.726989557482632
 31
0.0
  0
LINE
  5
5181
  8
0
 10
346.11476285415557
 20
53.726989557482632
 30
0.0
 11
346.52645012787718
 21
54.123910710498599
 31
0.0
  0
LINE
  5
5182
  8
0
 10
346.52645012787718
 20
54.123910710498599
 30
0.0
 11
346.68306825988049
 21
54.403432987250874
 31
0.0
  0
LINE
  5
5183
  8
0
 10
342.7987891951783
 20
50.871828351789297
 30
0.0
 11
343.10550939479731
 21
51.096264836570043
 31
0.0
  0
LINE
  5
5184
  8
0
 10
343.10550939479731
 20
51.096264836570043
 30
0.0
 11
343.38996701361577
 21
51.118007138434997
 31
0.0
  0
LINE
  5
5185
  8
0
 10
344.19829455138552
 20
51.781413921679793
 30
0.0
 11
344.05451037823491
 21
51.434196359413697
 31
0.0
  0
LINE
  5
5186
  8
0
 10
344.19829455138552
 20
51.781413921679793
 30
0.0
 11
344.71706273023779
 21
51.887369755279799
 31
0.0
  0
LINE
  5
5187
  8
0
 10
344.71706273023779
 20
51.887369755279799
 30
0.0
 11
344.85466010943782
 21
52.29215886537979
 31
0.0
  0
LINE
  5
5188
  8
0
 10
344.85466010943782
 20
52.29215886537979
 30
0.0
 11
345.3575424146901
 21
52.510524255074237
 31
0.0
  0
LINE
  5
5189
  8
0
 10
345.3575424146901
 20
52.510524255074237
 30
0.0
 11
345.49960986213779
 21
52.94128501456764
 31
0.0
  0
LINE
  5
518A
  8
0
 10
345.49960986213779
 20
52.94128501456764
 30
0.0
 11
345.96517740601041
 21
53.257489959445017
 31
0.0
  0
ARC
  5
518B
  8
0
 10
346.85120808485851
 20
54.177282285287689
 30
0.0
 40
0.4305632888131393
 50
93.849794902575738
 51
148.31534234737421
  0
ARC
  5
518C
  8
0
 10
347.04945685623619
 20
54.17728229002531
 30
0.0
 40
0.4305632838446848
 50
93.849794467310346
 51
148.31534250718749
  0
LINE
  5
518D
  8
0
 10
340.95890868097189
 20
50.42247363507979
 30
0.0
 11
341.2673631083145
 21
50.463570794356052
 31
0.0
  0
LINE
  5
518E
  8
0
 10
341.2673631083145
 20
50.463570794356052
 30
0.0
 11
341.2144086470604
 21
50.636696545479801
 31
0.0
  0
LINE
  5
518F
  8
0
 10
341.21440864705181
 20
50.636696545479793
 30
0.0
 11
341.55600855488512
 21
50.662934954856198
 31
0.0
  0
LINE
  5
5190
  8
0
 10
341.55600855488512
 20
50.662934954856198
 30
0.0
 11
341.53874511067119
 21
50.849748573640078
 31
0.0
  0
LINE
  5
5191
  8
0
 10
341.53874511067119
 20
50.849748573640078
 30
0.0
 11
341.93784909599469
 21
50.863293826297053
 31
0.0
  0
LINE
  5
5192
  8
0
 10
341.93784909599469
 20
50.863293826297053
 30
0.0
 11
341.89058574888702
 21
51.096323933879802
 31
0.0
  0
LINE
  5
5193
  8
0
 10
341.89058574888702
 20
51.096323933879802
 30
0.0
 11
342.39567316335513
 21
51.115545138763459
 31
0.0
  0
LINE
  5
5194
  8
0
 10
342.39567316335513
 20
51.115545138763459
 30
0.0
 11
342.28925509148098
 21
51.396528162479797
 31
0.0
  0
LINE
  5
5195
  8
0
 10
342.28925509148098
 20
51.396528162479797
 30
0.0
 11
342.87318490313572
 21
51.418653378579997
 31
0.0
  0
LINE
  5
5196
  8
0
 10
342.87318490313572
 20
51.418653378579997
 30
0.0
 11
342.75929058258782
 21
51.781413921679793
 31
0.0
  0
LINE
  5
5197
  8
0
 10
333.24085985930378
 20
54.404581815381967
 30
0.0
 11
333.3787247994378
 21
54.125507664929799
 31
0.0
  0
LINE
  5
5198
  8
0
 10
333.3787247994378
 20
54.125507664929799
 30
0.0
 11
333.76910335055982
 21
53.726992179041339
 31
0.0
  0
LINE
  5
5199
  8
0
 10
333.76910335055982
 20
53.726992179041339
 30
0.0
 11
334.2819764774917
 21
52.941282994006642
 31
0.0
  0
LINE
  5
519A
  8
0
 10
334.2819764774917
 20
52.941282994006642
 30
0.0
 11
334.58729861628387
 21
52.510524255105288
 31
0.0
  0
LINE
  5
519B
  8
0
 10
334.58729861628387
 20
52.510524255105288
 30
0.0
 11
335.0858723366095
 21
52.29215886577979
 31
0.0
  0
LINE
  5
519C
  8
0
 10
335.0858723366095
 20
52.29215886577979
 30
0.0
 11
335.1584592310378
 21
51.887369755279799
 31
0.0
  0
LINE
  5
519D
  8
0
 10
335.1584592310378
 20
51.887369755279799
 30
0.0
 11
335.55250027958652
 21
51.781413921679793
 31
0.0
  0
LINE
  5
519E
  8
0
 10
335.55250027958652
 20
51.781413921679793
 30
0.0
 11
335.72604693073828
 21
51.426122744160921
 31
0.0
  0
LINE
  5
519F
  8
0
 10
335.72604693073828
 20
51.426122744160921
 30
0.0
 11
336.01926136732851
 21
51.426122744226561
 31
0.0
  0
LINE
  5
51A0
  8
0
 10
334.13182092948477
 20
53.726989557482632
 30
0.0
 11
333.67033461111072
 21
54.123911875813661
 31
0.0
  0
LINE
  5
51A1
  8
0
 10
333.67033461111072
 20
54.123911875813661
 30
0.0
 11
333.76910335055982
 21
53.726992179041339
 31
0.0
  0
LINE
  5
51A2
  8
0
 10
333.76910335055982
 20
53.726992179041339
 30
0.0
 11
333.87772531375361
 21
53.257489960129973
 31
0.0
  0
LINE
  5
51A3
  8
0
 10
333.87772531375361
 20
53.257489960129973
 30
0.0
 11
334.2819764774917
 21
52.941282994006642
 31
0.0
  0
LINE
  5
51A4
  8
0
 10
334.2819764774917
 20
52.941282994006642
 30
0.0
 11
334.44291360079882
 21
52.510524255827349
 31
0.0
  0
LINE
  5
51A5
  8
0
 10
334.13182092948477
 20
53.726989557482632
 30
0.0
 11
334.07871666299849
 21
53.252672097489437
 31
0.0
  0
LINE
  5
51A6
  8
0
 10
334.07871666299849
 20
53.252672097489437
 30
0.0
 11
334.56973687753168
 21
52.94128501456764
 31
0.0
  0
LINE
  5
51A7
  8
0
 10
334.56973687753168
 20
52.94128501456764
 30
0.0
 11
334.58729861617678
 21
52.51052425524076
 31
0.0
  0
LINE
  5
51A8
  8
0
 10
334.58729861617422
 20
52.510524255491347
 30
0.0
 11
334.86624946590422
 21
52.292199391511168
 31
0.0
  0
LINE
  5
51A9
  8
0
 10
334.86624946590422
 20
52.292199391511168
 30
0.0
 11
335.1584592309481
 21
51.887369755303908
 31
0.0
  0
LINE
  5
51AA
  8
0
 10
336.01926136732851
 20
51.426122744226561
 30
0.0
 11
336.26673760033668
 21
51.396531244797238
 31
0.0
  0
LINE
  5
51AB
  8
0
 10
336.26673760033668
 20
51.396531244797238
 30
0.0
 11
336.6176056144177
 21
51.118007138486433
 31
0.0
  0
LINE
  5
51AC
  8
0
 10
336.6176056144177
 20
51.118007138486433
 30
0.0
 11
336.9269537516758
 21
51.118007134859759
 31
0.0
  0
LINE
  5
51AD
  8
0
 10
336.9269537516758
 20
51.118007134859759
 30
0.0
 11
336.94421283042323
 21
51.396528162479797
 31
0.0
  0
LINE
  5
51AE
  8
0
 10
336.44135728491648
 20
51.396528162479797
 30
0.0
 11
336.61760561453781
 21
51.118007138479797
 31
0.0
  0
LINE
  5
51AF
  8
0
 10
336.61760561460102
 20
51.118007138340907
 30
0.0
 11
336.84540961427331
 21
51.096326518179801
 31
0.0
  0
LINE
  5
51B0
  8
0
 10
336.84540961427331
 20
51.096326518179801
 30
0.0
 11
337.16855798674283
 21
50.871828351761529
 31
0.0
  0
LINE
  5
51B1
  8
0
 10
337.16855798674283
 20
50.871828351761529
 30
0.0
 11
337.3805070959005
 21
50.845679187563732
 31
0.0
  0
LINE
  5
51B2
  8
0
 10
337.3805070959005
 20
50.845679187563732
 30
0.0
 11
337.66318855743782
 21
50.6606065481798
 31
0.0
  0
LINE
  5
51B3
  8
0
 10
337.66318855743782
 20
50.6606065481798
 30
0.0
 11
337.85139359803782
 21
50.636696545479801
 31
0.0
  0
LINE
  5
51B4
  8
0
 10
337.85139359803782
 20
50.636696545479801
 30
0.0
 11
338.08705426574801
 21
50.466216285227958
 31
0.0
  0
LINE
  5
51B5
  8
0
 10
338.08705426574801
 20
50.466216285227958
 30
0.0
 11
338.24916424047541
 21
50.422464877078049
 31
0.0
  0
LINE
  5
51B6
  8
0
 10
338.24916424047541
 20
50.422464877078049
 30
0.0
 11
338.42503790948388
 21
50.254714666679021
 31
0.0
  0
LINE
  5
51B7
  8
0
 10
338.42503790948388
 20
50.254714666679021
 30
0.0
 11
338.56246320340932
 21
50.20004912040099
 31
0.0
  0
LINE
  5
51B8
  8
0
 10
338.56246320340932
 20
50.20004912040099
 30
0.0
 11
338.68673405097758
 21
50.043749523850771
 31
0.0
  0
LINE
  5
51B9
  8
0
 10
338.68673405097758
 20
50.043749523850771
 30
0.0
 11
338.80007901271853
 21
49.992297121379799
 31
0.0
  0
LINE
  5
51BA
  8
0
 10
338.87109969672377
 20
49.992297121379799
 30
0.0
 11
338.68673405106148
 21
50.043749523809318
 31
0.0
  0
LINE
  5
51BB
  8
0
 10
338.68673405106148
 20
50.043749523809318
 30
0.0
 11
338.63520435890638
 21
50.20004912040099
 31
0.0
  0
LINE
  5
51BC
  8
0
 10
338.63520435890638
 20
50.20004912040099
 30
0.0
 11
338.42503790948371
 21
50.254714666679078
 31
0.0
  0
LINE
  5
51BD
  8
0
 10
338.42503790948371
 20
50.254714666679078
 30
0.0
 11
338.33890019993078
 21
50.42247363507979
 31
0.0
  0
LINE
  5
51BE
  8
0
 10
338.33890019993078
 20
50.42247363507979
 30
0.0
 11
338.08705426528508
 21
50.466216285341922
 31
0.0
  0
LINE
  5
51BF
  8
0
 10
338.08705426528508
 20
50.466216285341922
 30
0.0
 11
337.99361565633097
 21
50.636696545479801
 31
0.0
  0
LINE
  5
51C0
  8
0
 10
337.99361565633097
 20
50.636696545479801
 30
0.0
 11
337.66318855743782
 21
50.6606065481798
 31
0.0
  0
LINE
  5
51C1
  8
0
 10
337.66318855743782
 20
50.6606065481798
 30
0.0
 11
337.4500743477729
 21
50.849748573640078
 31
0.0
  0
LINE
  5
51C2
  8
0
 10
337.16855798673782
 20
50.871828351779797
 30
0.0
 11
336.96478737728017
 21
51.096323933879802
 31
0.0
  0
LINE
  5
51C3
  8
0
 10
336.01926136725569
 20
51.426122744232181
 30
0.0
 11
336.00110343416628
 21
51.781413921679793
 31
0.0
  0
LINE
  5
51C4
  8
0
 10
336.00110343416628
 20
51.781413921679793
 30
0.0
 11
335.43987115484589
 21
51.88736975527106
 31
0.0
  0
LINE
  5
51C5
  8
0
 10
335.43987115484589
 20
51.88736975527106
 30
0.0
 11
335.49972764124522
 21
52.29215886577979
 31
0.0
  0
LINE
  5
51C6
  8
0
 10
336.08161219645427
 20
52.29215886577979
 30
0.0
 11
335.89397004786019
 21
51.887369755153721
 31
0.0
  0
LINE
  5
51C7
  8
0
 10
335.89397004786019
 20
51.887369755153721
 30
0.0
 11
336.48614553172979
 21
51.781413921679793
 31
0.0
  0
LINE
  5
51C8
  8
0
 10
336.48614553172979
 20
51.781413921679793
 30
0.0
 11
336.4001653465441
 21
51.461622798444331
 31
0.0
  0
LINE
  5
51C9
  8
0
 10
336.4001653465441
 20
51.461622798444331
 30
0.0
 11
336.94421283042323
 21
51.396528162479797
 31
0.0
  0
LINE
  5
51CA
  8
0
 10
336.9269537516758
 20
51.118007134859759
 30
0.0
 11
337.40604343484148
 21
51.096323933879802
 31
0.0
  0
LINE
  5
51CB
  8
0
 10
337.40604343484148
 20
51.096323933879802
 30
0.0
 11
337.4205945021377
 21
50.871828351779797
 31
0.0
  0
LINE
  5
51CC
  8
0
 10
337.4205945021377
 20
50.871828351779797
 30
0.0
 11
337.80241881039439
 21
50.849748573640078
 31
0.0
  0
LINE
  5
51CD
  8
0
 10
336.9269537516758
 20
51.118007134859759
 30
0.0
 11
337.06748407113128
 21
51.096326518179801
 31
0.0
  0
LINE
  5
51CE
  8
0
 10
337.06748407113128
 20
51.096326518179801
 30
0.0
 11
337.42059450201049
 21
50.871828351786831
 31
0.0
  0
LINE
  5
51CF
  8
0
 10
337.42059450214282
 20
50.871828351702732
 30
0.0
 11
337.55089401844782
 21
50.849748573640078
 31
0.0
  0
LINE
  5
51D0
  8
0
 10
337.55089401844782
 20
50.849748573640078
 30
0.0
 11
337.99361565633097
 21
50.636696545479801
 31
0.0
  0
LINE
  5
51D1
  8
0
 10
339.13640557303012
 20
49.992297121379799
 30
0.0
 11
338.93953686049468
 21
50.04078739333378
 31
0.0
  0
LINE
  5
51D2
  8
0
 10
338.93953686049468
 20
50.04078739333378
 30
0.0
 11
338.97727379802251
 21
50.20004912040099
 31
0.0
  0
LINE
  5
51D3
  8
0
 10
338.97727379802251
 20
50.20004912040099
 30
0.0
 11
338.73804921518769
 21
50.2535338080706
 31
0.0
  0
LINE
  5
51D4
  8
0
 10
338.73804921518769
 20
50.2535338080706
 30
0.0
 11
338.7625355292945
 21
50.42247363507979
 31
0.0
  0
LINE
  5
51D5
  8
0
 10
338.7625355292945
 20
50.42247363507979
 30
0.0
 11
338.47099899665778
 21
50.456048755158243
 31
0.0
  0
LINE
  5
51D6
  8
0
 10
338.47099899665778
 20
50.456048755158243
 30
0.0
 11
338.49342901521271
 21
50.636696545480078
 31
0.0
  0
LINE
  5
51D7
  8
0
 10
338.49342901521271
 20
50.636696545480078
 30
0.0
 11
338.14250069565747
 21
50.64607359196706
 31
0.0
  0
LINE
  5
51D8
  8
0
 10
338.14250069565747
 20
50.64607359196706
 30
0.0
 11
338.15650319099808
 21
50.849748573640078
 31
0.0
  0
LINE
  5
51D9
  8
0
 10
338.15650319099808
 20
50.849748573640078
 30
0.0
 11
337.76919795631198
 21
50.87182835176403
 31
0.0
  0
LINE
  5
51DA
  8
0
 10
337.76919795631198
 20
50.87182835176403
 30
0.0
 11
337.82263522184053
 21
51.096323933879802
 31
0.0
  0
LINE
  5
51DB
  8
0
 10
337.82263522184053
 20
51.096323933879802
 30
0.0
 11
337.35465391374402
 21
51.129032551365718
 31
0.0
  0
LINE
  5
51DC
  8
0
 10
337.35465391374402
 20
51.129032551365718
 30
0.0
 11
337.47598586385942
 21
51.396528162479797
 31
0.0
  0
LINE
  5
51DD
  8
0
 10
337.47598586385942
 20
51.396528162479797
 30
0.0
 11
336.90827866551467
 21
51.424922347946051
 31
0.0
  0
LINE
  5
51DE
  8
0
 10
336.90827866551467
 20
51.424922347946051
 30
0.0
 11
337.10368367520732
 21
51.781413921679793
 31
0.0
  0
ARC
  5
51DF
  8
0
 10
332.93185464514193
 20
54.274054760540189
 30
0.0
 40
0.335442296714232
 50
22.899707647889741
 51
82.830059217187909
  0
ARC
  5
51E0
  8
0
 10
333.25132590205033
 20
54.270175058015788
 30
0.0
 40
0.339743451290455
 50
23.093388765174769
 51
82.323819070885989
  0
LINE
  5
51E1
  8
0
 10
337.80241881039439
 20
50.849748573640078
 30
0.0
 11
337.85463075934553
 21
50.703580591012319
 31
0.0
  0
LINE
  5
51E2
  8
0
 10
337.85463075934553
 20
50.703580591012319
 30
0.0
 11
338.15845002774319
 21
50.636696545479801
 31
0.0
  0
LINE
  5
51E3
  8
0
 10
338.15845002774319
 20
50.636696545479801
 30
0.0
 11
338.23308058358271
 21
50.492891790447288
 31
0.0
  0
LINE
  5
51E4
  8
0
 10
338.23308058358271
 20
50.492891790447288
 30
0.0
 11
338.53023105218301
 21
50.42247363507979
 31
0.0
  0
LINE
  5
51E5
  8
0
 10
338.53023105218301
 20
50.42247363507979
 30
0.0
 11
338.58769459762459
 21
50.2384077307347
 31
0.0
  0
LINE
  5
51E6
  8
0
 10
338.58769459762459
 20
50.2384077307347
 30
0.0
 11
338.79403195947799
 21
50.20004912040099
 31
0.0
  0
LINE
  5
51E7
  8
0
 10
338.79403195947799
 20
50.20004912040099
 30
0.0
 11
338.82547146634943
 21
50.034871222764252
 31
0.0
  0
LINE
  5
51E8
  8
0
 10
338.82547146634943
 20
50.034871222764252
 30
0.0
 11
338.97842156934058
 21
49.992297121379799
 31
0.0
  0
ENDSEC
  0
EOF
