  0
SECTION
  2
HEADER
  9
$ACADVER
  1
AC1009
  9
$INSBASE
 10
4.5501563872499906
 20
37.594064321096887
 30
0.0
  9
$EXTMIN
 10
-6.0888222877999993
 20
28.58300171316673
 30
0.0
  9
$EXTMAX
 10
15.18913506229967
 20
48.780403888040951
 30
0.0
  9
$LIMMIN
 10
0.0
 20
0.0
  9
$LIMMAX
 10
11.692913385800001
 20
8.2677165353999982
  9
$ORTHOMODE
 70
     1
  9
$REGENMODE
 70
     1
  9
$FILLMODE
 70
     1
  9
$QTEXTMODE
 70
     0
  9
$MIRRTEXT
 70
     0
  9
$DRAGMODE
 70
     2
  9
$LTSCALE
 40
0.6431102362
  9
$OSMODE
 70
    47
  9
$ATTMODE
 70
     1
  9
$TEXTSIZE
 40
0.001
  9
$TRACEWID
 40
0.05
  9
$TEXTSTYLE
  7
STANDARD
  9
$CLAYER
  8
0
  9
$CELTYPE
  6
BYLAYER
  9
$CECOLOR
 62
   256
  9
$DIMSCALE
 40
1.0
  9
$DIMASZ
 40
0.1875
  9
$DIMEXO
 40
0.0625
  9
$DIMDLI
 40
0.4443307087
  9
$DIMRND
 40
0.0
  9
$DIMDLE
 40
0.0
  9
$DIMEXE
 40
0.125
  9
$DIMTP
 40
0.0
  9
$DIMTM
 40
0.0
  9
$DIMTXT
 40
0.15625
  9
$DIMCEN
 40
0.1052362205
  9
$DIMTSZ
 40
0.0
  9
$DIMTOL
 70
     0
  9
$DIMLIM
 70
     0
  9
$DIMTIH
 70
     1
  9
$DIMTOH
 70
     1
  9
$DIMSE1
 70
     0
  9
$DIMSE2
 70
     0
  9
$DIMTAD
 70
     0
  9
$DIMZIN
 70
     0
  9
$DIMBLK
  1

  9
$DIMASO
 70
     1
  9
$DIMSHO
 70
     1
  9
$DIMPOST
  1

  9
$DIMAPOST
  1

  9
$DIMALT
 70
     0
  9
$DIMALTD
 70
     2
  9
$DIMALTF
 40
25.399999999999999
  9
$DIMLFAC
 40
1.0
  9
$DIMTOFL
 70
     0
  9
$DIMTVP
 40
0.0
  9
$DIMTIX
 70
     0
  9
$DIMSOXD
 70
     0
  9
$DIMSAH
 70
     0
  9
$DIMBLK1
  1

  9
$DIMBLK2
  1

  9
$DIMSTYLE
  2
STANDARD
  9
$DIMCLRD
 70
     0
  9
$DIMCLRE
 70
     0
  9
$DIMCLRT
 70
     0
  9
$DIMTFAC
 40
1.0
  9
$DIMGAP
 40
0.09
  9
$LUNITS
 70
     2
  9
$LUPREC
 70
     4
  9
$SKETCHINC
 40
0.1
  9
$FILLETRAD
 40
0.0
  9
$AUNITS
 70
     0
  9
$AUPREC
 70
     0
  9
$MENU
  1
.
  9
$ELEVATION
 40
0.0
  9
$PELEVATION
 40
0.0
  9
$THICKNESS
 40
0.0
  9
$LIMCHECK
 70
     0
  9
$BLIPMODE
 70
     0
  9
$CHAMFERA
 40
0.0
  9
$CHAMFERB
 40
0.0
  9
$SKPOLY
 70
     0
  9
$TDCREATE
 40
2457343.6650446299
  9
$TDUPDATE
 40
2457343.7725902079
  9
$TDINDWG
 40
0.0951976389
  9
$TDUSRTIMER
 40
0.0951976389
  9
$USRTIMER
 70
     1
  9
$ANGBASE
 50
0.0
  9
$ANGDIR
 70
     0
  9
$PDMODE
 70
     0
  9
$PDSIZE
 40
0.3125
  9
$PLINEWID
 40
0.0
  9
$COORDS
 70
     1
  9
$SPLFRAME
 70
     0
  9
$SPLINETYPE
 70
     6
  9
$SPLINESEGS
 70
     8
  9
$ATTDIA
 70
     0
  9
$ATTREQ
 70
     1
  9
$HANDLING
 70
     1
  9
$HANDSEED
  5
902
  9
$SURFTAB1
 70
     6
  9
$SURFTAB2
 70
     6
  9
$SURFTYPE
 70
     6
  9
$SURFU
 70
     6
  9
$SURFV
 70
     6
  9
$UCSNAME
  2

  9
$UCSORG
 10
0.0
 20
0.0
 30
0.0
  9
$UCSXDIR
 10
1.0
 20
0.0
 30
0.0
  9
$UCSYDIR
 10
0.0
 20
1.0
 30
0.0
  9
$PUCSNAME
  2

  9
$PUCSORG
 10
0.0
 20
0.0
 30
0.0
  9
$PUCSXDIR
 10
1.0
 20
0.0
 30
0.0
  9
$PUCSYDIR
 10
0.0
 20
1.0
 30
0.0
  9
$USERI1
 70
     0
  9
$USERI2
 70
     0
  9
$USERI3
 70
     0
  9
$USERI4
 70
     0
  9
$USERI5
 70
     0
  9
$USERR1
 40
0.0
  9
$USERR2
 40
0.0
  9
$USERR3
 40
0.0
  9
$USERR4
 40
0.0
  9
$USERR5
 40
0.0
  9
$WORLDVIEW
 70
     1
  9
$SHADEDGE
 70
     3
  9
$SHADEDIF
 70
    70
  9
$TILEMODE
 70
     1
  9
$MAXACTVP
 70
    48
  9
$PLIMCHECK
 70
     0
  9
$PEXTMIN
 10
1.0000000000000000E+020
 20
1.0000000000000000E+020
 30
1.0000000000000000E+020
  9
$PEXTMAX
 10
-1.0000000000000000E+020
 20
-1.0000000000000000E+020
 30
-1.0000000000000000E+020
  9
$PLIMMIN
 10
0.0
 20
0.0
  9
$PLIMMAX
 10
12.0
 20
9.0
  9
$UNITMODE
 70
     0
  9
$VISRETAIN
 70
     1
  9
$PLINEGEN
 70
     0
  9
$PSLTSCALE
 70
     1
  0
ENDSEC
  0
SECTION
  2
TABLES
  0
TABLE
  2
VPORT
 70
     1
  0
VPORT
  2
*ACTIVE
 70
     0
 10
0.0
 20
0.0
 11
1.0
 21
1.0
 12
6.0440787669546623
 22
34.441967082429407
 13
0.0
 23
0.0
 14
1.0
 24
1.0
 15
0.0
 25
0.0
 16
0.0
 26
0.0
 36
1.0
 17
0.0
 27
0.0
 37
0.0
 40
50.240077832040079
 41
2.0329087048832268
 42
50.0
 43
0.0
 44
0.0
 50
0.0
 51
0.0
 71
     0
 72
   100
 73
     1
 74
     1
 75
     0
 76
     0
 77
     0
 78
     0
  0
ENDTAB
  0
TABLE
  2
LTYPE
 70
     7
  0
LTYPE
  2
CONTINUOUS
 70
     0
  3
Solid line
 72
    65
 73
     0
 40
0.0
  0
ENDTAB
  0
TABLE
  2
LAYER
 70
    28
  0
LAYER
  2
0
 70
     0
 62
     7
  6
CONTINUOUS
  0
LAYER
  2
DEFPOINTS
 70
     0
 62
     7
  6
CONTINUOUS
  0
ENDTAB
  0
TABLE
  2
STYLE
 70
     2
  0
STYLE
  2
STANDARD
 70
     0
 40
0.0
 41
0.8
 50
0.0
 71
     0
 42
0.001
  3
txt
  4

  0
ENDTAB
  0
TABLE
  2
VIEW
 70
     0
  0
ENDTAB
  0
TABLE
  2
UCS
 70
     0
  0
ENDTAB
  0
TABLE
  2
APPID
 70
     5
  0
APPID
  2
ACAD
 70
     0
  0
APPID
  2
ACAD_MLEADERVER
 70
     0
  0
APPID
  2
ACAD_NAV_VCDISPLAY
 70
     0
  0
APPID
  2
ACAD_EXEMPT_FROM_CAD_STANDARDS
 70
     0
  0
APPID
  2
ACDBATTR
 70
     0
  0
ENDTAB
  0
TABLE
  2
DIMSTYLE
 70
     2
  0
DIMSTYLE
  2
STANDARD
 70
     0
  3

  4

  5

  6

  7

 40
1.0
 41
0.1875
 42
0.0625
 43
0.38
 44
0.125
 45
0.0
 46
0.0
 47
1.5
 48
1.5
140
0.15625
141
0.09
142
0.0
143
25.399999999999999
144
1.0
145
0.0
146
1.0
147
0.09
 71
     0
 72
     0
 73
     1
 74
     1
 75
     0
 76
     0
 77
     0
 78
     4
170
     0
171
     2
172
     0
173
     0
174
     0
175
     0
176
     0
177
     0
178
     0
  0
ENDTAB
  0
ENDSEC
  0
SECTION
  2
BLOCKS
  0
BLOCK
  8
0
  2
$MODEL_SPACE
 70
     2
 10
0.0
 20
0.0
 30
0.0
  3
$MODEL_SPACE
  1

  0
ENDBLK
  5
21
  8
0
  0
BLOCK
 67
     1
  8
0
  2
$PAPER_SPACE
 70
     0
 10
0.0
 20
0.0
 30
0.0
  3
$PAPER_SPACE
  1

  0
ENDBLK
  5
1D
 67
     1
  8
0
  0
BLOCK
  8
0
  2
*U4
 70
     1
 10
0.0
 20
0.0
 30
0.0
  3
*U4
  1

  0
TEXT
  5
87A
  8
0
 62
     0
 10
5.027376680090466
 20
37.55699651369607
 30
0.0
 40
0.15625
  1
0.0302
 41
0.8
  0
ENDBLK
  5
87C
  8
0
  0
ENDSEC
  0
SECTION
  2
ENTITIES
  0
CIRCLE
  5
3CA
  8
0
 10
11.057810335999999
 20
37.588029929000001
 30
0.0
 40
1.0298579812999991
  0
CIRCLE
  5
3CE
  8
0
 10
4.5578103360000002
 20
43.185697371700002
 30
0.0
 40
0.69
  0
POLYLINE
  5
5D5
  8
0
 10
-6.0888222877999993
 20
37.588029974000001
 30
0.0
 66
     1
 70
     8
  0
VERTEX
  8
0
  5
880
 10
-6.08882
 20
37.5880
 30
0.000000
  70
    32
  0
VERTEX
  8
0
  5
881
 10
-6.07601
 20
37.1462
 30
0.000000
  70
    32
  0
VERTEX
  8
0
  5
882
 10
-6.03759
 20
36.7054
 30
0.000000
  70
    32
  0
VERTEX
  8
0
  5
883
 10
-5.97367
 20
36.2667
 30
0.000000
  70
    32
  0
VERTEX
  8
0
  5
884
 10
-5.88440
 20
35.8312
 30
0.000000
  70
    32
  0
VERTEX
  8
0
  5
885
 10
-5.76999
 20
35.4000
 30
0.000000
  70
    32
  0
VERTEX
  8
0
  5
886
 10
-5.63071
 20
34.9740
 30
0.000000
  70
    32
  0
VERTEX
  8
0
  5
887
 10
-5.46691
 20
34.5543
 30
0.000000
  70
    32
  0
VERTEX
  8
0
  5
888
 10
-5.27898
 20
34.1420
 30
0.000000
  70
    32
  0
VERTEX
  8
0
  5
889
 10
-5.06737
 20
33.7379
 30
0.000000
  70
    32
  0
VERTEX
  8
0
  5
88A
 10
-4.83259
 20
33.3431
 30
0.000000
  70
    32
  0
VERTEX
  8
0
  5
88B
 10
-4.57520
 20
32.9585
 30
0.000000
  70
    32
  0
VERTEX
  8
0
  5
88C
 10
-4.29583
 20
32.5851
 30
0.000000
  70
    32
  0
VERTEX
  8
0
  5
88D
 10
-3.99515
 20
32.2237
 30
0.000000
  70
    32
  0
VERTEX
  8
0
  5
88E
 10
-3.67389
 20
31.8753
 30
0.000000
  70
    32
  0
VERTEX
  8
0
  5
88F
 10
-3.33281
 20
31.5406
 30
0.000000
  70
    32
  0
VERTEX
  8
0
  5
890
 10
-2.97274
 20
31.2205
 30
0.000000
  70
    32
  0
VERTEX
  8
0
  5
891
 10
-2.59455
 20
30.9157
 30
0.000000
  70
    32
  0
VERTEX
  8
0
  5
892
 10
-2.19914
 20
30.6270
 30
0.000000
  70
    32
  0
VERTEX
  8
0
  5
893
 10
-1.78748
 20
30.3551
 30
0.000000
  70
    32
  0
VERTEX
  8
0
  5
894
 10
-1.36054
 20
30.1006
 30
0.000000
  70
    32
  0
VERTEX
  8
0
  5
895
 10
-0.919372
 20
29.8642
 30
0.000000
  70
    32
  0
VERTEX
  8
0
  5
896
 10
-0.465023
 20
29.6463
 30
0.000000
  70
    32
  0
VERTEX
  8
0
  5
897
 10
0.00140686
 20
29.4476
 30
0.000000
  70
    32
  0
VERTEX
  8
0
  5
898
 10
0.478796
 20
29.2685
 30
0.000000
  70
    32
  0
VERTEX
  8
0
  5
899
 10
0.965992
 20
29.1094
 30
0.000000
  70
    32
  0
VERTEX
  8
0
  5
89A
 10
1.46182
 20
28.9708
 30
0.000000
  70
    32
  0
VERTEX
  8
0
  5
89B
 10
1.96510
 20
28.8529
 30
0.000000
  70
    32
  0
VERTEX
  8
0
  5
89C
 10
2.47459
 20
28.7560
 30
0.000000
  70
    32
  0
VERTEX
  8
0
  5
89D
 10
2.98909
 20
28.6805
 30
0.000000
  70
    32
  0
VERTEX
  8
0
  5
89E
 10
3.50735
 20
28.6264
 30
0.000000
  70
    32
  0
VERTEX
  8
0
  5
89F
 10
4.02813
 20
28.5938
 30
0.000000
  70
    32
  0
VERTEX
  8
0
  5
8A0
 10
4.55016
 20
28.5830
 30
0.000000
  70
    32
  0
VERTEX
  8
0
  5
8A1
 10
5.07219
 20
28.5938
 30
0.000000
  70
    32
  0
VERTEX
  8
0
  5
8A2
 10
5.59296
 20
28.6264
 30
0.000000
  70
    32
  0
VERTEX
  8
0
  5
8A3
 10
6.11122
 20
28.6805
 30
0.000000
  70
    32
  0
VERTEX
  8
0
  5
8A4
 10
6.62572
 20
28.7560
 30
0.000000
  70
    32
  0
VERTEX
  8
0
  5
8A5
 10
7.13522
 20
28.8529
 30
0.000000
  70
    32
  0
VERTEX
  8
0
  5
8A6
 10
7.63849
 20
28.9708
 30
0.000000
  70
    32
  0
VERTEX
  8
0
  5
8A7
 10
8.13432
 20
29.1094
 30
0.000000
  70
    32
  0
VERTEX
  8
0
  5
8A8
 10
8.62152
 20
29.2685
 30
0.000000
  70
    32
  0
VERTEX
  8
0
  5
8A9
 10
9.09891
 20
29.4476
 30
0.000000
  70
    32
  0
VERTEX
  8
0
  5
8AA
 10
9.56534
 20
29.6463
 30
0.000000
  70
    32
  0
VERTEX
  8
0
  5
8AB
 10
10.0197
 20
29.8642
 30
0.000000
  70
    32
  0
VERTEX
  8
0
  5
8AC
 10
10.4609
 20
30.1006
 30
0.000000
  70
    32
  0
VERTEX
  8
0
  5
8AD
 10
10.8878
 20
30.3551
 30
0.000000
  70
    32
  0
VERTEX
  8
0
  5
8AE
 10
11.2995
 20
30.6270
 30
0.000000
  70
    32
  0
VERTEX
  8
0
  5
8AF
 10
11.6949
 20
30.9157
 30
0.000000
  70
    32
  0
VERTEX
  8
0
  5
8B0
 10
12.0731
 20
31.2205
 30
0.000000
  70
    32
  0
VERTEX
  8
0
  5
8B1
 10
12.4331
 20
31.5406
 30
0.000000
  70
    32
  0
VERTEX
  8
0
  5
8B2
 10
12.7742
 20
31.8753
 30
0.000000
  70
    32
  0
VERTEX
  8
0
  5
8B3
 10
13.0955
 20
32.2237
 30
0.000000
  70
    32
  0
VERTEX
  8
0
  5
8B4
 10
13.3961
 20
32.5851
 30
0.000000
  70
    32
  0
VERTEX
  8
0
  5
8B5
 10
13.6755
 20
32.9585
 30
0.000000
  70
    32
  0
VERTEX
  8
0
  5
8B6
 10
13.9329
 20
33.3431
 30
0.000000
  70
    32
  0
VERTEX
  8
0
  5
8B7
 10
14.1677
 20
33.7379
 30
0.000000
  70
    32
  0
VERTEX
  8
0
  5
8B8
 10
14.3793
 20
34.1420
 30
0.000000
  70
    32
  0
VERTEX
  8
0
  5
8B9
 10
14.5672
 20
34.5543
 30
0.000000
  70
    32
  0
VERTEX
  8
0
  5
8BA
 10
14.7310
 20
34.9740
 30
0.000000
  70
    32
  0
VERTEX
  8
0
  5
8BB
 10
14.8703
 20
35.4000
 30
0.000000
  70
    32
  0
VERTEX
  8
0
  5
8BC
 10
14.9847
 20
35.8312
 30
0.000000
  70
    32
  0
VERTEX
  8
0
  5
8BD
 10
15.0740
 20
36.2667
 30
0.000000
  70
    32
  0
VERTEX
  8
0
  5
8BE
 10
15.1379
 20
36.7054
 30
0.000000
  70
    32
  0
VERTEX
  8
0
  5
8BF
 10
15.1763
 20
37.1462
 30
0.000000
  70
    32
  0
VERTEX
  8
0
  5
8C0
 10
15.1891
 20
37.5880
 30
0.000000
  70
    32
  0
VERTEX
  8
0
  5
8C1
 10
15.1763
 20
38.0299
 30
0.000000
  70
    32
  0
VERTEX
  8
0
  5
8C2
 10
15.1379
 20
38.4707
 30
0.000000
  70
    32
  0
VERTEX
  8
0
  5
8C3
 10
15.0740
 20
38.9093
 30
0.000000
  70
    32
  0
VERTEX
  8
0
  5
8C4
 10
14.9847
 20
39.3448
 30
0.000000
  70
    32
  0
VERTEX
  8
0
  5
8C5
 10
14.8703
 20
39.7761
 30
0.000000
  70
    32
  0
VERTEX
  8
0
  5
8C6
 10
14.7310
 20
40.2021
 30
0.000000
  70
    32
  0
VERTEX
  8
0
  5
8C7
 10
14.5672
 20
40.6217
 30
0.000000
  70
    32
  0
VERTEX
  8
0
  5
8C8
 10
14.3793
 20
41.0341
 30
0.000000
  70
    32
  0
VERTEX
  8
0
  5
8C9
 10
14.1677
 20
41.4382
 30
0.000000
  70
    32
  0
VERTEX
  8
0
  5
8CA
 10
13.9329
 20
41.8330
 30
0.000000
  70
    32
  0
VERTEX
  8
0
  5
8CB
 10
13.6755
 20
42.2175
 30
0.000000
  70
    32
  0
VERTEX
  8
0
  5
8CC
 10
13.3961
 20
42.5910
 30
0.000000
  70
    32
  0
VERTEX
  8
0
  5
8CD
 10
13.0955
 20
42.9523
 30
0.000000
  70
    32
  0
VERTEX
  8
0
  5
8CE
 10
12.7742
 20
43.3008
 30
0.000000
  70
    32
  0
VERTEX
  8
0
  5
8CF
 10
12.4331
 20
43.6354
 30
0.000000
  70
    32
  0
VERTEX
  8
0
  5
8D0
 10
12.0731
 20
43.9555
 30
0.000000
  70
    32
  0
VERTEX
  8
0
  5
8D1
 10
11.6949
 20
44.2603
 30
0.000000
  70
    32
  0
VERTEX
  8
0
  5
8D2
 10
11.2995
 20
44.5490
 30
0.000000
  70
    32
  0
VERTEX
  8
0
  5
8D3
 10
10.8878
 20
44.8209
 30
0.000000
  70
    32
  0
VERTEX
  8
0
  5
8D4
 10
10.4609
 20
45.0754
 30
0.000000
  70
    32
  0
VERTEX
  8
0
  5
8D5
 10
10.0197
 20
45.3119
 30
0.000000
  70
    32
  0
VERTEX
  8
0
  5
8D6
 10
9.56534
 20
45.5298
 30
0.000000
  70
    32
  0
VERTEX
  8
0
  5
8D7
 10
9.09891
 20
45.7285
 30
0.000000
  70
    32
  0
VERTEX
  8
0
  5
8D8
 10
8.62152
 20
45.9076
 30
0.000000
  70
    32
  0
VERTEX
  8
0
  5
8D9
 10
8.13432
 20
46.0667
 30
0.000000
  70
    32
  0
VERTEX
  8
0
  5
8DA
 10
7.63849
 20
46.2053
 30
0.000000
  70
    32
  0
VERTEX
  8
0
  5
8DB
 10
7.13522
 20
46.3232
 30
0.000000
  70
    32
  0
VERTEX
  8
0
  5
8DC
 10
6.62572
 20
46.4200
 30
0.000000
  70
    32
  0
VERTEX
  8
0
  5
8DD
 10
6.11122
 20
46.4956
 30
0.000000
  70
    32
  0
VERTEX
  8
0
  5
8DE
 10
5.59296
 20
46.5497
 30
0.000000
  70
    32
  0
VERTEX
  8
0
  5
8DF
 10
5.07219
 20
46.5822
 30
0.000000
  70
    32
  0
VERTEX
  8
0
  5
8E0
 10
4.55016
 20
46.5931
 30
0.000000
  70
    32
  0
VERTEX
  8
0
  5
8E1
 10
4.02813
 20
46.5822
 30
0.000000
  70
    32
  0
VERTEX
  8
0
  5
8E2
 10
3.50735
 20
46.5497
 30
0.000000
  70
    32
  0
VERTEX
  8
0
  5
8E3
 10
2.98909
 20
46.4956
 30
0.000000
  70
    32
  0
VERTEX
  8
0
  5
8E4
 10
2.47459
 20
46.4200
 30
0.000000
  70
    32
  0
VERTEX
  8
0
  5
8E5
 10
1.96510
 20
46.3232
 30
0.000000
  70
    32
  0
VERTEX
  8
0
  5
8E6
 10
1.46182
 20
46.2053
 30
0.000000
  70
    32
  0
VERTEX
  8
0
  5
8E7
 10
0.965992
 20
46.0667
 30
0.000000
  70
    32
  0
VERTEX
  8
0
  5
8E8
 10
0.478796
 20
45.9076
 30
0.000000
  70
    32
  0
VERTEX
  8
0
  5
8E9
 10
0.00140687
 20
45.7285
 30
0.000000
  70
    32
  0
VERTEX
  8
0
  5
8EA
 10
-0.465023
 20
45.5298
 30
0.000000
  70
    32
  0
VERTEX
  8
0
  5
8EB
 10
-0.919372
 20
45.3119
 30
0.000000
  70
    32
  0
VERTEX
  8
0
  5
8EC
 10
-1.36054
 20
45.0754
 30
0.000000
  70
    32
  0
VERTEX
  8
0
  5
8ED
 10
-1.78748
 20
44.8209
 30
0.000000
  70
    32
  0
VERTEX
  8
0
  5
8EE
 10
-2.19914
 20
44.5490
 30
0.000000
  70
    32
  0
VERTEX
  8
0
  5
8EF
 10
-2.59455
 20
44.2603
 30
0.000000
  70
    32
  0
VERTEX
  8
0
  5
8F0
 10
-2.97274
 20
43.9555
 30
0.000000
  70
    32
  0
VERTEX
  8
0
  5
8F1
 10
-3.33281
 20
43.6354
 30
0.000000
  70
    32
  0
VERTEX
  8
0
  5
8F2
 10
-3.67389
 20
43.3008
 30
0.000000
  70
    32
  0
VERTEX
  8
0
  5
8F3
 10
-3.99515
 20
42.9523
 30
0.000000
  70
    32
  0
VERTEX
  8
0
  5
8F4
 10
-4.29583
 20
42.5910
 30
0.000000
  70
    32
  0
VERTEX
  8
0
  5
8F5
 10
-4.57520
 20
42.2175
 30
0.000000
  70
    32
  0
VERTEX
  8
0
  5
8F6
 10
-4.83259
 20
41.8330
 30
0.000000
  70
    32
  0
VERTEX
  8
0
  5
8F7
 10
-5.06737
 20
41.4382
 30
0.000000
  70
    32
  0
VERTEX
  8
0
  5
8F8
 10
-5.27898
 20
41.0341
 30
0.000000
  70
    32
  0
VERTEX
  8
0
  5
8F9
 10
-5.46691
 20
40.6217
 30
0.000000
  70
    32
  0
VERTEX
  8
0
  5
8FA
 10
-5.63071
 20
40.2021
 30
0.000000
  70
    32
  0
VERTEX
  8
0
  5
8FB
 10
-5.76999
 20
39.7761
 30
0.000000
  70
    32
  0
VERTEX
  8
0
  5
8FC
 10
-5.88440
 20
39.3448
 30
0.000000
  70
    32
  0
VERTEX
  8
0
  5
8FD
 10
-5.97367
 20
38.9093
 30
0.000000
  70
    32
  0
VERTEX
  8
0
  5
8FE
 10
-6.03759
 20
38.4707
 30
0.000000
  70
    32
  0
VERTEX
  8
0
  5
8FF
 10
-6.07601
 20
38.0299
 30
0.000000
  70
    32
  0
VERTEX
  8
0
  5
900
 10
-6.08882
 20
37.5880
 30
0.000000
  70
    32
  0
SEQEND
  8
0
  5
901
  0
ARC
  5
5DE
  8
0
 10
2.2282657697934098
 20
37.703767970595742
 30
0.0
 40
7.4260684068967624
 50
180.8930123082894
 51
235.99171557410941
  0
ARC
  5
5DF
  8
0
 10
4.5124738755326099
 20
40.866526321952882
 30
0.0
 40
11.326129637238299
 50
235.3616967755537
 51
286.85272767588719
  0
ARC
  5
5E0
  8
0
 10
5.4643544607377184
 20
38.692307518609283
 30
0.0
 40
8.9737147559638153
 50
285.06042198901338
 51
334.04108967863249
  0
ARC
  5
5E1
  8
0
 10
7.0918725970069163
 20
37.651031835389468
 30
0.0
 40
7.0581553326472219
 50
335.85822424880018
 51
28.991462551056571
  0
ARC
  5
5E2
  8
0
 10
5.0698960265993271
 20
36.292710472513633
 30
0.0
 40
9.4873947728483241
 50
30.248325558893139
 51
75.108919292529123
  0
ARC
  5
5E3
  8
0
 10
4.5544167422163149
 20
34.750501680260847
 30
0.0
 40
11.11061851885205
 50
74.54095294902379
 51
120.53589359494811
  0
ARC
  5
5E4
  8
0
 10
2.725431242311394
 20
37.374221163327483
 30
0.0
 40
7.9252165359759443
 50
118.7841083959854
 51
178.45407054000961
  0
ARC
  5
5E6
  8
0
 10
-0.0282289773367744
 20
36.228946897472483
 30
0.0
 40
4.7447212959083354
 50
164.04271044498611
 51
205.75944094005359
  0
ARC
  5
5E7
  8
0
 10
-0.0448593051531667
 20
36.118705855514399
 30
0.0
 40
4.7603235203691199
 50
117.3376438842908
 51
162.71181659813581
  0
ARC
  5
5E8
  8
0
 10
2.0352169942660132
 20
32.231231640176112
 30
0.0
 40
9.1690812482519242
 50
90.936388843190841
 51
117.7282401001729
  0
ARC
  5
5E9
  8
0
 10
2.844535905004526
 20
28.219333683330639
 30
0.0
 40
13.21461041657161
 50
81.863564191493936
 51
94.162390629036722
  0
ARC
  5
5EA
  8
0
 10
1.2357292509380851
 20
17.41139465512224
 30
0.0
 40
24.141532918230752
 50
77.28937970068975
 51
81.714148565312115
  0
ARC
  5
5EC
  8
0
 10
11.69645483997911
 20
62.577242055362269
 30
0.0
 40
22.220712624743989
 50
256.60176973584549
 51
260.54563067274057
  0
ARC
  5
5F0
  8
0
 10
8.7379509300101361
 20
45.065974925425429
 30
0.0
 40
4.4615322980140304
 50
261.08347875810529
 51
271.72273359686261
  0
ARC
  5
5F1
  8
0
 10
8.8217675066955454
 20
42.42460316636155
 30
0.0
 40
1.818839899904787
 50
271.58502413856837
 51
300.3635857950627
  0
ARC
  5
5F2
  8
0
 10
8.4408809908762201
 20
42.922023980651808
 30
0.0
 40
2.4417854417290412
 50
302.17543939836662
 51
345.12873425377649
  0
LINE
  5
5F5
  8
0
 10
10.909935379537369
 20
43.105348207874201
 30
0.0
 11
10.906954589850001
 21
43.402431574349997
 31
0.0
  0
ARC
  5
5F7
  8
0
 10
7.547115521674824
 20
43.145765843696871
 30
0.0
 40
3.363062738296771
 50
345.35252347076198
 51
359.31139681878489
  0
ARC
  5
5F8
  8
0
 10
12.264716920954189
 20
43.497899306515237
 30
0.0
 40
1.361114482933105
 50
175.25265850476649
 51
184.02199304330941
  0
ARC
  5
5F9
  8
0
 10
10.98634201529433
 20
43.612651612609433
 30
0.0
 40
0.0780984021586401
 50
123.12068760225161
 51
181.54360520951661
  0
LINE
  5
5FA
  8
0
 10
10.94366870489333
 20
43.67806070218537
 30
0.0
 11
10.9740533130669
 21
43.71912187456519
 31
0.0
  0
ARC
  5
5FB
  8
0
 10
3.426901900066071
 20
30.683565515164489
 30
0.0
 40
0.1791155066058968
 50
110.1303153381906
 51
181.1622223260969
  0
ARC
  5
5FC
  8
0
 10
3.5347749509946951
 20
30.450240617596499
 30
0.0
 40
0.4358177565320682
 50
73.078889250422591
 51
112.8899666307253
  0
ARC
  5
5FD
  8
0
 10
3.5993898487918039
 20
30.586970727289732
 30
0.0
 40
0.2870466806906643
 50
29.767612147860689
 51
77.478809481085349
  0
ARC
  5
5FE
  8
0
 10
3.672695544140312
 20
30.64495778743737
 30
0.0
 40
0.1951229538990083
 50
348.91831827257778
 51
25.670673987607628
  0
ARC
  5
5FF
  8
0
 10
3.5790967374345151
 20
30.68091926976707
 30
0.0
 40
0.2943974033596697
 50
283.81125869320971
 51
345.54934668689322
  0
ARC
  5
600
  8
0
 10
3.5805003791823271
 20
30.70722333117709
 30
0.0
 40
0.3196972234399095
 50
235.32468694081669
 51
282.4414520131906
  0
ARC
  5
601
  8
0
 10
3.6232376727508071
 20
30.76328400105152
 30
0.0
 40
0.3901287975329514
 50
198.21228405591299
 51
234.84702746297779
  0
LINE
  5
602
  8
0
 10
3.2526523516000001
 20
30.641353699599989
 30
0.0
 11
3.2478231276999989
 21
30.679921267899999
 31
0.0
  0
ARC
  5
60F
  8
0
 10
4.4653349607363397
 20
30.631464232766461
 30
0.0
 40
0.2175427492995884
 50
110.2766926920721
 51
179.08842327671769
  0
ARC
  5
610
  8
0
 10
4.5667170808659421
 20
30.43469683251244
 30
0.0
 40
0.4380780809075919
 50
62.864618395162282
 51
113.7982993623643
  0
ARC
  5
611
  8
0
 10
4.6702559551591118
 20
30.652030482955549
 30
0.0
 40
0.1975659594336424
 50
359.37968600151947
 51
60.839298584974401
  0
ARC
  5
612
  8
0
 10
4.5369268616928942
 20
30.690223390188709
 30
0.0
 40
0.3333324496477097
 50
273.54525214226032
 51
353.05041439758531
  0
ARC
  5
613
  8
0
 10
4.5608627735725618
 20
30.672842346188549
 30
0.0
 40
0.3153310144959704
 50
186.90627412240249
 51
269.39607393419971
  0
ARC
  5
657
  8
0
 10
5.6028025434079707
 20
30.526418386132931
 30
0.0
 40
0.4160838931585189
 50
82.530249417330765
 51
135.47795631236241
  0
ARC
  5
658
  8
0
 10
5.6584139328924401
 20
30.727174340490329
 30
0.0
 40
0.2118023484131215
 50
15.00648894382285
 51
90.411009293280358
  0
LINE
  5
659
  8
0
 10
5.8629930815999991
 20
30.7820159917
 30
0.0
 11
5.8678103359999998
 21
30.735179993300001
 31
0.0
  0
LINE
  5
65A
  8
0
 10
5.8678103359999998
 20
30.735179993300001
 30
0.0
 11
5.8625563742999987
 21
30.687543932200001
 31
0.0
  0
ARC
  5
65B
  8
0
 10
5.4475582722410643
 20
30.80914766067151
 30
0.0
 40
0.4324475592377553
 50
306.49811480105001
 51
343.66823499684648
  0
ARC
  5
65C
  8
0
 10
5.533640691460425
 20
30.691928968999211
 30
0.0
 40
0.2870171820052556
 50
240.14248925758091
 51
306.60224329870101
  0
ARC
  5
65D
  8
0
 10
5.5638381428905976
 20
30.717392585052359
 30
0.0
 40
0.3244160806350731
 50
196.0534442408352
 51
237.75536389923229
  0
ARC
  5
65E
  8
0
 10
5.4498693972476451
 20
30.66896849171507
 30
0.0
 40
0.2020597290075512
 50
159.67985068866801
 51
191.7905934289509
  0
ARC
  5
65F
  8
0
 10
5.479344943020557
 20
30.66512633149339
 30
0.0
 40
0.2311303595630671
 50
138.53585006555079
 51
161.32430346178359
  0
ATTDEF
  5
77D
  8
DEFPOINTS
 10
4.545438211797193
 20
37.585336311623038
 30
0.0
 40
0.001
  1
K-2354-1
  3

  2
MODELNUMBER
 70
     0
1001
ACDBATTR
1070
     0
1070
     1
  0
ATTDEF
  5
77E
  8
DEFPOINTS
 10
4.545438211797193
 20
37.58366964495638
 30
0.0
 40
0.001
  1
YIN YANG
  3

  2
TRADENAME
 70
     0
1001
ACDBATTR
1070
     0
1070
     1
  0
ATTDEF
  5
77F
  8
DEFPOINTS
 10
4.545438211797193
 20
37.582002978289722
 30
0.0
 40
0.001
  1
BATHROOM SINK
  3

  2
PRODUCT
 70
     0
1001
ACDBATTR
1070
     0
1070
     1
  0
ATTDEF
  5
780
  8
DEFPOINTS
 10
4.545438211797193
 20
37.58033631162305
 30
0.0
 40
0.001
  1
VITREOUS CHINA
  3

  2
MATERIAL
 70
     0
1001
ACDBATTR
1070
     0
1070
     1
  0
POINT
  5
7DF
  8
DEFPOINTS
 10
4.5578103360000002
 20
43.185697371700002
 30
0.0
  0
ENDSEC
  0
EOF
