  0
SECTION
  2
HEADER
  9
$ACADVER
  1
AC1009
  9
$INSBASE
 10
4.5477825683140436
 20
7.0134334583999989
 30
0.0
  9
$EXTMIN
 10
-6.0870566351516437
 20
5.7000359410110049
 30
0.0
  9
$EXTMAX
 10
15.17796895364625
 20
9.8654125227653822
 30
0.0
  9
$LIMMIN
 10
0.0
 20
0.0
  9
$LIMMAX
 10
11.692913385800001
 20
8.2677165353999982
  9
$ORTHOMODE
 70
     0
  9
$REGENMODE
 70
     1
  9
$FILLMODE
 70
     1
  9
$QTEXTMODE
 70
     0
  9
$MIRRTEXT
 70
     0
  9
$DRAGMODE
 70
     2
  9
$LTSCALE
 40
0.6431102362
  9
$OSMODE
 70
  3071
  9
$ATTMODE
 70
     1
  9
$TEXTSIZE
 40
0.2
  9
$TRACEWID
 40
0.05
  9
$TEXTSTYLE
  7
STANDARD
  9
$CLAYER
  8
0
  9
$CELTYPE
  6
BYLAYER
  9
$CECOLOR
 62
   256
  9
$DIMSCALE
 40
1.0
  9
$DIMASZ
 40
0.1875
  9
$DIMEXO
 40
0.0625
  9
$DIMDLI
 40
0.4443307087
  9
$DIMRND
 40
0.0
  9
$DIMDLE
 40
0.0
  9
$DIMEXE
 40
0.125
  9
$DIMTP
 40
0.0
  9
$DIMTM
 40
0.0
  9
$DIMTXT
 40
0.15625
  9
$DIMCEN
 40
0.1052362205
  9
$DIMTSZ
 40
0.0
  9
$DIMTOL
 70
     0
  9
$DIMLIM
 70
     0
  9
$DIMTIH
 70
     1
  9
$DIMTOH
 70
     1
  9
$DIMSE1
 70
     0
  9
$DIMSE2
 70
     0
  9
$DIMTAD
 70
     0
  9
$DIMZIN
 70
     0
  9
$DIMBLK
  1

  9
$DIMASO
 70
     1
  9
$DIMSHO
 70
     1
  9
$DIMPOST
  1

  9
$DIMAPOST
  1

  9
$DIMALT
 70
     0
  9
$DIMALTD
 70
     2
  9
$DIMALTF
 40
25.399999999999999
  9
$DIMLFAC
 40
1.0
  9
$DIMTOFL
 70
     0
  9
$DIMTVP
 40
0.0
  9
$DIMTIX
 70
     0
  9
$DIMSOXD
 70
     0
  9
$DIMSAH
 70
     0
  9
$DIMBLK1
  1

  9
$DIMBLK2
  1

  9
$DIMSTYLE
  2
STANDARD
  9
$DIMCLRD
 70
     0
  9
$DIMCLRE
 70
     0
  9
$DIMCLRT
 70
     0
  9
$DIMTFAC
 40
1.0
  9
$DIMGAP
 40
0.09
  9
$LUNITS
 70
     2
  9
$LUPREC
 70
     4
  9
$SKETCHINC
 40
0.1
  9
$FILLETRAD
 40
0.0
  9
$AUNITS
 70
     0
  9
$AUPREC
 70
     0
  9
$MENU
  1
.
  9
$ELEVATION
 40
0.0
  9
$PELEVATION
 40
0.0
  9
$THICKNESS
 40
0.0
  9
$LIMCHECK
 70
     0
  9
$BLIPMODE
 70
     0
  9
$CHAMFERA
 40
0.0
  9
$CHAMFERB
 40
0.0
  9
$SKPOLY
 70
     0
  9
$TDCREATE
 40
2457343.6650446299
  9
$TDUPDATE
 40
2457345.4531166782
  9
$TDINDWG
 40
0.1152395833
  9
$TDUSRTIMER
 40
0.1152395833
  9
$USRTIMER
 70
     1
  9
$ANGBASE
 50
0.0
  9
$ANGDIR
 70
     0
  9
$PDMODE
 70
     0
  9
$PDSIZE
 40
0.3125
  9
$PLINEWID
 40
0.0
  9
$COORDS
 70
     1
  9
$SPLFRAME
 70
     0
  9
$SPLINETYPE
 70
     6
  9
$SPLINESEGS
 70
     8
  9
$ATTDIA
 70
     0
  9
$ATTREQ
 70
     1
  9
$HANDLING
 70
     1
  9
$HANDSEED
  5
B25
  9
$SURFTAB1
 70
     6
  9
$SURFTAB2
 70
     6
  9
$SURFTYPE
 70
     6
  9
$SURFU
 70
     6
  9
$SURFV
 70
     6
  9
$UCSNAME
  2

  9
$UCSORG
 10
0.0
 20
0.0
 30
0.0
  9
$UCSXDIR
 10
1.0
 20
0.0
 30
0.0
  9
$UCSYDIR
 10
0.0
 20
1.0
 30
0.0
  9
$PUCSNAME
  2

  9
$PUCSORG
 10
0.0
 20
0.0
 30
0.0
  9
$PUCSXDIR
 10
1.0
 20
0.0
 30
0.0
  9
$PUCSYDIR
 10
0.0
 20
1.0
 30
0.0
  9
$USERI1
 70
     0
  9
$USERI2
 70
     0
  9
$USERI3
 70
     0
  9
$USERI4
 70
     0
  9
$USERI5
 70
     0
  9
$USERR1
 40
0.0
  9
$USERR2
 40
0.0
  9
$USERR3
 40
0.0
  9
$USERR4
 40
0.0
  9
$USERR5
 40
0.0
  9
$WORLDVIEW
 70
     1
  9
$SHADEDGE
 70
     3
  9
$SHADEDIF
 70
    70
  9
$TILEMODE
 70
     1
  9
$MAXACTVP
 70
    48
  9
$PLIMCHECK
 70
     0
  9
$PEXTMIN
 10
1.0000000000000000E+020
 20
1.0000000000000000E+020
 30
1.0000000000000000E+020
  9
$PEXTMAX
 10
-1.0000000000000000E+020
 20
-1.0000000000000000E+020
 30
-1.0000000000000000E+020
  9
$PLIMMIN
 10
0.0
 20
0.0
  9
$PLIMMAX
 10
12.0
 20
9.0
  9
$UNITMODE
 70
     0
  9
$VISRETAIN
 70
     1
  9
$PLINEGEN
 70
     0
  9
$PSLTSCALE
 70
     1
  0
ENDSEC
  0
SECTION
  2
TABLES
  0
TABLE
  2
VPORT
 70
     1
  0
VPORT
  2
*ACTIVE
 70
     0
 10
0.0
 20
0.0
 11
1.0
 21
1.0
 12
4.6861310687417621
 22
7.582923624357079
 13
0.0
 23
0.0
 14
1.0
 24
1.0
 15
0.0
 25
0.0
 16
0.0
 26
0.0
 36
1.0
 17
0.0
 27
0.0
 37
0.0
 40
19.082675805498511
 41
2.0329087048832268
 42
50.0
 43
0.0
 44
0.0
 50
0.0
 51
0.0
 71
     0
 72
   100
 73
     1
 74
     1
 75
     0
 76
     0
 77
     0
 78
     0
  0
ENDTAB
  0
TABLE
  2
LTYPE
 70
     1
  0
LTYPE
  2
CONTINUOUS
 70
     0
  3
Solid line
 72
    65
 73
     0
 40
0.0
  0
ENDTAB
  0
TABLE
  2
LAYER
 70
     2
  0
LAYER
  2
0
 70
     0
 62
     7
  6
CONTINUOUS
  0
LAYER
  2
DEFPOINTS
 70
     0
 62
     7
  6
CONTINUOUS
  0
ENDTAB
  0
TABLE
  2
STYLE
 70
     1
  0
STYLE
  2
STANDARD
 70
     0
 40
0.0
 41
0.8
 50
0.0
 71
     0
 42
0.2
  3
txt
  4

  0
ENDTAB
  0
TABLE
  2
VIEW
 70
     0
  0
ENDTAB
  0
TABLE
  2
UCS
 70
     0
  0
ENDTAB
  0
TABLE
  2
APPID
 70
     5
  0
APPID
  2
ACAD
 70
     0
  0
APPID
  2
ACAD_MLEADERVER
 70
     0
  0
APPID
  2
ACAD_NAV_VCDISPLAY
 70
     0
  0
APPID
  2
ACAD_EXEMPT_FROM_CAD_STANDARDS
 70
     0
  0
APPID
  2
ACDBATTR
 70
     0
  0
ENDTAB
  0
TABLE
  2
DIMSTYLE
 70
     1
  0
DIMSTYLE
  2
STANDARD
 70
     0
  3

  4

  5

  6

  7

 40
1.0
 41
0.1875
 42
0.0625
 43
0.38
 44
0.125
 45
0.0
 46
0.0
 47
1.5
 48
1.5
140
0.15625
141
0.09
142
0.0
143
25.399999999999999
144
1.0
145
0.0
146
1.0
147
0.09
 71
     0
 72
     0
 73
     1
 74
     1
 75
     0
 76
     0
 77
     0
 78
     4
170
     0
171
     2
172
     0
173
     0
174
     0
175
     0
176
     0
177
     0
178
     0
  0
ENDTAB
  0
ENDSEC
  0
SECTION
  2
BLOCKS
  0
BLOCK
  8
0
  2
$MODEL_SPACE
 70
     0
 10
0.0
 20
0.0
 30
0.0
  3
$MODEL_SPACE
  1

  0
ENDBLK
  5
21
  8
0
  0
BLOCK
 67
     1
  8
0
  2
$PAPER_SPACE
 70
     0
 10
0.0
 20
0.0
 30
0.0
  3
$PAPER_SPACE
  1

  0
ENDBLK
  5
1D
 67
     1
  8
0
  0
ENDSEC
  0
SECTION
  2
ENTITIES
  0
LINE
  5
5C7
  8
0
 10
-6.0771441775719088
 20
9.5381714767070811
 30
0.0
 11
-5.8613001353999987
 21
8.8170075060999995
 31
0.0
  0
LINE
  5
5C8
  8
0
 10
-5.8613001353999987
 20
8.8170075060999995
 30
0.0
 11
-5.6845549790999987
 21
8.0372815302999996
 31
0.0
  0
LINE
  5
5C9
  8
0
 10
-5.6845549790999987
 20
8.0372815302999996
 30
0.0
 11
-5.5448088716098693
 21
7.1775971611035301
 31
0.0
  0
ARC
  5
5CA
  8
0
 10
-5.4258584094348521
 20
7.1934334620659222
 30
0.0
 40
0.1200000036659227
 50
187.5833980073553
 51
269.99999863199298
  0
LINE
  5
5CB
  8
0
 10
-5.4258583483000002
 20
7.0734334584000003
 30
0.0
 11
-5.3752096632972179
 21
7.0734334562999663
 31
0.0
  0
LINE
  5
5CC
  8
0
 10
-5.3752096632972179
 20
7.0734334562999663
 30
0.0
 11
-5.2834923170447619
 21
7.0324071745591432
 31
0.0
  0
ARC
  5
5D4
  8
0
 10
-5.2371541448604173
 20
7.0792922222132049
 30
0.0
 40
0.0659199051494293
 50
225.33611043431341
 51
267.53208396559847
  0
LINE
  5
5D5
  8
0
 10
-5.239992652198092
 20
7.013433458399998
 30
0.0
 11
14.336666254900001
 21
7.0134334583999998
 31
0.0
  0
ARC
  5
5D6
  8
0
 10
14.33358832361397
 20
7.0803159205858934
 30
0.0
 40
0.0669532479993846
 50
272.63489424685849
 51
315.55478247872458
  0
ARC
  5
5D7
  8
0
 10
14.47083033976029
 20
6.953433441463293
 30
0.0
 40
0.1200000168367103
 50
90.000014352731029
 51
138.18968689004689
  0
LINE
  5
5D8
  8
0
 10
14.4708303097
 20
7.0734334583000003
 30
0.0
 11
14.521479084399999
 21
7.0734334584000003
 31
0.0
  0
ARC
  5
5D9
  8
0
 10
14.521479081640321
 20
7.1934334616127229
 30
0.0
 40
0.1200000032127389
 50
269.99997095088469
 51
352.4165974118232
  0
LINE
  5
5DA
  8
0
 10
14.6404295405
 20
7.1775971513999988
 30
0.0
 11
14.7801756512
 21
8.0372815302999996
 31
0.0
  0
LINE
  5
5DB
  8
0
 10
14.7801756512
 20
8.0372815302999996
 30
0.0
 11
14.9569208073
 21
8.8170075061999995
 31
0.0
  0
LINE
  5
5DC
  8
0
 10
14.9569208073
 20
8.8170075061999995
 30
0.0
 11
15.1727093142
 21
9.5381729611000008
 31
0.0
  0
ARC
  5
5E6
  8
0
 10
5.6156453538920763
 20
-847.04329882996535
 30
0.0
 40
856.90871135273085
 50
89.375568368161694
 51
90.767452710478054
  0
LINE
  5
5ED
  8
0
 10
9.6410619724999975
 20
7.0134334583999998
 30
0.0
 11
9.6555993667320852
 21
6.9472207496280509
 31
0.0
  0
LINE
  5
5EE
  8
0
 10
9.6555993667320852
 20
6.9472207496280509
 30
0.0
 11
9.7346792155175201
 21
5.8163163819819843
 31
0.0
  0
ARC
  5
5EF
  8
0
 10
9.8593747221412151
 20
5.8250359413627182
 30
0.0
 40
0.1250000003517124
 50
183.99996536352941
 51
270.00315069893509
  0
LINE
  5
5F0
  8
0
 10
9.8593815959039937
 20
5.7000359412000003
 30
0.0
 11
12.2562390762
 21
5.7000359412000003
 31
0.0
  0
ARC
  5
5F1
  8
0
 10
12.2562459503
 20
5.8250359412000012
 30
0.0
 40
0.1250000000000009
 50
270.00000000000011
 51
356.00000000827788
  0
LINE
  5
5F2
  8
0
 10
12.380941453125921
 20
5.8163163325510121
 30
0.0
 11
12.4284128585
 21
6.4951890582000003
 31
0.0
  0
ARC
  5
5F3
  8
0
 10
12.69338080916579
 20
6.4664991324102106
 30
0.0
 40
0.266539539133347
 50
146.35058150608469
 51
173.69318852087019
  0
ARC
  5
5F4
  8
0
 10
11.734050292576271
 20
7.1338125881126704
 30
0.0
 40
0.9021312693548143
 50
324.83079756460728
 51
352.33165887161181
  0
ATTDEF
  5
6D7
  8
DEFPOINTS
 10
4.5438816011177234
 20
7.0078288487782716
 30
0.0
 40
0.001
  1
K-2354-1
  3

  2
MODELNUMBER
 70
     0
1001
ACDBATTR
1070
     0
1070
     1
  0
ATTDEF
  5
6D8
  8
DEFPOINTS
 10
4.5438816011177234
 20
7.0061621821116074
 30
0.0
 40
0.001
  1
YIN YANG
  3

  2
TRADENAME
 70
     0
1001
ACDBATTR
1070
     0
1070
     1
  0
ATTDEF
  5
6D9
  8
DEFPOINTS
 10
4.5438816011177234
 20
7.0044955154449422
 30
0.0
 40
0.001
  1
BATHROOM SINK
  3

  2
PRODUCT
 70
     0
1001
ACDBATTR
1070
     0
1070
     1
  0
ATTDEF
  5
6DA
  8
DEFPOINTS
 10
4.5438816011177234
 20
7.002828848778277
 30
0.0
 40
0.001
  1
VITREOUS CHINA
  3

  2
MATERIAL
 70
     0
1001
ACDBATTR
1070
     0
1070
     1
  0
LINE
  5
71F
  8
0
 10
-6.0771441775719097
 20
9.5381714767070811
 30
0.0
 11
15.17269106507271
 21
9.5381493818211851
 31
0.0
  0
ARC
  5
A49
  8
0
 10
14.95024152199302
 20
9.5868336696637826
 30
0.0
 40
0.2277274316532297
 50
347.6619256018389
 51
88.95769311431097
  0
ARC
  5
A51
  8
0
 10
-5.8947946380275233
 20
9.5991085012989092
 30
0.0
 40
0.1922619971241215
 50
80.160993909435135
 51
198.4784432026953
  0
ENDSEC
  0
EOF
