  0
SECTION
  2
HEADER
  9
$ACADVER
  1
AC1009
  9
$INSBASE
 10
3908.2098201858698303
 20
121.176011127408799
 30
0.0
  9
$EXTMIN
 10
3907.0476154614711959
 20
112.0518111274087971
 30
0.0
  9
$EXTMAX
 10
3911.4520445953708077
 20
122.3382111274087976
 30
0.0
  9
$LIMMIN
 10
0.0
 20
0.0
  9
$LIMMAX
 10
11.6929133858000007
 20
8.2677165353999982
  9
$ORTHOMODE
 70
     1
  9
$REGENMODE
 70
     1
  9
$FILLMODE
 70
     1
  9
$QTEXTMODE
 70
     0
  9
$MIRRTEXT
 70
     0
  9
$DRAGMODE
 70
     2
  9
$LTSCALE
 40
0.6431102362
  9
$OSMODE
 70
  4095
  9
$ATTMODE
 70
     1
  9
$TEXTSIZE
 40
0.2
  9
$TRACEWID
 40
0.05
  9
$TEXTSTYLE
  7
STANDARD
  9
$CLAYER
  8
0
  9
$CELTYPE
  6
BYLAYER
  9
$CECOLOR
 62
   256
  9
$DIMSCALE
 40
1.0
  9
$DIMASZ
 40
0.1875
  9
$DIMEXO
 40
0.0625
  9
$DIMDLI
 40
0.4443307087
  9
$DIMRND
 40
0.0
  9
$DIMDLE
 40
0.0
  9
$DIMEXE
 40
0.125
  9
$DIMTP
 40
0.01
  9
$DIMTM
 40
0.01
  9
$DIMTXT
 40
2.0
  9
$DIMCEN
 40
0.1052362205
  9
$DIMTSZ
 40
0.0
  9
$DIMTOL
 70
     1
  9
$DIMLIM
 70
     0
  9
$DIMTIH
 70
     1
  9
$DIMTOH
 70
     1
  9
$DIMSE1
 70
     0
  9
$DIMSE2
 70
     0
  9
$DIMTAD
 70
     0
  9
$DIMZIN
 70
     0
  9
$DIMBLK
  1

  9
$DIMASO
 70
     1
  9
$DIMSHO
 70
     1
  9
$DIMPOST
  1
\X
  9
$DIMAPOST
  1

  9
$DIMALT
 70
     1
  9
$DIMALTD
 70
     2
  9
$DIMALTF
 40
25.3999999999999986
  9
$DIMLFAC
 40
1.0
  9
$DIMTOFL
 70
     0
  9
$DIMTVP
 40
0.0
  9
$DIMTIX
 70
     0
  9
$DIMSOXD
 70
     0
  9
$DIMSAH
 70
     0
  9
$DIMBLK1
  1

  9
$DIMBLK2
  1

  9
$DIMSTYLE
  2
STANDARD
  9
$DIMCLRD
 70
     0
  9
$DIMCLRE
 70
     0
  9
$DIMCLRT
 70
     0
  9
$DIMTFAC
 40
1.0
  9
$DIMGAP
 40
0.09
  9
$LUNITS
 70
     2
  9
$LUPREC
 70
     4
  9
$SKETCHINC
 40
0.1
  9
$FILLETRAD
 40
0.0
  9
$AUNITS
 70
     0
  9
$AUPREC
 70
     0
  9
$MENU
  1
.
  9
$ELEVATION
 40
0.0
  9
$PELEVATION
 40
0.0
  9
$THICKNESS
 40
0.0
  9
$LIMCHECK
 70
     0
  9
$BLIPMODE
 70
     0
  9
$CHAMFERA
 40
0.0
  9
$CHAMFERB
 40
0.0
  9
$SKPOLY
 70
     0
  9
$TDCREATE
 40
2458060.468368056230247
  9
$TDUPDATE
 40
2458904.289074074011296
  9
$TDINDWG
 40
0.3679121528
  9
$TDUSRTIMER
 40
0.3679121528
  9
$USRTIMER
 70
     1
  9
$ANGBASE
 50
0.0
  9
$ANGDIR
 70
     0
  9
$PDMODE
 70
     0
  9
$PDSIZE
 40
0.3125
  9
$PLINEWID
 40
0.0
  9
$COORDS
 70
     1
  9
$SPLFRAME
 70
     0
  9
$SPLINETYPE
 70
     6
  9
$SPLINESEGS
 70
     8
  9
$ATTDIA
 70
     1
  9
$ATTREQ
 70
     1
  9
$HANDLING
 70
     1
  9
$HANDSEED
  5
6EEF
  9
$SURFTAB1
 70
     6
  9
$SURFTAB2
 70
     6
  9
$SURFTYPE
 70
     6
  9
$SURFU
 70
     6
  9
$SURFV
 70
     6
  9
$UCSNAME
  2

  9
$UCSORG
 10
0.0
 20
0.0
 30
0.0
  9
$UCSXDIR
 10
1.0
 20
0.0
 30
0.0
  9
$UCSYDIR
 10
0.0
 20
1.0
 30
0.0
  9
$PUCSNAME
  2

  9
$PUCSORG
 10
0.0
 20
0.0
 30
0.0
  9
$PUCSXDIR
 10
1.0
 20
0.0
 30
0.0
  9
$PUCSYDIR
 10
0.0
 20
1.0
 30
0.0
  9
$USERI1
 70
     0
  9
$USERI2
 70
     0
  9
$USERI3
 70
     0
  9
$USERI4
 70
     0
  9
$USERI5
 70
     0
  9
$USERR1
 40
0.0
  9
$USERR2
 40
0.0
  9
$USERR3
 40
0.0
  9
$USERR4
 40
0.0
  9
$USERR5
 40
0.0
  9
$WORLDVIEW
 70
     1
  9
$SHADEDGE
 70
     3
  9
$SHADEDIF
 70
    70
  9
$TILEMODE
 70
     1
  9
$MAXACTVP
 70
    64
  9
$PLIMCHECK
 70
     0
  9
$PEXTMIN
 10
1.0000000000000000E+20
 20
1.0000000000000000E+20
 30
1.0000000000000000E+20
  9
$PEXTMAX
 10
-1.0000000000000000E+20
 20
-1.0000000000000000E+20
 30
-1.0000000000000000E+20
  9
$PLIMMIN
 10
0.0
 20
0.0
  9
$PLIMMAX
 10
12.0
 20
9.0
  9
$UNITMODE
 70
     0
  9
$VISRETAIN
 70
     1
  9
$PLINEGEN
 70
     0
  9
$PSLTSCALE
 70
     1
  0
ENDSEC
  0
SECTION
  2
TABLES
  0
TABLE
  2
VPORT
 70
     1
  0
VPORT
  2
*ACTIVE
 70
     0
 10
0.0
 20
0.0
 11
1.0
 21
1.0
 12
0.0
 22
0.0
 13
0.0
 23
0.0
 14
1.0
 24
1.0
 15
0.0
 25
0.0
 16
0.0
 26
0.0
 36
32.0565185845926166
 17
3909.2498779296879547
 27
117.1949386596678977
 37
0.0
 40
11.1908554435636791
 41
2.1481900452488678
 42
50.0
 43
0.0
 44
0.0
 50
0.0
 51
0.0
 71
     0
 72
   100
 73
     1
 74
     1
 75
     0
 76
     0
 77
     0
 78
     0
  0
ENDTAB
  0
TABLE
  2
LTYPE
 70
     2
  0
LTYPE
  2
CONTINUOUS
 70
     0
  3
Solid line
 72
    65
 73
     0
 40
0.0
  0
LTYPE
  2
PHANTOM2
 70
     0
  3
___ _ _ ___ _ _ ___ _ _ ___ _ _
 72
    65
 73
     6
 40
1.25
 49
0.625
 49
-0.125
 49
0.125
 49
-0.125
 49
0.125
 49
-0.125
  0
ENDTAB
  0
TABLE
  2
LAYER
 70
     2
  0
LAYER
  2
0
 70
     0
 62
   255
  6
CONTINUOUS
  0
LAYER
  2
DEFPOINTS
 70
     0
 62
     7
  6
CONTINUOUS
  0
ENDTAB
  0
TABLE
  2
STYLE
 70
     1
  0
STYLE
  2
STANDARD
 70
     0
 40
0.0
 41
0.8
 50
0.0
 71
     0
 42
0.2
  3
txt
  4

  0
ENDTAB
  0
TABLE
  2
VIEW
 70
     0
  0
ENDTAB
  0
TABLE
  2
UCS
 70
     0
  0
ENDTAB
  0
TABLE
  2
APPID
 70
     9
  0
APPID
  2
ACAD
 70
     0
  0
APPID
  2
ACAD_MLEADERVER
 70
     0
  0
APPID
  2
ACAD_EXEMPT_FROM_CAD_STANDARDS
 70
     0
  0
APPID
  2
ACAD_NAV_VCDISPLAY
 70
     0
  0
APPID
  2
ACAECLAYERSTANDARD
 70
     0
  0
APPID
  2
ACCMTRANSPARENCY
 70
     0
  0
APPID
  2
ACAD_DSTYLE_DIMJAG
 70
     0
  0
APPID
  2
ACAD_DSTYLE_DIMTALN
 70
     0
  0
APPID
  2
ACDBATTR
 70
     0
  0
ENDTAB
  0
TABLE
  2
DIMSTYLE
 70
     1
  0
DIMSTYLE
  2
STANDARD
 70
     0
  3

  4

  5

  6

  7

 40
1.0
 41
0.1875
 42
0.0625
 43
0.38
 44
0.125
 45
0.0
 46
0.0
 47
0.01
 48
0.01
140
0.15625
141
0.09
142
0.0
143
25.3999999999999986
144
1.0
145
0.0
146
1.0
147
0.09
 71
     1
 72
     0
 73
     1
 74
     1
 75
     0
 76
     0
 77
     0
 78
     4
170
     0
171
     2
172
     0
173
     0
174
     0
175
     0
176
     0
177
     0
178
     0
  0
ENDTAB
  0
ENDSEC
  0
SECTION
  2
BLOCKS
  0
BLOCK
  8
0
  2
$MODEL_SPACE
 70
     0
 10
0.0
 20
0.0
 30
0.0
  3
$MODEL_SPACE
  1

  0
ENDBLK
  5
21
  8
0
  0
BLOCK
 67
     1
  8
0
  2
$PAPER_SPACE
 70
     0
 10
0.0
 20
0.0
 30
0.0
  3
$PAPER_SPACE
  1

  0
ENDBLK
  5
1D
 67
     1
  8
0
  0
ENDSEC
  0
SECTION
  2
ENTITIES
  0
ATTDEF
  5
3930
  8
DEFPOINTS
 10
3908.2065808102929623
 20
121.1801794410167048
 30
0.0
 40
0.001
  1
K-22972
  3

  2
MODELNUMBER
 70
     0
1001
ACDBATTR
1070
     0
1070
     1
  0
ATTDEF
  5
3931
  8
DEFPOINTS
 10
3908.2065808102929623
 20
121.1785127743500965
 30
0.0
 40
0.001
  1
CRUE
  3

  2
TRADENAME
 70
     0
1001
ACDBATTR
1070
     0
1070
     1
  0
ATTDEF
  5
3932
  8
DEFPOINTS
 10
3908.2065808102929623
 20
121.1768461076834029
 30
0.0
 40
0.001
  1
KITCHEN SINK FAUCET
  3

  2
PRODUCT
 70
     0
1001
ACDBATTR
1070
     0
1070
     1
  0
LINE
  5
6E3F
  8
0
 10
3910.3928910520708087
 20
122.0560064030086949
 30
0.0
 11
3910.3928910520708087
 21
120.296006585108799
 31
0.0
  0
LINE
  5
6E40
  8
0
 10
3911.2628910520711543
 20
120.2960064030088034
 30
0.0
 11
3911.2628910520711543
 21
120.951454191608704
 31
0.0
  0
LINE
  5
6E41
  8
0
 10
3911.2628910520711543
 20
121.400558614508796
 30
0.0
 11
3911.2628910520711543
 21
122.0560057905087064
 31
0.0
  0
LINE
  5
6E42
  8
0
 10
3911.1446505723538394
 20
120.9885064030086994
 30
0.0
 11
3911.2645445986709092
 21
120.9885064030086994
 31
0.0
  0
LINE
  5
6E43
  8
0
 10
3911.2645445953708077
 20
121.3635064030087989
 30
0.0
 11
3911.1446505723538394
 21
121.3635064030087989
 31
0.0
  0
LINE
  5
6E44
  8
0
 10
3911.2512861614709436
 20
120.9632634163088056
 30
0.0
 11
3911.241147690237085
 21
120.9634403839692993
 31
0.0
  0
LINE
  5
6E45
  8
0
 10
3911.2411483074561147
 20
121.3885724328252991
 30
0.0
 11
3911.2512861601708209
 21
121.3887493897088063
 31
0.0
  0
ARC
  5
6E46
  8
0
 10
3908.2098201858698303
 20
121.1760064030087989
 30
0.0
 40
1.1622047243999989
 50
51.1039015595637167
 51
128.8960984404363046
  0
ARC
  5
6E47
  8
0
 10
3908.2098201858698303
 20
121.1760064030087989
 30
0.0
 40
1.1622047243999989
 50
145.6920320582246973
 51
214.3079679417753027
  0
ARC
  5
6E48
  8
0
 10
3908.2098201858698303
 20
121.1760064030087989
 30
0.0
 40
1.1622047243999989
 50
231.177203259823898
 51
241.1483209987775069
  0
ARC
  5
6E49
  8
0
 10
3908.2098201858698303
 20
121.1760064030087989
 30
0.0
 40
1.1622047243999989
 50
298.8516790012225215
 51
308.822796740176102
  0
ARC
  5
6E4A
  8
0
 10
3910.4186947785560733
 20
120.2963393140000932
 30
0.0
 40
0.0258058715993634
 50
180.7387655700927951
 51
268.2152285217310919
  0
ARC
  5
6E4B
  8
0
 10
3910.3662102937978489
 20
120.2972004788735063
 30
0.0
 40
0.0267074567175215
 50
273.608132199273598
 51
357.4378737089490983
  0
ARC
  5
6E4C
  8
0
 10
3910.4190837606720379
 20
122.0544410784421956
 30
0.0
 40
0.0262394402532609
 50
96.0585035395826736
 51
176.5799662147391018
  0
ARC
  5
6E4D
  8
0
 10
3910.3669287907800935
 20
122.0545486160994955
 30
0.0
 40
0.0260031566163161
 50
3.213796421227356
 51
87.8792535559259278
  0
ARC
  5
6E4E
  8
0
 10
3911.2350214365178545
 20
120.2983678447043019
 30
0.0
 40
0.0279694811887836
 50
275.888800224945328
 51
355.1567959579851959
  0
ARC
  5
6E4F
  8
0
 10
3911.2502841014261321
 20
120.9506720364532981
 30
0.0
 40
0.0126311903136522
 50
3.550170410926031
 51
85.4498240693692139
  0
ARC
  5
6E50
  8
0
 10
3911.2448595559708338
 20
121.1760064030087989
 30
0.0
 40
0.2125984252
 50
91.0002410770019736
 51
268.9995925556061138
  0
ARC
  5
6E51
  8
0
 10
3911.2497014640171074
 20
121.4019133258503018
 30
0.0
 40
0.0132589770803535
 50
276.8643266411917807
 51
354.1356765808170053
  0
ARC
  5
6E52
  8
0
 10
3911.2369850700952156
 20
122.0548824053071968
 30
0.0
 40
0.0259303277346479
 50
2.4830146007789859
 51
81.5909443981246767
  0
CIRCLE
  5
6E53
  8
0
 10
3911.2645445953708077
 20
121.1760064030087989
 30
0.0
 40
0.1875
  0
LINE
  5
6E54
  8
0
 10
3907.2498159338720143
 20
122.0555400359088054
 30
0.0
 11
3907.2498159338720143
 21
120.2955398885087988
 31
0.0
  0
LINE
  5
6E55
  8
0
 10
3907.6490056182710759
 20
112.6219419117088023
 30
0.0
 11
3907.6490053814709427
 21
121.1771055235087999
 31
0.0
  0
LINE
  5
6E56
  8
0
 10
3907.6490048005712197
 20
120.2705459615088017
 30
0.0
 11
3907.274815865770961
 21
120.2705459615088017
 31
0.0
  0
ARC
  5
6E57
  8
0
 10
3908.2115931353860105
 20
112.6240643074298049
 30
0.0
 40
0.5722559264823193
 50
169.452894460088288
 51
269.822487313354884
  0
ARC
  5
6E58
  8
0
 10
3907.2760199921190178
 20
120.2967503097737989
 30
0.0
 40
0.0262319993186205
 50
182.6447341302175005
 51
267.3690297773072189
  0
ARC
  5
6E59
  8
0
 10
3907.2777531779020137
 20
122.0525960116191015
 30
0.0
 40
0.0280919362639443
 50
96.0018574329190386
 51
173.9843779715926928
  0
ARC
  5
6E5A
  8
0
 10
3908.2098341501709911
 20
121.1755211698088033
 30
0.0
 40
0.8650112556999999
 50
90.0009249538192648
 51
229.5827987003983992
  0
ARC
  5
6E5B
  8
0
 10
3908.209822527371216
 20
121.1755352639087988
 30
0.0
 40
0.5691454201
 50
90.0002357184410329
 51
189.8137411113131066
  0
ARC
  5
6E5C
  8
0
 10
3908.2202573576141731
 20
112.6321800703445035
 30
0.0
 40
0.5713434777735265
 50
181.0267635859391078
 51
268.9532756049309796
  0
ARC
  5
6E5D
  8
0
 10
3908.22376997136098
 20
121.1608466986388066
 30
0.0
 40
0.5749945070847038
 50
91.3901737323272556
 51
178.3796606436825982
  0
LINE
  5
6E5E
  8
0
 10
3908.7706347534708584
 20
112.6219419117088023
 30
0.0
 11
3908.7706349902709917
 21
121.1771055235087999
 31
0.0
  0
LINE
  5
6E5F
  8
0
 10
3908.7706355711711694
 20
120.2705459615088017
 30
0.0
 11
3910.3678910520711725
 21
120.2705459615088017
 31
0.0
  0
LINE
  5
6E60
  8
0
 10
3910.4178910520718091
 20
120.2705459615088017
 30
0.0
 11
3911.2378910520710633
 21
120.2705459615088017
 31
0.0
  0
ARC
  5
6E61
  8
0
 10
3908.2098062215718528
 20
121.1755211698088033
 30
0.0
 40
0.8650112556999999
 50
310.4172012996015724
 51
89.9990750461807352
  0
ARC
  5
6E62
  8
0
 10
3908.2098178443720826
 20
121.1755352639087988
 30
0.0
 40
0.5691454201
 50
350.1862588886868934
 51
89.9997642815589529
  0
ARC
  5
6E63
  8
0
 10
3908.199383014128216
 20
112.6321800703445035
 30
0.0
 40
0.5713434777735265
 50
271.0467243950690204
 51
358.9732364140601248
  0
ARC
  5
6E64
  8
0
 10
3908.1958704003809544
 20
121.1608466986388066
 30
0.0
 40
0.5749945070847038
 50
1.6203393563174091
 51
88.6098262676727586
  0
LINE
  5
6E65
  8
0
 10
3907.2748158652711936
 20
122.0805339621088024
 30
0.0
 11
3910.3678910520720819
 21
122.0805339621088024
 31
0.0
  0
LINE
  5
6E66
  8
0
 10
3910.4163143479599967
 20
122.0805339621088024
 30
0.0
 11
3911.2407771051812233
 21
122.0805339621088024
 31
0.0
  0
ARC
  5
6E67
  8
0
 10
3908.2080472363568333
 20
112.6240643074298049
 30
0.0
 40
0.5722559264823315
 50
270.177512686645116
 51
10.5471055399108398
  0
ENDSEC
  0
EOF
