  0
SECTION
  2
HEADER
  9
$ACADVER
  1
AC1009
  9
$INSBASE
 10
3896.4625458799291664
 20
128.3671239103431105
 30
0.0
  9
$EXTMIN
 10
3895.3003411555291677
 20
128.3614751575383934
 30
0.0
  9
$EXTMAX
 10
3899.7047702894737995
 20
145.3171001291821938
 30
0.0
  9
$LIMMIN
 10
0.0
 20
0.0
  9
$LIMMAX
 10
11.6929133858000007
 20
8.2677165353999982
  9
$ORTHOMODE
 70
     1
  9
$REGENMODE
 70
     1
  9
$FILLMODE
 70
     1
  9
$QTEXTMODE
 70
     0
  9
$MIRRTEXT
 70
     0
  9
$DRAGMODE
 70
     2
  9
$LTSCALE
 40
0.6431102362
  9
$OSMODE
 70
  4095
  9
$ATTMODE
 70
     1
  9
$TEXTSIZE
 40
0.2
  9
$TRACEWID
 40
0.05
  9
$TEXTSTYLE
  7
STANDARD
  9
$CLAYER
  8
0
  9
$CELTYPE
  6
BYLAYER
  9
$CECOLOR
 62
   256
  9
$DIMSCALE
 40
1.0
  9
$DIMASZ
 40
0.1875
  9
$DIMEXO
 40
0.0625
  9
$DIMDLI
 40
0.4443307087
  9
$DIMRND
 40
0.0
  9
$DIMDLE
 40
0.0
  9
$DIMEXE
 40
0.125
  9
$DIMTP
 40
0.01
  9
$DIMTM
 40
0.01
  9
$DIMTXT
 40
2.0
  9
$DIMCEN
 40
0.1052362205
  9
$DIMTSZ
 40
0.0
  9
$DIMTOL
 70
     1
  9
$DIMLIM
 70
     0
  9
$DIMTIH
 70
     1
  9
$DIMTOH
 70
     1
  9
$DIMSE1
 70
     0
  9
$DIMSE2
 70
     0
  9
$DIMTAD
 70
     0
  9
$DIMZIN
 70
     0
  9
$DIMBLK
  1

  9
$DIMASO
 70
     1
  9
$DIMSHO
 70
     1
  9
$DIMPOST
  1
\X
  9
$DIMAPOST
  1

  9
$DIMALT
 70
     1
  9
$DIMALTD
 70
     2
  9
$DIMALTF
 40
25.3999999999999986
  9
$DIMLFAC
 40
1.0
  9
$DIMTOFL
 70
     0
  9
$DIMTVP
 40
0.0
  9
$DIMTIX
 70
     0
  9
$DIMSOXD
 70
     0
  9
$DIMSAH
 70
     0
  9
$DIMBLK1
  1

  9
$DIMBLK2
  1

  9
$DIMSTYLE
  2
STANDARD
  9
$DIMCLRD
 70
     0
  9
$DIMCLRE
 70
     0
  9
$DIMCLRT
 70
     0
  9
$DIMTFAC
 40
1.0
  9
$DIMGAP
 40
0.09
  9
$LUNITS
 70
     2
  9
$LUPREC
 70
     4
  9
$SKETCHINC
 40
0.1
  9
$FILLETRAD
 40
0.0
  9
$AUNITS
 70
     0
  9
$AUPREC
 70
     0
  9
$MENU
  1
.
  9
$ELEVATION
 40
0.0
  9
$PELEVATION
 40
0.0
  9
$THICKNESS
 40
0.0
  9
$LIMCHECK
 70
     0
  9
$BLIPMODE
 70
     0
  9
$CHAMFERA
 40
0.0
  9
$CHAMFERB
 40
0.0
  9
$SKPOLY
 70
     0
  9
$TDCREATE
 40
2458060.468368056230247
  9
$TDUPDATE
 40
2458904.2889583338983357
  9
$TDINDWG
 40
0.3665001157
  9
$TDUSRTIMER
 40
0.3665001157
  9
$USRTIMER
 70
     1
  9
$ANGBASE
 50
0.0
  9
$ANGDIR
 70
     0
  9
$PDMODE
 70
     0
  9
$PDSIZE
 40
0.3125
  9
$PLINEWID
 40
0.0
  9
$COORDS
 70
     1
  9
$SPLFRAME
 70
     0
  9
$SPLINETYPE
 70
     6
  9
$SPLINESEGS
 70
     8
  9
$ATTDIA
 70
     1
  9
$ATTREQ
 70
     1
  9
$HANDLING
 70
     1
  9
$HANDSEED
  5
6F69
  9
$SURFTAB1
 70
     6
  9
$SURFTAB2
 70
     6
  9
$SURFTYPE
 70
     6
  9
$SURFU
 70
     6
  9
$SURFV
 70
     6
  9
$UCSNAME
  2

  9
$UCSORG
 10
0.0
 20
0.0
 30
0.0
  9
$UCSXDIR
 10
1.0
 20
0.0
 30
0.0
  9
$UCSYDIR
 10
0.0
 20
1.0
 30
0.0
  9
$PUCSNAME
  2

  9
$PUCSORG
 10
0.0
 20
0.0
 30
0.0
  9
$PUCSXDIR
 10
1.0
 20
0.0
 30
0.0
  9
$PUCSYDIR
 10
0.0
 20
1.0
 30
0.0
  9
$USERI1
 70
     0
  9
$USERI2
 70
     0
  9
$USERI3
 70
     0
  9
$USERI4
 70
     0
  9
$USERI5
 70
     0
  9
$USERR1
 40
0.0
  9
$USERR2
 40
0.0
  9
$USERR3
 40
0.0
  9
$USERR4
 40
0.0
  9
$USERR5
 40
0.0
  9
$WORLDVIEW
 70
     1
  9
$SHADEDGE
 70
     3
  9
$SHADEDIF
 70
    70
  9
$TILEMODE
 70
     1
  9
$MAXACTVP
 70
    64
  9
$PLIMCHECK
 70
     0
  9
$PEXTMIN
 10
1.0000000000000000E+20
 20
1.0000000000000000E+20
 30
1.0000000000000000E+20
  9
$PEXTMAX
 10
-1.0000000000000000E+20
 20
-1.0000000000000000E+20
 30
-1.0000000000000000E+20
  9
$PLIMMIN
 10
0.0
 20
0.0
  9
$PLIMMAX
 10
12.0
 20
9.0
  9
$UNITMODE
 70
     0
  9
$VISRETAIN
 70
     1
  9
$PLINEGEN
 70
     0
  9
$PSLTSCALE
 70
     1
  0
ENDSEC
  0
SECTION
  2
TABLES
  0
TABLE
  2
VPORT
 70
     1
  0
VPORT
  2
*ACTIVE
 70
     0
 10
0.0
 20
0.0
 11
1.0
 21
1.0
 12
0.0
 22
0.0
 13
0.0
 23
0.0
 14
1.0
 24
1.0
 15
0.0
 25
0.0
 16
0.0
 26
0.0
 36
50.1874896141951083
 17
3897.5025634765629547
 27
136.839284026523103
 37
0.0
 40
17.5197650930914115
 41
2.1481900452488678
 42
50.0
 43
0.0
 44
0.0
 50
0.0
 51
0.0
 71
     0
 72
   100
 73
     1
 74
     1
 75
     0
 76
     0
 77
     0
 78
     0
  0
ENDTAB
  0
TABLE
  2
LTYPE
 70
     2
  0
LTYPE
  2
CONTINUOUS
 70
     0
  3
Solid line
 72
    65
 73
     0
 40
0.0
  0
LTYPE
  2
PHANTOM2
 70
     0
  3
___ _ _ ___ _ _ ___ _ _ ___ _ _
 72
    65
 73
     6
 40
1.25
 49
0.625
 49
-0.125
 49
0.125
 49
-0.125
 49
0.125
 49
-0.125
  0
ENDTAB
  0
TABLE
  2
LAYER
 70
     2
  0
LAYER
  2
0
 70
     0
 62
   255
  6
CONTINUOUS
  0
LAYER
  2
DEFPOINTS
 70
     0
 62
     7
  6
CONTINUOUS
  0
ENDTAB
  0
TABLE
  2
STYLE
 70
     1
  0
STYLE
  2
STANDARD
 70
     0
 40
0.0
 41
0.8
 50
0.0
 71
     0
 42
0.2
  3
txt
  4

  0
ENDTAB
  0
TABLE
  2
VIEW
 70
     0
  0
ENDTAB
  0
TABLE
  2
UCS
 70
     0
  0
ENDTAB
  0
TABLE
  2
APPID
 70
     9
  0
APPID
  2
ACAD
 70
     0
  0
APPID
  2
ACAD_MLEADERVER
 70
     0
  0
APPID
  2
ACAD_EXEMPT_FROM_CAD_STANDARDS
 70
     0
  0
APPID
  2
ACAD_NAV_VCDISPLAY
 70
     0
  0
APPID
  2
ACAECLAYERSTANDARD
 70
     0
  0
APPID
  2
ACCMTRANSPARENCY
 70
     0
  0
APPID
  2
ACAD_DSTYLE_DIMJAG
 70
     0
  0
APPID
  2
ACAD_DSTYLE_DIMTALN
 70
     0
  0
APPID
  2
ACDBATTR
 70
     0
  0
ENDTAB
  0
TABLE
  2
DIMSTYLE
 70
     1
  0
DIMSTYLE
  2
STANDARD
 70
     0
  3

  4

  5

  6

  7

 40
1.0
 41
0.1875
 42
0.0625
 43
0.38
 44
0.125
 45
0.0
 46
0.0
 47
0.01
 48
0.01
140
0.15625
141
0.09
142
0.0
143
25.3999999999999986
144
1.0
145
0.0
146
1.0
147
0.09
 71
     1
 72
     0
 73
     1
 74
     1
 75
     0
 76
     0
 77
     0
 78
     4
170
     0
171
     2
172
     0
173
     0
174
     0
175
     0
176
     0
177
     0
178
     0
  0
ENDTAB
  0
ENDSEC
  0
SECTION
  2
BLOCKS
  0
BLOCK
  8
0
  2
$MODEL_SPACE
 70
     0
 10
0.0
 20
0.0
 30
0.0
  3
$MODEL_SPACE
  1

  0
ENDBLK
  5
21
  8
0
  0
BLOCK
 67
     1
  8
0
  2
$PAPER_SPACE
 70
     0
 10
0.0
 20
0.0
 30
0.0
  3
$PAPER_SPACE
  1

  0
ENDBLK
  5
1D
 67
     1
  8
0
  0
ENDSEC
  0
SECTION
  2
ENTITIES
  0
ATTDEF
  5
3930
  8
DEFPOINTS
 10
3896.4574664218462203
 20
128.3648084908716953
 30
0.0
 40
0.001
  1
K-22972
  3

  2
MODELNUMBER
 70
     0
1001
ACDBATTR
1070
     0
1070
     1
  0
ATTDEF
  5
3931
  8
DEFPOINTS
 10
3896.4574664218462203
 20
128.363141824205087
 30
0.0
 40
0.001
  1
CRUE
  3

  2
TRADENAME
 70
     0
1001
ACDBATTR
1070
     0
1070
     1
  0
ATTDEF
  5
3932
  8
DEFPOINTS
 10
3896.4574664218462203
 20
128.3614751575383934
 30
0.0
 40
0.001
  1
KITCHEN SINK FAUCET
  3

  2
PRODUCT
 70
     0
1001
ACDBATTR
1070
     0
1070
     1
  0
LINE
  5
6E4F
  8
0
 10
3895.3003411555291677
 20
128.4877172308430886
 30
0.0
 11
3895.3003411555291677
 21
128.6829335586431
 31
0.0
  0
LINE
  5
6E50
  8
0
 10
3898.6456167461287805
 20
135.1342056487430909
 30
0.0
 11
3898.6456167461287805
 21
133.3742209389430968
 31
0.0
  0
LINE
  5
6E51
  8
0
 10
3899.3297702894287795
 20
133.324842009243099
 30
0.0
 11
3899.3297702894287795
 21
133.377123027387313
 31
0.0
  0
LINE
  5
6E52
  8
0
 10
3899.3297702894287795
 20
135.1468744903968116
 30
0.0
 11
3899.3297702894287795
 21
137.4435845784431081
 31
0.0
  0
LINE
  5
6E53
  8
0
 10
3899.5156167461291261
 20
133.403345322643105
 30
0.0
 11
3899.5156167461291261
 21
135.1050812650431112
 31
0.0
  0
LINE
  5
6E54
  8
0
 10
3895.3374002032292083
 20
128.7312298499431051
 30
0.0
 11
3895.5048937046290121
 21
128.776628936043096
 31
0.0
  0
LINE
  5
6E55
  8
0
 10
3899.1155810415289125
 20
133.3761680553431006
 30
0.0
 11
3899.4906700052288215
 21
133.3778404057430862
 31
0.0
  0
LINE
  5
6E56
  8
0
 10
3899.3576287520281767
 20
133.2949185432431136
 30
0.0
 11
3899.6769127410548208
 21
133.2949185432431136
 31
0.0
  0
LINE
  5
6E57
  8
0
 10
3896.0841143276347793
 20
140.0915982733430951
 30
0.0
 11
3896.0901600830320604
 21
140.0881030407425101
 31
0.0
  0
LINE
  5
6E58
  8
0
 10
3899.6769118267288832
 20
137.4735080444430935
 30
0.0
 11
3899.3576296663291032
 21
137.4735080444430935
 31
0.0
  0
ARC
  5
6E59
  8
0
 10
3895.3573623779871014
 20
128.6775459851625953
 30
0.0
 40
0.0572751757623572
 50
110.3974912686669967
 51
174.6025087323332912
  0
ARC
  5
6E5A
  8
0
 10
3895.3550972661669221
 20
128.4918000399044899
 30
0.0
 40
0.0549081139909636
 50
184.264284684311491
 51
257.0235688746258802
  0
ARC
  5
6E5B
  8
0
 10
3899.3597702894289796
 20
133.324842009243099
 30
0.0
 40
0.03
 50
180.0
 51
265.9064832725011911
  0
ARC
  5
6E5C
  8
0
 10
3899.4880701108841095
 20
133.4053362500600883
 30
0.0
 40
0.0276184884689596
 50
275.401594059344518
 51
355.8661472064833902
  0
ARC
  5
6E5D
  8
0
 10
3898.6698033735729041
 20
133.3739240377699957
 30
0.0
 40
0.0241884496700823
 50
179.2967051805476899
 51
265.8860566217047108
  0
ARC
  5
6E5E
  8
0
 10
3898.6192937672808512
 20
133.3761354303294979
 30
0.0
 40
0.0263925082684505
 50
273.7020172218681182
 51
355.8401565064586975
  0
ARC
  5
6E5F
  8
0
 10
3899.3622105284011923
 20
137.4413125991572997
 30
0.0
 40
0.0325197016357626
 50
98.0978574161741221
 51
175.9937837732202865
  0
ARC
  5
6E60
  8
0
 10
3898.67410263189322
 20
135.1313775967568915
 30
0.0
 40
0.0286259247156878
 50
96.994483153542177
 51
174.3303075677046934
  0
ARC
  5
6E61
  8
0
 10
3898.6154838255260984
 20
135.1297680980017901
 30
0.0
 40
0.0304579178647933
 50
8.3774974969654323
 51
80.2979333381014158
  0
LINE
  5
6E62
  8
0
 10
3895.5025416279290766
 20
135.1347923186430933
 30
0.0
 11
3895.5025416279290766
 21
133.3747959632430877
 31
0.0
  0
LINE
  5
6E63
  8
0
 10
3895.5975485885292073
 20
128.8973696969430875
 30
0.0
 11
3895.5975485885292073
 21
133.2386841332431118
 31
0.0
  0
LINE
  5
6E64
  8
0
 10
3895.5975485885292073
 20
135.2709047140700989
 30
0.0
 11
3895.5975485885292073
 21
136.4087637547430916
 31
0.0
  0
LINE
  5
6E65
  8
0
 10
3895.3098686359289786
 20
128.3751353465430896
 30
0.0
 11
3895.3107685126287834
 21
128.4266892480430897
 31
0.0
  0
LINE
  5
6E66
  8
0
 10
3895.9017311939292085
 20
144.7586716392659127
 30
0.0
 11
3895.9017311939292085
 21
136.4087767546430996
 31
0.0
  0
LINE
  5
6E67
  8
0
 10
3895.3225777373281744
 20
128.4382941409430998
 30
0.0
 11
3897.6025140225287942
 21
128.4382941409430998
 31
0.0
  0
LINE
  5
6E68
  8
0
 10
3897.4475422034288385
 20
133.3498001405430955
 30
0.0
 11
3898.6209978640281406
 21
133.3497979941031133
 31
0.0
  0
LINE
  5
6E69
  8
0
 10
3898.6680680899057734
 20
133.3497979131736884
 30
0.0
 11
3898.9053464572689336
 21
133.3497974785576048
 31
0.0
  0
LINE
  5
6E6A
  8
0
 10
3897.4475424428292172
 20
135.1597881412430979
 30
0.0
 11
3898.6206167441177968
 21
135.159790388177214
 31
0.0
  0
LINE
  5
6E6B
  8
0
 10
3898.6706167450229259
 20
135.1597904839483988
 30
0.0
 11
3899.2723171494922099
 21
135.159791636459488
 31
0.0
  0
LINE
  5
6E6C
  8
0
 10
3895.9017311939292085
 20
136.4568867362430922
 30
0.0
 11
3895.6339970695289594
 21
136.4568867362430922
 31
0.0
  0
LINE
  5
6E6D
  8
0
 10
3895.6339970695289594
 20
136.4568867362430922
 30
0.0
 11
3895.9017311939292085
 21
136.5323250595608897
 31
0.0
  0
ARC
  5
6E6E
  8
0
 10
3895.4640014070510006
 20
128.9039306061380046
 30
0.0
 40
0.1337082466048013
 50
287.8082427123918023
 51
357.1874328586752085
  0
ARC
  5
6E6F
  8
0
 10
3895.3236092199999803
 20
128.4254334729509139
 30
0.0
 40
0.0129019664278836
 50
94.5855601168921538
 51
174.4144398830999876
  0
ARC
  5
6E70
  8
0
 10
3895.3184956365298603
 20
128.3757390606961906
 30
0.0
 40
0.0086480985924766
 50
184.0030103526802066
 51
264.9969896472161963
  0
ARC
  5
6E71
  8
0
 10
3895.5316376389027937
 20
135.1319177384677062
 30
0.0
 40
0.0292376651915934
 50
115.598977417886104
 51
174.3576952624719922
  0
ARC
  5
6E72
  8
0
 10
3895.5310439537511229
 20
133.3772434189031912
 30
0.0
 40
0.0286072126655526
 50
184.9078710972052875
 51
245.1056358928659904
  0
ARC
  5
6E73
  8
0
 10
3895.910115370244057
 20
136.4092561754222004
 30
0.0
 40
0.0083978721575336
 50
183.2727016038610088
 51
266.5170134764736076
  0
ARC
  5
6E74
  8
0
 10
3895.936675504743107
 20
140.1266653177686123
 30
0.0
 40
0.0353094811148681
 50
188.2473549830604043
 51
263.2820009371387755
  0
ARC
  5
6E75
  8
0
 10
3895.4581478098948537
 20
133.225149251125714
 30
0.0
 40
0.1400563105242232
 50
5.5456536119933233
 51
64.2467137045081387
  0
ARC
  5
6E76
  8
0
 10
3895.460227602348823
 20
135.2829771517438076
 30
0.0
 40
0.1378506329209883
 50
295.2383088103545106
 51
354.9758158222680891
  0
ARC
  5
6E77
  8
0
 10
3895.6497101283412121
 20
136.4071210399222878
 30
0.0
 40
0.0521874002755947
 50
107.5230303810269987
 51
178.1961895913476894
  0
ARC
  5
6E78
  8
0
 10
3896.4898633932248231
 20
144.7288461024533888
 30
0.0
 40
0.5888879744868764
 50
92.6588080845876334
 51
177.0968861908305882
  0
LINE
  5
6E79
  8
0
 10
3895.9325449052880685
 20
140.0915982733430951
 30
0.0
 11
3896.9924949515211665
 21
140.0915982733430951
 31
0.0
  0
ARC
  5
6E7A
  8
0
 10
3897.1175285753311073
 20
132.670816257111909
 30
0.0
 40
1.488012510057942
 50
121.8302805518497962
 51
136.9546997738387972
  0
ARC
  5
6E7B
  8
0
 10
3904.668593381753908
 20
125.0843732964213046
 30
0.0
 40
12.1910082106514093
 50
135.1209691412767882
 51
137.7719319395347952
  0
ARC
  5
6E7C
  8
0
 10
3895.4449723273119162
 20
133.4543629814608892
 30
0.0
 40
0.2641909935165207
 50
305.2764813124470038
 51
318.0475548539798751
  0
ARC
  5
6E7D
  8
0
 10
3900.0835180304279675
 20
139.1107925491270123
 30
0.0
 40
5.897303101619741
 50
221.1285422235164901
 51
229.6407767918248908
  0
ARC
  5
6E7E
  8
0
 10
3895.4536880124769596
 20
135.0650006613876997
 30
0.0
 40
0.2511818947555303
 50
41.6217370173272485
 51
55.0588573738114988
  0
LINE
  5
6E7F
  8
0
 10
3896.4226372274411005
 20
136.3505869868237141
 30
0.0
 11
3896.4192650810409759
 21
136.3965068983237074
 31
0.0
  0
ARC
  5
6E80
  8
0
 10
3896.4308378160840221
 20
136.3515378553381083
 30
0.0
 40
0.0082555317398846
 50
186.6139814264167001
 51
267.5860159092744084
  0
ARC
  5
6E81
  8
0
 10
3896.4129827850420043
 20
136.396045555523699
 30
0.0
 40
0.0062992126
 50
4.1999986669008251
 51
50.039393769635538
  0
LINE
  5
6E82
  8
0
 10
3896.4304900971578718
 20
136.3432896497236868
 30
0.0
 11
3896.4946016627000063
 21
136.3432896497236868
 31
0.0
  0
LINE
  5
6E83
  8
0
 10
3896.2913542095789126
 20
136.3505869868237141
 30
0.0
 11
3896.2879820631787879
 21
136.3965068983237074
 31
0.0
  0
LINE
  5
6E84
  8
0
 10
3896.3711540766789767
 20
136.3505869850237104
 30
0.0
 11
3896.374526225279169
 21
136.3965068963237002
 31
0.0
  0
ARC
  5
6E85
  8
0
 10
3896.2995547982209246
 20
136.3515378553381083
 30
0.0
 40
0.0082555317398846
 50
186.6139814264167001
 51
267.5860159092744084
  0
ARC
  5
6E86
  8
0
 10
3896.3619588618539638
 20
136.3526050967377046
 30
0.0
 40
0.0094140718822864
 50
278.3008386907189902
 51
347.6213240950618228
  0
ARC
  5
6E87
  8
0
 10
3896.2816997671789068
 20
136.396045555523699
 30
0.0
 40
0.0062992126
 50
4.1999986669008251
 51
50.039393769635538
  0
ARC
  5
6E88
  8
0
 10
3896.3808085211790058
 20
136.3960455532237006
 30
0.0
 40
0.0062992126
 50
129.9605736577385073
 51
175.7999986707002051
  0
LINE
  5
6E89
  8
0
 10
3896.2992070792961385
 20
136.3432896497236868
 30
0.0
 11
3896.3633179778657905
 21
136.3432896497236868
 31
0.0
  0
LINE
  5
6E8A
  8
0
 10
3896.1761945879920859
 20
136.3505890691041884
 30
0.0
 11
3896.1728224415919613
 21
136.3965089806042101
 31
0.0
  0
LINE
  5
6E8B
  8
0
 10
3896.2559944550907858
 20
136.3505890673042131
 30
0.0
 11
3896.2593666036909781
 21
136.3965089786042881
 31
0.0
  0
ARC
  5
6E8C
  8
0
 10
3896.1843951766340979
 20
136.351539937618611
 30
0.0
 40
0.0082555317398846
 50
186.6139814264167001
 51
267.5860159092744084
  0
ARC
  5
6E8D
  8
0
 10
3896.2467992402657728
 20
136.3526071790182925
 30
0.0
 40
0.0094140718822864
 50
278.3008386907189902
 51
347.6213240950618228
  0
ARC
  5
6E8E
  8
0
 10
3896.1665401455911706
 20
136.396047637804287
 30
0.0
 40
0.0062992126
 50
4.1999986669008251
 51
50.0099135359117
  0
ARC
  5
6E8F
  8
0
 10
3896.2656488995908148
 20
136.3960476355042886
 30
0.0
 40
0.0062992126
 50
129.9900539114289018
 51
175.7999986707002051
  0
LINE
  5
6E90
  8
0
 10
3896.1840474577079476
 20
136.3432917320043032
 30
0.0
 11
3896.2481583562789638
 21
136.3432917320043032
 31
0.0
  0
LINE
  5
6E91
  8
0
 10
3896.0902028368409447
 20
136.3505922316043097
 30
0.0
 11
3896.08683069044082
 21
136.396512143104303
 31
0.0
  0
LINE
  5
6E92
  8
0
 10
3896.1700027039419183
 20
136.350592229804306
 30
0.0
 11
3896.1730985309300195
 21
136.3927493579595023
 31
0.0
  0
ARC
  5
6E93
  8
0
 10
3896.0984034254829567
 20
136.3515431001185902
 30
0.0
 40
0.0082555317398846
 50
186.6139814264167001
 51
267.5860159092744084
  0
ARC
  5
6E94
  8
0
 10
3896.1608074891169053
 20
136.3526103415183002
 30
0.0
 40
0.0094140718822864
 50
278.3008386907189902
 51
347.6213240950618228
  0
ARC
  5
6E95
  8
0
 10
3896.0805483944409389
 20
136.3960508003042946
 30
0.0
 40
0.0062992126
 50
4.1999986669008251
 51
49.9651744691804396
  0
LINE
  5
6E96
  8
0
 10
3896.0980557065581706
 20
136.3432948945041971
 30
0.0
 11
3896.1621666051291868
 21
136.3432948945041971
 31
0.0
  0
LINE
  5
6E97
  8
0
 10
3896.0446832612688013
 20
136.3505922316043097
 30
0.0
 11
3896.0413111148700409
 21
136.396512143104303
 31
0.0
  0
ARC
  5
6E98
  8
0
 10
3896.0528838499121775
 20
136.3515431001185902
 30
0.0
 40
0.0082555317398846
 50
186.6139814264167001
 51
267.5860159092744084
  0
ARC
  5
6E99
  8
0
 10
3896.0350288188701597
 20
136.3960508003042946
 30
0.0
 40
0.0062992126
 50
4.1999986669008251
 51
49.9651744691804396
  0
LINE
  5
6E9A
  8
0
 10
3896.0525361309869368
 20
136.3432948945041971
 30
0.0
 11
3896.0980557065581706
 21
136.3432948945041971
 31
0.0
  0
LINE
  5
6E9B
  8
0
 10
3897.3275431713291255
 20
128.8973696969430875
 30
0.0
 11
3897.3275431713291255
 21
133.2386841332431118
 31
0.0
  0
LINE
  5
6E9C
  8
0
 10
3897.3275431713291255
 20
135.2709047140700989
 30
0.0
 11
3897.3275431713291255
 21
136.4087637547430916
 31
0.0
  0
LINE
  5
6E9D
  8
0
 10
3897.6152231239288994
 20
128.3751353465430896
 30
0.0
 11
3897.6143232472290947
 21
128.4266892480430897
 31
0.0
  0
LINE
  5
6E9E
  8
0
 10
3897.0233605659291243
 20
144.7586716392659127
 30
0.0
 11
3897.0233605659291243
 21
136.4087767546430996
 31
0.0
  0
LINE
  5
6E9F
  8
0
 10
3897.0233605659291243
 20
136.4568867362430922
 30
0.0
 11
3897.2910946903289187
 21
136.4568867362430922
 31
0.0
  0
LINE
  5
6EA0
  8
0
 10
3897.2910946903289187
 20
136.4568867362430922
 30
0.0
 11
3897.0233605659291243
 21
136.5323250595608897
 31
0.0
  0
ARC
  5
6EA1
  8
0
 10
3897.4610903528068775
 20
128.9039306061380046
 30
0.0
 40
0.1337082466048013
 50
182.8125671413239104
 51
252.1917572876081977
  0
ARC
  5
6EA2
  8
0
 10
3897.6014825398569883
 20
128.4254334729509139
 30
0.0
 40
0.0129019664278836
 50
5.5855601168999636
 51
85.414439883081883
  0
ARC
  5
6EA3
  8
0
 10
3897.6065961233271082
 20
128.3757390606961906
 30
0.0
 40
0.0086480985924766
 50
275.0030103527838037
 51
355.9969896473198219
  0
ARC
  5
6EA4
  8
0
 10
3897.0149567264888901
 20
136.4092649644834978
 30
0.0
 40
0.008418008445818
 50
274.5781931010577068
 51
356.6752150133145847
  0
ARC
  5
6EA5
  8
0
 10
3896.988364352066128
 20
140.1266653177686123
 30
0.0
 40
0.0353094811148681
 50
276.7179990628612245
 51
351.752645016939482
  0
ARC
  5
6EA6
  8
0
 10
3897.4599535456541162
 20
133.216042486657301
 30
0.0
 40
0.1343322425512553
 50
95.3012825226562654
 51
170.2964991990322972
  0
ARC
  5
6EA7
  8
0
 10
3897.4481710040490725
 20
135.280821264431097
 30
0.0
 40
0.1210347553302024
 50
184.6995929502128035
 51
269.7024485498430977
  0
ARC
  5
6EA8
  8
0
 10
3897.2753816315171207
 20
136.4071210399222878
 30
0.0
 40
0.0521874002755947
 50
1.80381040865222
 51
72.4769696189729444
  0
ARC
  5
6EA9
  8
0
 10
3896.435228366633055
 20
144.7288461024535025
 30
0.0
 40
0.5888879744867923
 50
2.903113809162075
 51
87.3411919154124092
  0
ARC
  5
6EAA
  8
0
 10
3895.807563184528135
 20
132.670816257111909
 30
0.0
 40
1.488012510057942
 50
43.0453002261612099
 51
58.1697194481501612
  0
ARC
  5
6EAB
  8
0
 10
3888.2564983781030605
 20
125.0843732964213046
 30
0.0
 40
12.1910082106514093
 50
42.2280680604651693
 51
44.8790308587231266
  0
ARC
  5
6EAC
  8
0
 10
3897.4801194325450524
 20
133.4543629814608892
 30
0.0
 40
0.2641909935165207
 50
221.9524451460200964
 51
234.7235186875529109
  0
ARC
  5
6EAD
  8
0
 10
3892.8415737294299106
 20
139.1107925491270123
 30
0.0
 40
5.897303101619741
 50
310.3592232081750808
 51
318.8714577764835099
  0
ARC
  5
6EAE
  8
0
 10
3897.471403747380009
 20
135.0650006613876997
 30
0.0
 40
0.2511818947555303
 50
124.9411426261884941
 51
138.3782629826727089
  0
LINE
  5
6EAF
  8
0
 10
3896.502454532415868
 20
136.3505869868237141
 30
0.0
 11
3896.5058266788159926
 21
136.3965068983237074
 31
0.0
  0
ARC
  5
6EB0
  8
0
 10
3896.494253943773856
 20
136.3515378553381083
 30
0.0
 40
0.0082555317398846
 50
272.4139840907255916
 51
353.3860185735824757
  0
ARC
  5
6EB1
  8
0
 10
3896.5121089748167833
 20
136.396045555523699
 30
0.0
 40
0.0062992126
 50
129.960606230364391
 51
175.8000013330992033
  0
LINE
  5
6EB2
  8
0
 10
3896.6337375502789655
 20
136.3505869868237141
 30
0.0
 11
3896.6371096966790901
 21
136.3965068983237074
 31
0.0
  0
LINE
  5
6EB3
  8
0
 10
3896.5539376831789014
 20
136.3505869850237104
 30
0.0
 11
3896.5505655345791638
 21
136.3965068963237002
 31
0.0
  0
ARC
  5
6EB4
  8
0
 10
3896.625536961636044
 20
136.3515378553381083
 30
0.0
 40
0.0082555317398846
 50
272.4139840907255916
 51
353.3860185735833284
  0
ARC
  5
6EB5
  8
0
 10
3896.5631328980030048
 20
136.3526050967377046
 30
0.0
 40
0.0094140718822864
 50
192.3786759049374098
 51
261.6991613092808961
  0
ARC
  5
6EB6
  8
0
 10
3896.6433919926789713
 20
136.396045555523699
 30
0.0
 40
0.0062992126
 50
129.960606230364391
 51
175.8000013330992033
  0
ARC
  5
6EB7
  8
0
 10
3896.5442832386788723
 20
136.3960455532237006
 30
0.0
 40
0.0062992126
 50
4.2000013292989564
 51
50.0394263422614927
  0
LINE
  5
6EB8
  8
0
 10
3896.6258846805621943
 20
136.3432896497236868
 30
0.0
 11
3896.5617737819911781
 21
136.3432896497236868
 31
0.0
  0
LINE
  5
6EB9
  8
0
 10
3896.7488971718671564
 20
136.3505890691041884
 30
0.0
 11
3896.7522693182659168
 21
136.3965089806042101
 31
0.0
  0
LINE
  5
6EBA
  8
0
 10
3896.6690973047661828
 20
136.3505890673042131
 30
0.0
 11
3896.6657251561669
 21
136.3965089786042881
 31
0.0
  0
ARC
  5
6EBB
  8
0
 10
3896.7406965832237802
 20
136.351539937618611
 30
0.0
 40
0.0082555317398846
 50
272.4139840907255916
 51
353.3860185735833284
  0
ARC
  5
6EBC
  8
0
 10
3896.6782925195911957
 20
136.3526071790182925
 30
0.0
 40
0.0094140718822864
 50
192.3786759049374098
 51
261.6991613092808961
  0
ARC
  5
6EBD
  8
0
 10
3896.758551614265798
 20
136.396047637804287
 30
0.0
 40
0.0062992126
 50
129.9900864640883071
 51
175.8000013330992033
  0
ARC
  5
6EBE
  8
0
 10
3896.6594428602670632
 20
136.3960476355042886
 30
0.0
 40
0.0062992126
 50
4.2000013292989564
 51
50.0099460885710627
  0
LINE
  5
6EBF
  8
0
 10
3896.741044302149021
 20
136.3432917320043032
 30
0.0
 11
3896.6769334035789143
 21
136.3432917320043032
 31
0.0
  0
LINE
  5
6EC0
  8
0
 10
3896.8348889230169334
 20
136.3505922316043097
 30
0.0
 11
3896.838261069417058
 21
136.396512143104303
 31
0.0
  0
LINE
  5
6EC1
  8
0
 10
3896.7550890559168693
 20
136.350592229804306
 30
0.0
 11
3896.7519932289278586
 21
136.3927493579595023
 31
0.0
  0
ARC
  5
6EC2
  8
0
 10
3896.8266883343740119
 20
136.3515431001185902
 30
0.0
 40
0.0082555317398846
 50
272.4139840907255916
 51
353.3860185735833284
  0
ARC
  5
6EC3
  8
0
 10
3896.7642842707409727
 20
136.3526103415183002
 30
0.0
 40
0.0094140718822864
 50
192.3786759049374098
 51
261.6991613092808961
  0
ARC
  5
6EC4
  8
0
 10
3896.8445433654169392
 20
136.3960508003042946
 30
0.0
 40
0.0062992126
 50
130.0348255308194894
 51
175.8000013330992033
  0
LINE
  5
6EC5
  8
0
 10
3896.8270360532987979
 20
136.3432948945041971
 30
0.0
 11
3896.7629251547300555
 21
136.3432948945041971
 31
0.0
  0
LINE
  5
6EC6
  8
0
 10
3896.8804084985881673
 20
136.3505922316043097
 30
0.0
 11
3896.8837806449869277
 21
136.396512143104303
 31
0.0
  0
ARC
  5
6EC7
  8
0
 10
3896.872207909944791
 20
136.3515431001185902
 30
0.0
 40
0.0082555317398846
 50
272.4139840907255916
 51
353.3860185735833284
  0
ARC
  5
6EC8
  8
0
 10
3896.8900629409881731
 20
136.3960508003042946
 30
0.0
 40
0.0062992126
 50
130.0348255308194894
 51
175.8000013330992033
  0
LINE
  5
6EC9
  8
0
 10
3896.8725556288709413
 20
136.3432948945041971
 30
0.0
 11
3896.8270360532987979
 21
136.3432948945041971
 31
0.0
  0
LINE
  5
6ECA
  8
0
 10
3895.3177414524288906
 20
128.3671239103431105
 30
0.0
 11
3897.6073503074289874
 21
128.3671239103431105
 31
0.0
  0
LINE
  5
6ECB
  8
0
 10
3895.9096051814599377
 20
136.4008738151235036
 30
0.0
 11
3897.0156286480701056
 21
136.4008738151235036
 31
0.0
  0
ARC
  5
6ECC
  8
0
 10
3896.4702502929480943
 20
133.6928149854992114
 30
0.0
 40
0.278544783540502
 50
91.5875751373313847
 51
119.5815150932863986
  0
ARC
  5
6ECD
  8
0
 10
3896.4547845955548837
 20
133.6926056656915875
 30
0.0
 40
0.2787548997932694
 50
60.4295584042219502
 51
88.4071232729015293
  0
ARC
  5
6ECE
  8
0
 10
3896.4954976185540545
 20
134.909570961298499
 30
0.0
 40
0.3726954974085235
 50
231.7091954367149071
 51
264.9268798288151174
  0
ARC
  5
6ECF
  8
0
 10
3896.429568926068896
 20
134.909638242746297
 30
0.0
 40
0.3727639303317843
 50
275.0746554804031803
 51
308.287438367541597
  0
ARC
  5
6ED0
  8
0
 10
3899.126122238618791
 20
132.4409166856781042
 30
0.0
 40
0.9353107725757915
 50
90.6457520949990965
 51
103.6532520110119009
  0
ARC
  5
6ED1
  8
0
 10
3899.4891618343031041
 20
135.1041652334425862
 30
0.0
 40
0.0264707663958903
 50
1.983139621087296
 51
86.6436530124590831
  0
ARC
  5
6ED2
  8
0
 10
3899.5022797206452196
 20
136.0483945638819137
 30
0.0
 40
0.9178768690597571
 50
255.4906793811485102
 51
269.2778739497912284
  0
LINE
  5
6ED3
  8
0
 10
3899.70477028942787
 20
133.324842009243099
 30
0.0
 11
3899.70477028942787
 21
137.4435845784431081
 31
0.0
  0
ARC
  5
6ED4
  8
0
 10
3899.6747719944210075
 20
133.3248403565233957
 30
0.0
 40
0.0299982950538133
 50
274.0922355294425188
 51
0.0031566414356727
  0
ARC
  5
6ED5
  8
0
 10
3899.6723319717198137
 20
137.4413145278006994
 30
0.0
 40
0.0325176503718613
 50
4.0030627891358748
 51
81.9034206352075955
  0
LINE
  5
6ED6
  8
0
 10
3895.3374002032292083
 20
128.7312298499431051
 30
0.0
 11
3896.4625458799291664
 21
128.7312298499431051
 31
0.0
  0
LINE
  5
6ED7
  8
0
 10
3897.6247506043291651
 20
128.4877172308430886
 30
0.0
 11
3897.6247506043291651
 21
128.6829335586431
 31
0.0
  0
LINE
  5
6ED8
  8
0
 10
3897.5876915566291245
 20
128.7312298499431051
 30
0.0
 11
3897.420198055228866
 21
128.776628936043096
 31
0.0
  0
ARC
  5
6ED9
  8
0
 10
3897.5677293818707767
 20
128.6775459851625953
 30
0.0
 40
0.0572751757623572
 50
5.3974912676667177
 51
69.6025087313329891
  0
ARC
  5
6EDA
  8
0
 10
3897.569994493690956
 20
128.4918000399044899
 30
0.0
 40
0.0549081139909636
 50
282.9764311253741198
 51
355.7357153156884806
  0
LINE
  5
6EDB
  8
0
 10
3897.5876915566291245
 20
128.7312298499431051
 30
0.0
 11
3896.4625458799291664
 21
128.7312298499431051
 31
0.0
  0
LINE
  5
6EDC
  8
0
 10
3896.1094568097628326
 20
140.0881030407425101
 30
0.0
 11
3896.1532436399888866
 21
140.0915982733430951
 31
0.0
  0
LINE
  5
6EDD
  8
0
 10
3896.8409774322230987
 20
140.0915982733430951
 30
0.0
 11
3896.8349316768258177
 21
140.0881030407425101
 31
0.0
  0
LINE
  5
6EDE
  8
0
 10
3896.815634950094136
 20
140.0881030407425101
 30
0.0
 11
3896.7718481198689915
 21
140.0915982733430951
 31
0.0
  0
ARC
  5
6EE0
  8
0
 10
3895.9251605736449164
 20
140.0618997374058097
 30
0.0
 40
0.0262784526823917
 50
94.3341495095186247
 51
153.323617267887812
  0
LINE
  5
6EE1
  8
0
 10
3895.9231746306381865
 20
140.0881030407425101
 30
0.0
 11
3897.0018652261710486
 21
140.0881030407425101
 31
0.0
  0
ARC
  5
6EE2
  8
0
 10
3896.9998792831638639
 20
140.0618997374058097
 30
0.0
 40
0.0262784526823917
 50
26.6763827321879994
 51
85.6658504904813753
  0
ENDSEC
  0
EOF
