  0
SECTION
  2
HEADER
  9
$ACADVER
  1
AC1009
  9
$INSBASE
 10
27.40564237252083
 20
-38.934259799400003
 30
0.0
  9
$EXTMIN
 10
9.1773670962474299
 20
-38.935700179501467
 30
-0.0015258207003583
  9
$EXTMAX
 10
27.42914453067706
 20
-4.4179585584449512
 30
0.0000000349246037
  9
$LIMMIN
 10
0.0
 20
0.0
  9
$LIMMAX
 10
11.692913385800001
 20
8.2677165353999982
  9
$ORTHOMODE
 70
     0
  9
$REGENMODE
 70
     1
  9
$FILLMODE
 70
     1
  9
$QTEXTMODE
 70
     0
  9
$MIRRTEXT
 70
     0
  9
$DRAGMODE
 70
     2
  9
$LTSCALE
 40
0.6431102362
  9
$OSMODE
 70
    39
  9
$ATTMODE
 70
     1
  9
$TEXTSIZE
 40
0.2
  9
$TRACEWID
 40
0.05
  9
$TEXTSTYLE
  7
STANDARD
  9
$CLAYER
  8
0
  9
$CELTYPE
  6
BYLAYER
  9
$CECOLOR
 62
   256
  9
$DIMSCALE
 40
1.0
  9
$DIMASZ
 40
0.1875
  9
$DIMEXO
 40
0.0625
  9
$DIMDLI
 40
0.4443307087
  9
$DIMRND
 40
0.0
  9
$DIMDLE
 40
0.0
  9
$DIMEXE
 40
0.125
  9
$DIMTP
 40
0.0
  9
$DIMTM
 40
0.0
  9
$DIMTXT
 40
0.15625
  9
$DIMCEN
 40
0.1052362205
  9
$DIMTSZ
 40
0.0
  9
$DIMTOL
 70
     0
  9
$DIMLIM
 70
     0
  9
$DIMTIH
 70
     1
  9
$DIMTOH
 70
     1
  9
$DIMSE1
 70
     0
  9
$DIMSE2
 70
     0
  9
$DIMTAD
 70
     0
  9
$DIMZIN
 70
     0
  9
$DIMBLK
  1

  9
$DIMASO
 70
     1
  9
$DIMSHO
 70
     1
  9
$DIMPOST
  1

  9
$DIMAPOST
  1

  9
$DIMALT
 70
     0
  9
$DIMALTD
 70
     2
  9
$DIMALTF
 40
25.399999999999999
  9
$DIMLFAC
 40
1.0
  9
$DIMTOFL
 70
     0
  9
$DIMTVP
 40
0.0
  9
$DIMTIX
 70
     0
  9
$DIMSOXD
 70
     0
  9
$DIMSAH
 70
     0
  9
$DIMBLK1
  1

  9
$DIMBLK2
  1

  9
$DIMSTYLE
  2
STANDARD
  9
$DIMCLRD
 70
     0
  9
$DIMCLRE
 70
     0
  9
$DIMCLRT
 70
     0
  9
$DIMTFAC
 40
1.0
  9
$DIMGAP
 40
0.09
  9
$LUNITS
 70
     2
  9
$LUPREC
 70
     4
  9
$SKETCHINC
 40
0.1
  9
$FILLETRAD
 40
0.0
  9
$AUNITS
 70
     0
  9
$AUPREC
 70
     0
  9
$MENU
  1
.
  9
$ELEVATION
 40
0.0
  9
$PELEVATION
 40
0.0
  9
$THICKNESS
 40
0.0
  9
$LIMCHECK
 70
     0
  9
$BLIPMODE
 70
     0
  9
$CHAMFERA
 40
0.0
  9
$CHAMFERB
 40
0.0
  9
$SKPOLY
 70
     0
  9
$TDCREATE
 40
2457296.6360665392
  9
$TDUPDATE
 40
2457568.5627780212
  9
$TDINDWG
 40
0.1216111111
  9
$TDUSRTIMER
 40
0.1216111111
  9
$USRTIMER
 70
     1
  9
$ANGBASE
 50
0.0
  9
$ANGDIR
 70
     0
  9
$PDMODE
 70
     0
  9
$PDSIZE
 40
0.3125
  9
$PLINEWID
 40
0.0
  9
$COORDS
 70
     1
  9
$SPLFRAME
 70
     0
  9
$SPLINETYPE
 70
     6
  9
$SPLINESEGS
 70
     8
  9
$ATTDIA
 70
     1
  9
$ATTREQ
 70
     1
  9
$HANDLING
 70
     1
  9
$HANDSEED
  5
870
  9
$SURFTAB1
 70
     6
  9
$SURFTAB2
 70
     6
  9
$SURFTYPE
 70
     6
  9
$SURFU
 70
     6
  9
$SURFV
 70
     6
  9
$UCSNAME
  2

  9
$UCSORG
 10
0.0
 20
0.0
 30
0.0
  9
$UCSXDIR
 10
1.0
 20
0.0
 30
0.0
  9
$UCSYDIR
 10
0.0
 20
1.0
 30
0.0
  9
$PUCSNAME
  2

  9
$PUCSORG
 10
0.0
 20
0.0
 30
0.0
  9
$PUCSXDIR
 10
1.0
 20
0.0
 30
0.0
  9
$PUCSYDIR
 10
0.0
 20
1.0
 30
0.0
  9
$USERI1
 70
     0
  9
$USERI2
 70
     0
  9
$USERI3
 70
     0
  9
$USERI4
 70
     0
  9
$USERI5
 70
     0
  9
$USERR1
 40
0.0
  9
$USERR2
 40
0.0
  9
$USERR3
 40
0.0
  9
$USERR4
 40
0.0
  9
$USERR5
 40
0.0
  9
$WORLDVIEW
 70
     1
  9
$SHADEDGE
 70
     3
  9
$SHADEDIF
 70
    70
  9
$TILEMODE
 70
     1
  9
$MAXACTVP
 70
    64
  9
$PLIMCHECK
 70
     0
  9
$PEXTMIN
 10
1.0000000000000000E+020
 20
1.0000000000000000E+020
 30
1.0000000000000000E+020
  9
$PEXTMAX
 10
-1.0000000000000000E+020
 20
-1.0000000000000000E+020
 30
-1.0000000000000000E+020
  9
$PLIMMIN
 10
0.0
 20
0.0
  9
$PLIMMAX
 10
12.0
 20
9.0
  9
$UNITMODE
 70
     0
  9
$VISRETAIN
 70
     1
  9
$PLINEGEN
 70
     0
  9
$PSLTSCALE
 70
     1
  0
ENDSEC
  0
SECTION
  2
TABLES
  0
TABLE
  2
VPORT
 70
     1
  0
VPORT
  2
*ACTIVE
 70
     0
 10
0.0
 20
0.0
 11
1.0
 21
1.0
 12
18.303255813462229
 22
-21.676829368973209
 13
0.0
 23
0.0
 14
1.0
 24
1.0
 15
0.0
 25
0.0
 16
0.0
 26
0.0
 36
1.0
 17
0.0
 27
0.0
 37
0.0
 40
34.737366700299717
 41
1.798301486199575
 42
50.0
 43
0.0
 44
0.0
 50
0.0
 51
0.0
 71
     0
 72
   100
 73
     1
 74
     1
 75
     0
 76
     0
 77
     0
 78
     0
  0
ENDTAB
  0
TABLE
  2
LTYPE
 70
     1
  0
LTYPE
  2
CONTINUOUS
 70
     0
  3
Solid line
 72
    65
 73
     0
 40
0.0
  0
ENDTAB
  0
TABLE
  2
LAYER
 70
     2
  0
LAYER
  2
0
 70
     0
 62
     7
  6
CONTINUOUS
  0
LAYER
  2
DEFPOINTS
 70
     0
 62
     7
  6
CONTINUOUS
  0
ENDTAB
  0
TABLE
  2
STYLE
 70
     1
  0
STYLE
  2
STANDARD
 70
     0
 40
0.0
 41
0.8
 50
0.0
 71
     0
 42
0.2
  3
txt
  4

  0
ENDTAB
  0
TABLE
  2
VIEW
 70
     6
  0
ENDTAB
  0
TABLE
  2
UCS
 70
     0
  0
ENDTAB
  0
TABLE
  2
APPID
 70
     5
  0
APPID
  2
ACAD
 70
     0
  0
APPID
  2
ACAD_MLEADERVER
 70
     0
  0
APPID
  2
ACAD_NAV_VCDISPLAY
 70
     0
  0
APPID
  2
ACAD_EXEMPT_FROM_CAD_STANDARDS
 70
     0
  0
APPID
  2
ACDBATTR
 70
     0
  0
ENDTAB
  0
TABLE
  2
DIMSTYLE
 70
     1
  0
DIMSTYLE
  2
STANDARD
 70
     0
  3

  4

  5

  6

  7

 40
1.0
 41
0.1875
 42
0.0625
 43
0.38
 44
0.125
 45
0.0
 46
0.0
 47
1.5
 48
1.5
140
0.15625
141
0.09
142
0.0
143
25.399999999999999
144
1.0
145
0.0
146
1.0
147
0.09
 71
     0
 72
     0
 73
     1
 74
     1
 75
     0
 76
     0
 77
     0
 78
     4
170
     0
171
     2
172
     0
173
     0
174
     0
175
     0
176
     0
177
     0
178
     0
  0
ENDTAB
  0
ENDSEC
  0
SECTION
  2
BLOCKS
  0
BLOCK
  8
0
  2
$MODEL_SPACE
 70
     0
 10
0.0
 20
0.0
 30
0.0
  3
$MODEL_SPACE
  1

  0
ENDBLK
  5
21
  8
0
  0
BLOCK
 67
     1
  8
0
  2
$PAPER_SPACE
 70
     0
 10
0.0
 20
0.0
 30
0.0
  3
$PAPER_SPACE
  1

  0
ENDBLK
  5
1D
 67
     1
  8
0
  0
ENDSEC
  0
SECTION
  2
ENTITIES
  0
LINE
  5
541
  8
0
 10
9.9385687813999972
 20
-4.4212597993999996
 30
0.0
 11
27.303307763100001
 21
-4.4212598012999988
 31
0.0
  0
ARC
  5
542
  8
0
 10
27.303307424542719
 20
-4.5462597980568207
 30
0.0
 40
0.1249999967572803
 50
359.99999938433263
 51
89.999844816769027
  0
LINE
  5
543
  8
0
 10
27.428307421299959
 20
-4.5462597980568198
 30
0.0
 11
27.428307421300001
 21
-10.9424037641
 31
0.0
  0
ARC
  5
544
  8
0
 10
27.30330754100477
 20
-10.942422846771811
 30
0.0
 40
0.1249998817518332
 50
285.87194768535193
 51
0.0087468607627272
  0
LINE
  5
545
  8
0
 10
27.337493547699999
 20
-11.0626571488
 30
0.0
 11
26.154476832600011
 21
-11.3794652565
 31
0.0
  0
ARC
  5
546
  8
0
 10
-7.4286073964259467
 20
135.262925146676
 30
0.0
 40
150.4387390584331
 50
282.42565673248203
 51
282.8990694187363
  0
ARC
  5
547
  8
0
 10
28.326206094483759
 20
-32.72344899526189
 30
0.0
 40
21.341588243964519
 50
99.124923555109746
 51
103.4286704139444
  0
ARC
  5
548
  8
0
 10
24.407766404832518
 20
-15.615834023276291
 30
0.0
 40
3.7951467422251861
 50
105.8701929144911
 51
117.4614698580159
  0
ARC
  5
550
  8
0
 10
22.996001532167408
 20
-12.915187869493581
 30
0.0
 40
0.747803522870004
 50
116.9036446128284
 51
137.14516532572941
  0
ARC
  5
551
  8
0
 10
22.21219945612301
 20
-12.37864244528747
 30
0.0
 40
0.237252774543066
 50
292.5361699492729
 51
353.23884628859901
  0
ARC
  5
552
  8
0
 10
21.935524751041509
 20
-11.60406019604198
 30
0.0
 40
1.0595325424144639
 50
272.4381179669308
 51
290.3009313636706
  0
ARC
  5
553
  8
0
 10
20.028609077762201
 20
19.413289958239609
 30
0.0
 40
32.135263048468659
 50
269.38366109127151
 51
273.4824546613217
  0
ARC
  5
554
  8
0
 10
20.6483791113207
 20
156.32874326850961
 30
0.0
 40
169.05161392954611
 50
268.02929986143391
 51
269.67278431966628
  0
LINE
  5
555
  8
0
 10
14.835011654885079
 20
-12.622782271889941
 30
0.0
 11
14.78841794741299
 21
-12.615686195729721
 31
0.0
  0
ARC
  5
556
  8
0
 10
17.108318411600148
 20
-4.5752111201231092
 30
0.0
 40
8.3684632762047197
 50
214.5017781470622
 51
253.90567963821761
  0
ARC
  5
557
  8
0
 10
14.29649479613375
 20
-6.1321944510005091
 30
0.0
 40
5.1785523243217471
 50
188.76547766557641
 51
217.92906427995371
  0
ARC
  5
558
  8
0
 10
26.16904176390781
 20
-9.5120981784037753
 30
0.0
 40
17.187000013225191
 50
163.39246487219489
 51
171.33027519985851
  0
ARC
  5
559
  8
0
 10
9.9385687866151073
 20
-4.6712598039828199
 30
0.0
 40
0.2500000045828203
 50
90.000001195214764
 51
163.39246706908111
  0
LINE
  5
55A
  8
0
 10
9.1783159225999995
 20
-6.9213370655999986
 30
0.0
 11
27.428307421300001
 21
-6.9216756850792782
 31
0.0
  0
LINE
  5
55B
  8
0
 10
22.8343074213
 20
-12.16223219009354
 30
0.0
 11
22.8343074213
 21
-38.934259799400003
 31
0.0
  0
LINE
  5
55C
  8
0
 10
22.8343074213
 20
-38.934259799400003
 30
0.0
 11
15.74430742131196
 21
-38.934259799400003
 31
0.0
  0
LINE
  5
55D
  8
0
 10
15.74430742131196
 20
-38.934259799400003
 30
0.0
 11
15.72667435078081
 21
-12.6512111474932
 31
0.0
  0
ATTDEF
  5
62A
  8
DEFPOINTS
 10
27.40176574069444
 20
-38.925496188357762
 30
0.0
 40
0.001
  1
K-2293-4
  3

  2
MODELNUMBER
 70
     0
1001
ACDBATTR
1070
     0
1070
     1
  0
ATTDEF
  5
62B
  8
DEFPOINTS
 10
27.40176574069444
 20
-38.92710260036322
 30
0.0
 40
0.001
  1
WELLWORTH
  3

  2
TRADENAME
 70
     0
1001
ACDBATTR
1070
     0
1070
     1
  0
ATTDEF
  5
62C
  8
DEFPOINTS
 10
27.40176574069444
 20
-38.928709012368671
 30
0.0
 40
0.001
  1
BATHROOM SINK
  3

  2
PRODUCT
 70
     0
1001
ACDBATTR
1070
     0
1070
     1
  0
ATTDEF
  5
62D
  8
DEFPOINTS
 10
27.40176574069444
 20
-38.930315424374122
 30
0.0
 40
0.001
  1
VITREOUS CHINA
  3

  2
MATERIAL
 70
     0
1001
ACDBATTR
1070
     0
1070
     1
  0
ENDSEC
  0
EOF
