  0
SECTION
  2
HEADER
  9
$ACADVER
  1
AC1009
  9
$INSBASE
 10
1520.596571834797
 20
102.35998674694559
 30
0.0
  9
$EXTMIN
 10
1519.596777437047
 20
94.54988436036929
 30
0.0
  9
$EXTMAX
 10
1523.7795452762391
 20
103.3597867469456
 30
0.0
  9
$LIMMIN
 10
0.0
 20
0.0
  9
$LIMMAX
 10
11.692913385800001
 20
8.2677165353999982
  9
$ORTHOMODE
 70
     1
  9
$REGENMODE
 70
     1
  9
$FILLMODE
 70
     1
  9
$QTEXTMODE
 70
     0
  9
$MIRRTEXT
 70
     0
  9
$DRAGMODE
 70
     2
  9
$LTSCALE
 40
0.6431102362
  9
$OSMODE
 70
  3071
  9
$ATTMODE
 70
     1
  9
$TEXTSIZE
 40
0.2
  9
$TRACEWID
 40
0.05
  9
$TEXTSTYLE
  7
STANDARD
  9
$CLAYER
  8
0
  9
$CELTYPE
  6
BYLAYER
  9
$CECOLOR
 62
   256
  9
$DIMSCALE
 40
1.0
  9
$DIMASZ
 40
0.1875
  9
$DIMEXO
 40
0.0625
  9
$DIMDLI
 40
0.4443307087
  9
$DIMRND
 40
0.0
  9
$DIMDLE
 40
0.0
  9
$DIMEXE
 40
0.125
  9
$DIMTP
 40
0.01
  9
$DIMTM
 40
0.01
  9
$DIMTXT
 40
2.0
  9
$DIMCEN
 40
0.1052362205
  9
$DIMTSZ
 40
0.0
  9
$DIMTOL
 70
     1
  9
$DIMLIM
 70
     0
  9
$DIMTIH
 70
     1
  9
$DIMTOH
 70
     1
  9
$DIMSE1
 70
     0
  9
$DIMSE2
 70
     0
  9
$DIMTAD
 70
     0
  9
$DIMZIN
 70
     0
  9
$DIMBLK
  1

  9
$DIMASO
 70
     1
  9
$DIMSHO
 70
     1
  9
$DIMPOST
  1
\X
  9
$DIMAPOST
  1

  9
$DIMALT
 70
     1
  9
$DIMALTD
 70
     2
  9
$DIMALTF
 40
25.399999999999999
  9
$DIMLFAC
 40
1.0
  9
$DIMTOFL
 70
     0
  9
$DIMTVP
 40
0.0
  9
$DIMTIX
 70
     0
  9
$DIMSOXD
 70
     0
  9
$DIMSAH
 70
     0
  9
$DIMBLK1
  1

  9
$DIMBLK2
  1

  9
$DIMSTYLE
  2
STANDARD
  9
$DIMCLRD
 70
     0
  9
$DIMCLRE
 70
     0
  9
$DIMCLRT
 70
     0
  9
$DIMTFAC
 40
1.0
  9
$DIMGAP
 40
0.09
  9
$LUNITS
 70
     2
  9
$LUPREC
 70
     4
  9
$SKETCHINC
 40
0.1
  9
$FILLETRAD
 40
0.0
  9
$AUNITS
 70
     0
  9
$AUPREC
 70
     0
  9
$MENU
  1
.
  9
$ELEVATION
 40
0.0
  9
$PELEVATION
 40
0.0
  9
$THICKNESS
 40
0.0
  9
$LIMCHECK
 70
     0
  9
$BLIPMODE
 70
     0
  9
$CHAMFERA
 40
0.0
  9
$CHAMFERB
 40
0.0
  9
$SKPOLY
 70
     0
  9
$TDCREATE
 40
2458060.4683680669
  9
$TDUPDATE
 40
2458579.9740891429
  9
$TDINDWG
 40
0.270484537
  9
$TDUSRTIMER
 40
0.270484537
  9
$USRTIMER
 70
     1
  9
$ANGBASE
 50
0.0
  9
$ANGDIR
 70
     0
  9
$PDMODE
 70
     0
  9
$PDSIZE
 40
0.3125
  9
$PLINEWID
 40
0.0
  9
$COORDS
 70
     1
  9
$SPLFRAME
 70
     0
  9
$SPLINETYPE
 70
     6
  9
$SPLINESEGS
 70
     8
  9
$ATTDIA
 70
     1
  9
$ATTREQ
 70
     1
  9
$HANDLING
 70
     1
  9
$HANDSEED
  5
562B
  9
$SURFTAB1
 70
     6
  9
$SURFTAB2
 70
     6
  9
$SURFTYPE
 70
     6
  9
$SURFU
 70
     6
  9
$SURFV
 70
     6
  9
$UCSNAME
  2

  9
$UCSORG
 10
0.0
 20
0.0
 30
0.0
  9
$UCSXDIR
 10
1.0
 20
0.0
 30
0.0
  9
$UCSYDIR
 10
0.0
 20
1.0
 30
0.0
  9
$PUCSNAME
  2

  9
$PUCSORG
 10
0.0
 20
0.0
 30
0.0
  9
$PUCSXDIR
 10
1.0
 20
0.0
 30
0.0
  9
$PUCSYDIR
 10
0.0
 20
1.0
 30
0.0
  9
$USERI1
 70
     0
  9
$USERI2
 70
     0
  9
$USERI3
 70
     0
  9
$USERI4
 70
     0
  9
$USERI5
 70
     0
  9
$USERR1
 40
0.0
  9
$USERR2
 40
0.0
  9
$USERR3
 40
0.0
  9
$USERR4
 40
0.0
  9
$USERR5
 40
0.0
  9
$WORLDVIEW
 70
     1
  9
$SHADEDGE
 70
     3
  9
$SHADEDIF
 70
    70
  9
$TILEMODE
 70
     1
  9
$MAXACTVP
 70
    64
  9
$PLIMCHECK
 70
     0
  9
$PEXTMIN
 10
1.0000000000000000E+020
 20
1.0000000000000000E+020
 30
1.0000000000000000E+020
  9
$PEXTMAX
 10
-1.0000000000000000E+020
 20
-1.0000000000000000E+020
 30
-1.0000000000000000E+020
  9
$PLIMMIN
 10
0.0
 20
0.0
  9
$PLIMMAX
 10
12.0
 20
9.0
  9
$UNITMODE
 70
     0
  9
$VISRETAIN
 70
     1
  9
$PLINEGEN
 70
     0
  9
$PSLTSCALE
 70
     1
  0
ENDSEC
  0
SECTION
  2
TABLES
  0
TABLE
  2
VPORT
 70
     1
  0
VPORT
  2
*ACTIVE
 70
     0
 10
0.0
 20
0.0
 11
1.0
 21
1.0
 12
0.0
 22
0.0
 13
0.0
 23
0.0
 14
1.0
 24
1.0
 15
0.0
 25
0.0
 16
0.0
 26
0.0
 36
27.40004180997871
 17
1521.688411418183
 27
98.954836746945674
 37
0.0
 40
9.752990884270142
 41
2.0960893854748601
 42
50.0
 43
0.0
 44
0.0
 50
0.0
 51
0.0
 71
     0
 72
   100
 73
     1
 74
     1
 75
     0
 76
     0
 77
     0
 78
     0
  0
ENDTAB
  0
TABLE
  2
LTYPE
 70
     2
  0
LTYPE
  2
CONTINUOUS
 70
     0
  3
Solid line
 72
    65
 73
     0
 40
0.0
  0
LTYPE
  2
PHANTOM2
 70
     0
  3
___ _ _ ___ _ _ ___ _ _ ___ _ _
 72
    65
 73
     6
 40
1.25
 49
0.625
 49
-0.125
 49
0.125
 49
-0.125
 49
0.125
 49
-0.125
  0
ENDTAB
  0
TABLE
  2
LAYER
 70
     2
  0
LAYER
  2
0
 70
     0
 62
   255
  6
CONTINUOUS
  0
LAYER
  2
DEFPOINTS
 70
     0
 62
     7
  6
CONTINUOUS
  0
ENDTAB
  0
TABLE
  2
STYLE
 70
     1
  0
STYLE
  2
STANDARD
 70
     0
 40
0.0
 41
0.8
 50
0.0
 71
     0
 42
0.2
  3
txt
  4

  0
ENDTAB
  0
TABLE
  2
VIEW
 70
     0
  0
ENDTAB
  0
TABLE
  2
UCS
 70
     0
  0
ENDTAB
  0
TABLE
  2
APPID
 70
     9
  0
APPID
  2
ACAD
 70
     0
  0
APPID
  2
ACAD_MLEADERVER
 70
     0
  0
APPID
  2
ACAD_EXEMPT_FROM_CAD_STANDARDS
 70
     0
  0
APPID
  2
ACAD_NAV_VCDISPLAY
 70
     0
  0
APPID
  2
ACAECLAYERSTANDARD
 70
     0
  0
APPID
  2
ACCMTRANSPARENCY
 70
     0
  0
APPID
  2
ACAD_DSTYLE_DIMJAG
 70
     0
  0
APPID
  2
ACAD_DSTYLE_DIMTALN
 70
     0
  0
APPID
  2
ACDBATTR
 70
     0
  0
ENDTAB
  0
TABLE
  2
DIMSTYLE
 70
     1
  0
DIMSTYLE
  2
STANDARD
 70
     0
  3

  4

  5

  6

  7

 40
1.0
 41
0.1875
 42
0.0625
 43
0.38
 44
0.125
 45
0.0
 46
0.0
 47
0.01
 48
0.01
140
0.15625
141
0.09
142
0.0
143
25.399999999999999
144
1.0
145
0.0
146
1.0
147
0.09
 71
     1
 72
     0
 73
     1
 74
     1
 75
     0
 76
     0
 77
     0
 78
     4
170
     0
171
     2
172
     0
173
     0
174
     0
175
     0
176
     0
177
     0
178
     0
  0
ENDTAB
  0
ENDSEC
  0
SECTION
  2
BLOCKS
  0
BLOCK
  8
0
  2
$MODEL_SPACE
 70
     0
 10
0.0
 20
0.0
 30
0.0
  3
$MODEL_SPACE
  1

  0
ENDBLK
  5
21
  8
0
  0
BLOCK
 67
     1
  8
0
  2
$PAPER_SPACE
 70
     0
 10
0.0
 20
0.0
 30
0.0
  3
$PAPER_SPACE
  1

  0
ENDBLK
  5
1D
 67
     1
  8
0
  0
ENDSEC
  0
SECTION
  2
ENTITIES
  0
ATTDEF
  5
3930
  8
DEFPOINTS
 10
1520.5935699628769
 20
102.36594576898349
 30
0.0
 40
0.001
  1
K-22034
  3

  2
MODELNUMBER
 70
     0
1001
ACDBATTR
1070
     0
1070
     1
  0
ATTDEF
  5
3931
  8
DEFPOINTS
 10
1520.5935699628769
 20
102.3642791023168
 30
0.0
 40
0.001
  1
SIMPLICE
  3

  2
TRADENAME
 70
     0
1001
ACDBATTR
1070
     0
1070
     1
  0
ATTDEF
  5
3932
  8
DEFPOINTS
 10
1520.5935699628769
 20
102.36261243565011
 30
0.0
 40
0.001
  1
BAR SINK FAUCET
  3

  2
PRODUCT
 70
     0
1001
ACDBATTR
1070
     0
1070
     1
  0
ATTDEF
  5
3933
  8
DEFPOINTS
 10
1520.5935699628769
 20
102.3609457689835
 30
0.0
 40
0.001
  1
METAL
  3

  2
MATERIAL
 70
     0
1001
ACDBATTR
1070
     0
1070
     1
  0
LINE
  5
540E
  8
0
 10
1520.163495217347
 20
95.674392333242267
 30
0.0
 11
1520.1634844759469
 21
102.39986278081319
 31
0.0
  0
LINE
  5
540F
  8
0
 10
1522.4756674052469
 20
101.6230060259132
 30
0.0
 11
1523.3155430273471
 21
101.6951554736132
 31
0.0
  0
LINE
  5
5410
  8
0
 10
1523.3153909297471
 20
103.0202454687132
 30
0.0
 11
1522.474303503647
 21
103.0923280880132
 31
0.0
  0
ARC
  5
5411
  8
0
 10
1521.481571787345
 20
94.153127826618373
 30
0.0
 40
9.0000000015941382
 50
84.588500477337121
 51
91.726882486040139
  0
ARC
  5
5412
  8
0
 10
1521.481571787345
 20
110.5658914357158
 30
0.0
 40
9.000000001601812
 50
268.27064212469202
 51
275.41149951191937
  0
ARC
  5
5413
  8
0
 10
1520.5968976382469
 20
102.35966659881321
 30
0.0
 40
1.0001202011999999
 50
90.018664919418541
 51
244.31492912999801
  0
ARC
  5
5414
  8
0
 10
1520.6024102891611
 20
102.39401650611499
 30
0.0
 40
0.4389647461292919
 50
90.762085476400657
 51
179.2368936878228
  0
ARC
  5
5415
  8
0
 10
1522.284120530747
 20
102.27971925261571
 30
0.0
 40
0.7499999999974851
 50
80.101823307582933
 51
83.733201498951985
  0
ARC
  5
5416
  8
0
 10
1522.3265717873469
 20
101.64582557111321
 30
0.0
 40
0.04
 50
275.41265121270249
 51
350.20980880090121
  0
ARC
  5
5417
  8
0
 10
1522.2841205307459
 20
102.43930000961559
 30
0.0
 40
0.7500000000024069
 50
276.26679850106109
 51
279.89817669240398
  0
ARC
  5
5418
  8
0
 10
1522.3265717873469
 20
103.07319369121321
 30
0.0
 40
0.04
 50
9.7901911990988264
 51
84.587346371195423
  0
ARC
  5
5419
  8
0
 10
1519.783541699536
 20
95.669907019130747
 30
0.0
 40
0.3799799912361017
 50
332.86946533993438
 51
0.6763396565035378
  0
ARC
  5
541A
  8
0
 10
1521.0292360396061
 20
95.088169847315584
 30
0.0
 40
0.9952074103958069
 50
155.76840304527079
 51
179.17554305683609
  0
ARC
  5
541B
  8
0
 10
1520.5867855726051
 20
95.103733489023725
 30
0.0
 40
0.5526553118752754
 50
180.1289297287862
 51
231.74106514696729
  0
ARC
  5
541C
  8
0
 10
1520.594919731989
 20
95.121718017004724
 30
0.0
 40
0.5718336566354472
 50
232.21692494740151
 51
270.16553528949788
  0
ARC
  5
541D
  8
0
 10
1520.596363331754
 20
102.4003885920891
 30
0.0
 40
0.6929624581787202
 50
89.982760473692835
 51
231.3414860055949
  0
ARC
  5
541E
  8
0
 10
1520.6036042585199
 20
101.4067475828044
 30
0.0
 40
1.696529910906263
 50
90.237502062540642
 51
93.441984550089089
  0
ARC
  5
541F
  8
0
 10
1520.4808757418889
 20
103.387653741245
 30
0.0
 40
0.2881934590116026
 50
267.40391521975363
 51
274.15330710419357
  0
ARC
  5
5420
  8
0
 10
1520.467470593881
 20
103.1189758801758
 30
0.0
 40
0.0192230295666705
 50
257.24227270285871
 51
271.04774590896437
  0
ARC
  5
5421
  8
0
 10
1520.464097856257
 20
103.1027517588404
 30
0.0
 40
0.0026707939617182
 50
198.94824496744641
 51
250.93784781198841
  0
ARC
  5
5422
  8
0
 10
1520.4688194762859
 20
103.09782672575351
 30
0.0
 40
0.0083063023425471
 50
111.07795286610551
 51
150.75669373368899
  0
ARC
  5
5423
  8
0
 10
1520.569413556897
 20
102.8318479214838
 30
0.0
 40
0.2926719159188036
 50
95.27127008471534
 51
110.7270371721856
  0
ARC
  5
5424
  8
0
 10
1520.596418117429
 20
102.64284559205539
 30
0.0
 40
0.4834497470954348
 50
89.981782270789367
 51
96.400367233579743
  0
ARC
  5
5425
  8
0
 10
1520.498777886083
 20
103.0656557669397
 30
0.0
 40
0.0460553046846275
 50
106.67510466343791
 51
132.23274094009651
  0
ARC
  5
5426
  8
0
 10
1520.5740248519619
 20
102.8125092930114
 30
0.0
 40
0.3101484647232469
 50
96.931782593081337
 51
106.572332655952
  0
ARC
  5
5427
  8
0
 10
1520.5960439728269
 20
102.65818920955221
 30
0.0
 40
0.4660092053232409
 50
89.93509941620006
 51
97.329364653347838
  0
LINE
  5
5428
  8
0
 10
1521.0296484522471
 20
95.674392333242267
 30
0.0
 11
1521.0296591936469
 21
102.39986278081319
 31
0.0
  0
ARC
  5
5429
  8
0
 10
1520.5962460313469
 20
102.35966659881321
 30
0.0
 40
1.0001202011999999
 50
295.68507087000199
 51
307.85362657841227
  0
ARC
  5
542A
  8
0
 10
1520.5962460313469
 20
102.35966659881321
 30
0.0
 40
1.0001202011999999
 50
52.118168645965682
 51
89.981335080581445
  0
ARC
  5
542B
  8
0
 10
1520.5907333804321
 20
102.39401650611499
 30
0.0
 40
0.4389647461292919
 50
0.7631063121772282
 51
89.237914523599329
  0
ARC
  5
542C
  8
0
 10
1521.409601970058
 20
95.669907019130747
 30
0.0
 40
0.3799799912361017
 50
179.32366034349641
 51
207.13053466006551
  0
ARC
  5
542D
  8
0
 10
1520.163907629988
 20
95.088169847315584
 30
0.0
 40
0.9952074103958069
 50
0.82445694316389
 51
24.23159695472917
  0
ARC
  5
542E
  8
0
 10
1520.6063580969881
 20
95.103733489023725
 30
0.0
 40
0.5526553118752754
 50
308.25893485303271
 51
359.8710702712138
  0
ARC
  5
542F
  8
0
 10
1520.5982239376051
 20
95.121718017004724
 30
0.0
 40
0.5718336566354525
 50
269.83446471050212
 51
307.78307505259858
  0
ARC
  5
5430
  8
0
 10
1520.5967803378389
 20
102.4003885920891
 30
0.0
 40
0.6929624581787202
 50
308.65851399440521
 51
90.017239526307151
  0
ARC
  5
5431
  8
0
 10
1520.589539411073
 20
101.4067475828044
 30
0.0
 40
1.696529910906263
 50
86.558015449910897
 51
89.762497937459372
  0
ARC
  5
5432
  8
0
 10
1520.7122679277049
 20
103.387653741245
 30
0.0
 40
0.2881934590116026
 50
265.84669289580643
 51
272.5960847802333
  0
ARC
  5
5433
  8
0
 10
1520.7256730757131
 20
103.1189758801758
 30
0.0
 40
0.0192230295666705
 50
268.95225409103563
 51
282.7577272971414
  0
ARC
  5
5434
  8
0
 10
1520.7290458133359
 20
103.1027517588404
 30
0.0
 40
0.0026707939617182
 50
289.06215218801162
 51
341.05175503255361
  0
ARC
  5
5435
  8
0
 10
1520.7243241933079
 20
103.09782672575351
 30
0.0
 40
0.0083063023425471
 50
29.24330626631096
 51
68.922047133894424
  0
ARC
  5
5436
  8
0
 10
1520.6237301126971
 20
102.8318479214838
 30
0.0
 40
0.2926719159188036
 50
69.272962827814396
 51
84.728729915284674
  0
ARC
  5
5437
  8
0
 10
1520.596725552165
 20
102.64284559205539
 30
0.0
 40
0.4834497470954348
 50
83.599632766420257
 51
90.018217729210647
  0
ARC
  5
5438
  8
0
 10
1520.6943657835111
 20
103.0656557669397
 30
0.0
 40
0.0460553046846275
 50
47.767259059903452
 51
73.324895336562065
  0
ARC
  5
5439
  8
0
 10
1520.619118817631
 20
102.8125092930114
 30
0.0
 40
0.3101484647232469
 50
73.427667344048004
 51
83.068217406918677
  0
ARC
  5
543A
  8
0
 10
1520.597099696766
 20
102.65818920955221
 30
0.0
 40
0.4660092053232302
 50
82.670635346652176
 51
90.064900583799925
  0
LINE
  5
543B
  8
0
 10
1522.3659892682749
 20
103.0799953231696
 30
0.0
 11
1522.3659892682749
 21
101.6390239391569
 31
0.0
  0
LINE
  5
543C
  8
0
 10
1522.4130438442471
 20
101.7004639119324
 30
0.0
 11
1522.4130438442471
 21
103.01855535029399
 31
0.0
  0
ARC
  5
543D
  8
0
 10
1522.524143337796
 20
101.7022594846925
 30
0.0
 40
0.1111140024861809
 50
180.92592487678399
 51
211.79800645941441
  0
ARC
  5
543E
  8
0
 10
1522.470170767047
 20
101.6721699814636
 30
0.0
 40
0.049470269423841
 50
215.1194158086289
 51
276.37930214586743
  0
ARC
  5
543F
  8
0
 10
1522.530277784231
 20
103.01212996413309
 30
0.0
 40
0.1174098900072469
 50
151.56786082358809
 51
176.86285780065501
  0
ARC
  5
5440
  8
0
 10
1522.4705785821161
 20
103.0414377628378
 30
0.0
 40
0.051026466043316
 50
85.813696130955506
 51
148.5896972301264
  0
ARC
  5
5441
  8
0
 10
1523.118094157664
 20
102.3202055642025
 30
0.0
 40
0.6627593826854534
 50
3.600633084714377
 51
21.199589474284359
  0
ARC
  5
5442
  8
0
 10
1523.6126798749081
 20
102.4708802624902
 30
0.0
 40
0.1520782385948536
 50
35.814688586472869
 51
76.039868683708875
  0
ARC
  5
5443
  8
0
 10
1523.5158624875171
 20
102.2106558513576
 30
0.0
 40
0.4291077590093794
 50
71.873014344383506
 51
97.015887723541852
  0
ARC
  5
5444
  8
0
 10
1523.5248597849909
 20
102.23674275356009
 30
0.0
 40
0.4044966648776855
 50
98.732383501749197
 51
126.54999203602149
  0
ARC
  5
5445
  8
0
 10
1523.4223304262471
 20
102.3792100593175
 30
0.0
 40
0.2290020359907414
 50
127.1697456825495
 51
184.7023061123376
  0
ARC
  5
5446
  8
0
 10
1523.466493367182
 20
102.4863336666205
 30
0.0
 40
0.1490362283609661
 50
110.92263831007671
 51
180.9196703269354
  0
ARC
  5
5447
  8
0
 10
1524.644804921159
 20
102.39100123777961
 30
0.0
 40
1.3305784720176861
 50
175.99465397432539
 51
181.241772059281
  0
ARC
  5
5448
  8
0
 10
1523.3114942131269
 20
102.98507941444009
 30
0.0
 40
0.0353812912928627
 50
24.151042549093201
 51
83.676905307448635
  0
ARC
  5
5449
  8
0
 10
1527.771861140405
 20
104.24666446612601
 30
0.0
 40
4.600347385721097
 50
195.7291495330937
 51
198.37159061660029
  0
ARC
  5
544A
  8
0
 10
1524.198277516123
 20
103.08041169575429
 30
0.0
 40
0.841548982796943
 50
199.69968850554341
 51
211.6812441639222
  0
ARC
  5
544B
  8
0
 10
1523.0898850963231
 20
102.4039749199859
 30
0.0
 40
0.6909468408220829
 50
339.24728668869801
 51
356.50284579717788
  0
ARC
  5
544C
  8
0
 10
1523.6126798749081
 20
102.2481389998362
 30
0.0
 40
0.1520782385948536
 50
283.96013131629121
 51
324.18531141352707
  0
ARC
  5
544D
  8
0
 10
1523.5158624875171
 20
102.5083634109688
 30
0.0
 40
0.4291077590093794
 50
262.98411227645812
 51
288.12698565561652
  0
ARC
  5
544E
  8
0
 10
1523.5248597849909
 20
102.4822765087663
 30
0.0
 40
0.4044966648776855
 50
233.45000796397841
 51
261.26761649825079
  0
ARC
  5
544F
  8
0
 10
1523.422847137128
 20
102.34021770166849
 30
0.0
 40
0.2296397925634291
 50
174.948739806145
 51
232.78910268882291
  0
ARC
  5
5450
  8
0
 10
1523.466493367182
 20
102.2326855957059
 30
0.0
 40
0.1490362283609661
 50
179.08032967306451
 51
249.07736168992321
  0
ARC
  5
5451
  8
0
 10
1524.702207451503
 20
102.3306611640908
 30
0.0
 40
1.3880260998586651
 50
178.69941871987459
 51
183.94867638592751
  0
ARC
  5
5452
  8
0
 10
1523.295735614465
 20
101.74671572041591
 30
0.0
 40
0.0552339809846127
 50
291.01480583155239
 51
330.43635392005473
  0
ARC
  5
5453
  8
0
 10
1527.771861140405
 20
100.47235479620031
 30
0.0
 40
4.600347385721097
 50
161.62840938339971
 51
164.27085046690621
  0
ARC
  5
5454
  8
0
 10
1524.198277516123
 20
101.63860756657211
 30
0.0
 40
0.841548982796943
 50
148.31875583607771
 51
160.30031149445651
  0
ENDSEC
  0
EOF
