  0
SECTION
  2
HEADER
  9
$ACADVER
  1
AC1009
  9
$INSBASE
 10
32.35252738936979
 20
3.6461203224604621
 30
0.0
  9
$EXTMIN
 10
31.3507231747210788
 20
3.6402971477112902
 30
-0.0000000000112498
  9
$EXTMAX
 10
33.3526964137686335
 20
8.0767029519149247
 30
0.0000000000002956
  9
$LIMMIN
 10
0.0
 20
0.0
  9
$LIMMAX
 10
16.5354330709000017
 20
11.6929133858000007
  9
$ORTHOMODE
 70
     0
  9
$REGENMODE
 70
     1
  9
$FILLMODE
 70
     1
  9
$QTEXTMODE
 70
     0
  9
$MIRRTEXT
 70
     0
  9
$DRAGMODE
 70
     2
  9
$LTSCALE
 40
0.9094488188999998
  9
$OSMODE
 70
  4095
  9
$ATTMODE
 70
     1
  9
$TEXTSIZE
 40
0.001
  9
$TRACEWID
 40
0.05
  9
$TEXTSTYLE
  7
STANDARD
  9
$CLAYER
  8
0
  9
$CELTYPE
  6
BYLAYER
  9
$CECOLOR
 62
   256
  9
$DIMSCALE
 40
1.0
  9
$DIMASZ
 40
0.1875
  9
$DIMEXO
 40
0.0625
  9
$DIMDLI
 40
0.6283464567000001
  9
$DIMRND
 40
0.0
  9
$DIMDLE
 40
0.0
  9
$DIMEXE
 40
0.125
  9
$DIMTP
 40
0.0
  9
$DIMTM
 40
0.0
  9
$DIMTXT
 40
0.15625
  9
$DIMCEN
 40
0.1488188976
  9
$DIMTSZ
 40
0.0
  9
$DIMTOL
 70
     0
  9
$DIMLIM
 70
     0
  9
$DIMTIH
 70
     1
  9
$DIMTOH
 70
     1
  9
$DIMSE1
 70
     0
  9
$DIMSE2
 70
     0
  9
$DIMTAD
 70
     0
  9
$DIMZIN
 70
     0
  9
$DIMBLK
  1

  9
$DIMASO
 70
     1
  9
$DIMSHO
 70
     1
  9
$DIMPOST
  1

  9
$DIMAPOST
  1

  9
$DIMALT
 70
     0
  9
$DIMALTD
 70
     2
  9
$DIMALTF
 40
25.3999999999999986
  9
$DIMLFAC
 40
1.0
  9
$DIMTOFL
 70
     0
  9
$DIMTVP
 40
0.0
  9
$DIMTIX
 70
     0
  9
$DIMSOXD
 70
     0
  9
$DIMSAH
 70
     0
  9
$DIMBLK1
  1

  9
$DIMBLK2
  1

  9
$DIMSTYLE
  2
STANDARD
  9
$DIMCLRD
 70
     0
  9
$DIMCLRE
 70
     0
  9
$DIMCLRT
 70
     0
  9
$DIMTFAC
 40
1.0
  9
$DIMGAP
 40
0.09
  9
$LUNITS
 70
     2
  9
$LUPREC
 70
     4
  9
$SKETCHINC
 40
0.1
  9
$FILLETRAD
 40
0.0
  9
$AUNITS
 70
     0
  9
$AUPREC
 70
     0
  9
$MENU
  1
.
  9
$ELEVATION
 40
0.0
  9
$PELEVATION
 40
0.0
  9
$THICKNESS
 40
0.0
  9
$LIMCHECK
 70
     0
  9
$BLIPMODE
 70
     0
  9
$CHAMFERA
 40
0.0
  9
$CHAMFERB
 40
0.0
  9
$SKPOLY
 70
     0
  9
$TDCREATE
 40
2457227.6225462961010635
  9
$TDUPDATE
 40
2459597.8093287041410804
  9
$TDINDWG
 40
0.0649209491
  9
$TDUSRTIMER
 40
0.0649208333
  9
$USRTIMER
 70
     1
  9
$ANGBASE
 50
0.0
  9
$ANGDIR
 70
     0
  9
$PDMODE
 70
     0
  9
$PDSIZE
 40
0.3125
  9
$PLINEWID
 40
0.0
  9
$COORDS
 70
     1
  9
$SPLFRAME
 70
     0
  9
$SPLINETYPE
 70
     6
  9
$SPLINESEGS
 70
     8
  9
$ATTDIA
 70
     1
  9
$ATTREQ
 70
     1
  9
$HANDLING
 70
     1
  9
$HANDSEED
  5
99C
  9
$SURFTAB1
 70
     6
  9
$SURFTAB2
 70
     6
  9
$SURFTYPE
 70
     6
  9
$SURFU
 70
     6
  9
$SURFV
 70
     6
  9
$UCSNAME
  2

  9
$UCSORG
 10
0.0
 20
0.0
 30
0.0
  9
$UCSXDIR
 10
1.0
 20
0.0
 30
0.0
  9
$UCSYDIR
 10
0.0
 20
1.0
 30
0.0
  9
$PUCSNAME
  2

  9
$PUCSORG
 10
0.0
 20
0.0
 30
0.0
  9
$PUCSXDIR
 10
1.0
 20
0.0
 30
0.0
  9
$PUCSYDIR
 10
0.0
 20
1.0
 30
0.0
  9
$USERI1
 70
     0
  9
$USERI2
 70
     0
  9
$USERI3
 70
     0
  9
$USERI4
 70
     0
  9
$USERI5
 70
     0
  9
$USERR1
 40
0.0
  9
$USERR2
 40
0.0
  9
$USERR3
 40
0.0
  9
$USERR4
 40
0.0
  9
$USERR5
 40
0.0
  9
$WORLDVIEW
 70
     1
  9
$SHADEDGE
 70
     3
  9
$SHADEDIF
 70
    70
  9
$TILEMODE
 70
     1
  9
$MAXACTVP
 70
    48
  9
$PLIMCHECK
 70
     0
  9
$PEXTMIN
 10
1.0000000000000000E+20
 20
1.0000000000000000E+20
 30
1.0000000000000000E+20
  9
$PEXTMAX
 10
-1.0000000000000000E+20
 20
-1.0000000000000000E+20
 30
-1.0000000000000000E+20
  9
$PLIMMIN
 10
0.0
 20
0.0
  9
$PLIMMAX
 10
12.0
 20
9.0
  9
$UNITMODE
 70
     0
  9
$VISRETAIN
 70
     1
  9
$PLINEGEN
 70
     0
  9
$PSLTSCALE
 70
     1
  0
ENDSEC
  0
SECTION
  2
TABLES
  0
TABLE
  2
VPORT
 70
     1
  0
VPORT
  2
*ACTIVE
 70
     0
 10
0.0
 20
0.0
 11
1.0
 21
1.0
 12
32.3517097942448615
 22
5.8585000498131068
 13
0.0
 23
0.0
 14
1.0
 24
1.0
 15
0.0
 25
0.0
 16
0.0
 26
0.0
 36
1.0
 17
0.0
 27
0.0
 37
0.0
 40
4.4715688620969258
 41
1.67063492063492
 42
50.0
 43
0.0
 44
0.0
 50
0.0
 51
0.0
 71
     0
 72
   100
 73
     1
 74
     1
 75
     0
 76
     0
 77
     0
 78
     0
  0
ENDTAB
  0
TABLE
  2
LTYPE
 70
     1
  0
LTYPE
  2
CONTINUOUS
 70
     0
  3
Solid line
 72
    65
 73
     0
 40
0.0
  0
ENDTAB
  0
TABLE
  2
LAYER
 70
     2
  0
LAYER
  2
0
 70
     0
 62
     7
  6
CONTINUOUS
  0
LAYER
  2
DEFPOINTS
 70
     0
 62
     7
  6
CONTINUOUS
  0
ENDTAB
  0
TABLE
  2
STYLE
 70
     1
  0
STYLE
  2
STANDARD
 70
     0
 40
0.0
 41
0.8
 50
0.0
 71
     0
 42
0.001
  3
txt
  4

  0
ENDTAB
  0
TABLE
  2
VIEW
 70
     0
  0
ENDTAB
  0
TABLE
  2
UCS
 70
     0
  0
ENDTAB
  0
TABLE
  2
APPID
 70
     8
  0
APPID
  2
ACAD
 70
     0
  0
APPID
  2
ACADANNOTATIVE
 70
     0
  0
APPID
  2
ACAD_MLEADERVER
 70
     0
  0
APPID
  2
ACAD_EXEMPT_FROM_CAD_STANDARDS
 70
     0
  0
APPID
  2
ACAD_NAV_VCDISPLAY
 70
     0
  0
APPID
  2
ACDBATTR
 70
     0
  0
APPID
  2
ACAD_DSTYLE_DIMJAG
 70
     0
  0
APPID
  2
ACAD_DSTYLE_DIMTALN
 70
     0
  0
ENDTAB
  0
TABLE
  2
DIMSTYLE
 70
     1
  0
DIMSTYLE
  2
STANDARD
 70
     0
  3

  4

  5

  6

  7

 40
1.0
 41
0.1875
 42
0.0625
 43
0.38
 44
0.125
 45
0.0
 46
0.0
 47
1.5
 48
1.5
140
0.15625
141
0.09
142
0.0
143
25.3999999999999986
144
1.0
145
0.0
146
1.0
147
0.09
 71
     0
 72
     0
 73
     1
 74
     1
 75
     0
 76
     0
 77
     0
 78
     4
170
     0
171
     2
172
     0
173
     0
174
     0
175
     0
176
     0
177
     0
178
     0
  0
ENDTAB
  0
ENDSEC
  0
SECTION
  2
BLOCKS
  0
BLOCK
  8
0
  2
$MODEL_SPACE
 70
     0
 10
0.0
 20
0.0
 30
0.0
  3
$MODEL_SPACE
  1

  0
ENDBLK
  5
550
  8
0
  0
BLOCK
 67
     1
  8
0
  2
$PAPER_SPACE
 70
     0
 10
0.0
 20
0.0
 30
0.0
  3
$PAPER_SPACE
  1

  0
ENDBLK
  5
54C
 67
     1
  8
0
  0
ENDSEC
  0
SECTION
  2
ENTITIES
  0
ATTDEF
  5
446
  8
DEFPOINTS
 10
32.348214087829291
 20
3.6437629815802182
 30
0.0
 40
0.001
  1
K-1995
  3

  2
MODELNUMBER
 70
     0
1001
ACDBATTR
1070
     0
1070
     1
  0
ATTDEF
  5
448
  8
DEFPOINTS
 10
32.3481809357365009
 20
3.6420090279686779
 30
0.0
 40
0.001
  1

  3

  2
TRADENAME
 70
     0
1001
ACDBATTR
1070
     0
1070
     1
  0
ATTDEF
  5
449
  8
DEFPOINTS
 10
32.3481809357365009
 20
3.6403423613020109
 30
0.0
 40
0.001
  1
SOAP DISPENSER
  3

  2
PRODUCT
 70
     0
1001
ACDBATTR
1070
     0
1070
     1
  0
LINE
  5
8F1
  8
0
 10
31.3525273893197891
 20
3.6461203224604621
 30
0.0
 11
33.3525273893197891
 21
3.6461203224604621
 31
0.0
  0
LINE
  5
8F2
  8
0
 10
31.7575315590197889
 20
4.5330415823604611
 30
0.0
 11
32.9475232197197911
 21
4.5330415823604611
 31
0.0
  0
LINE
  5
8F3
  8
0
 10
31.3525273893197891
 20
3.6461203224604621
 30
0.0
 11
31.3525273893197891
 21
3.6993675585604611
 31
0.0
  0
LINE
  5
8F4
  8
0
 10
31.7275273893197891
 20
4.5630415823604613
 30
0.0
 11
31.7275273893197891
 21
8.0366914666604607
 31
0.0
  0
LINE
  5
8F5
  8
0
 10
32.2263306593697934
 20
7.6922608949604596
 30
0.0
 11
32.1932416199197888
 21
7.4238413491604618
 31
0.0
  0
LINE
  5
8F6
  8
0
 10
32.4787241193698009
 20
7.6922608949604596
 30
0.0
 11
32.5118131588197912
 21
7.4238413491604618
 31
0.0
  0
LINE
  5
8F7
  8
0
 10
32.9775273893197891
 20
8.0366914666604607
 30
0.0
 11
32.9775273893197891
 21
4.5630415823604613
 31
0.0
  0
LINE
  5
8F8
  8
0
 10
33.3525273893197891
 20
3.6461203224604621
 30
0.0
 11
33.3525273893197891
 21
3.6993675585604611
 31
0.0
  0
LINE
  5
8F9
  8
0
 10
32.93752738931979
 20
8.0766914667604617
 30
0.0
 11
31.7675273893197883
 21
8.0766914667604617
 31
0.0
  0
ARC
  5
8FA
  8
0
 10
31.4125273892259216
 20
3.699367558596379
 30
0.0
 40
0.0599999999061305
 50
96.2446456398985077
 51
180.0000000342994042
  0
ARC
  5
8FB
  8
0
 10
33.2925273893197868
 20
3.699367558560462
 30
0.0
 40
0.0600000000000014
 50
359.9999999999992042
 51
83.7553538562372637
  0
ARC
  5
8FC
  8
0
 10
32.93752738931979
 20
8.0366914667604625
 30
0.0
 40
0.04
 50
0.0
 51
90.0
  0
ARC
  5
8FD
  8
0
 10
31.7675273893197883
 20
8.0366914667604625
 30
0.0
 40
0.04
 50
90.0
 51
180.0
  0
ARC
  5
8FE
  8
0
 10
32.9475273888252573
 20
4.563041582565301
 30
0.0
 40
0.0300000004945302
 50
269.9920375951871279
 51
359.9999996087840941
  0
ARC
  5
8FF
  8
0
 10
31.7575273898143493
 20
4.5630415825653126
 30
0.0
 40
0.0300000004945558
 50
180.0000003912377906
 51
270.0079625957549183
  0
LINE
  5
900
  8
0
 10
32.8500273893197914
 20
4.5330415823604611
 30
0.0
 11
32.8493625359697887
 21
4.3815761722604618
 31
0.0
  0
ARC
  5
901
  8
0
 10
34.091135889693561
 20
4.3486959243619969
 30
0.0
 40
1.2422085866392301
 50
178.4832503125529968
 51
188.1439540219768958
  0
ARC
  5
902
  8
0
 10
33.2967133119823728
 20
4.2207077248815237
 30
0.0
 40
0.4378956175472448
 50
186.2910143197055959
 51
228.475093938423413
  0
ARC
  5
903
  8
0
 10
33.3669747398703933
 20
4.2943176816674278
 30
0.0
 40
0.5395979113683989
 50
228.0712724781230918
 51
262.768815681770775
  0
LINE
  5
904
  8
0
 10
31.8550273894197886
 20
4.5330415823604611
 30
0.0
 11
31.8556922427697913
 21
4.3815761722604618
 31
0.0
  0
ARC
  5
905
  8
0
 10
30.613918889046019
 20
4.3486959243619969
 30
0.0
 40
1.2422085866392301
 50
351.8560459780230758
 51
1.5167496874470101
  0
ARC
  5
906
  8
0
 10
31.4083414667572001
 20
4.2207077248815237
 30
0.0
 40
0.4378956175472448
 50
311.5249060615764733
 51
353.7089856802941767
  0
ARC
  5
907
  8
0
 10
31.3380800388691796
 20
4.2943176816674278
 30
0.0
 40
0.5395979113683989
 50
277.2311843182289977
 51
311.928727521876624
  0
ARC
  5
908
  8
0
 10
32.3366314236777299
 20
7.3856696763470042
 30
0.0
 40
0.2221581104124299
 50
25.0113840266936585
 51
43.593093723587387
  0
ARC
  5
909
  8
0
 10
32.3529628777541092
 20
7.3978982518383987
 30
0.0
 40
0.2022310767423186
 50
354.5797848115291799
 51
23.8279031997341697
  0
ARC
  5
90A
  8
0
 10
32.3678995875669031
 20
7.4035961737424643
 30
0.0
 40
0.1880328421809374
 50
303.8109866888852935
 51
352.4208924029971968
  0
ARC
  5
90B
  8
0
 10
32.3453017915927106
 20
7.45010635656811
 30
0.0
 40
0.2393572441152051
 50
271.7298783380844043
 51
302.1100325039902259
  0
ARC
  5
90C
  8
0
 10
32.3509057581242203
 20
7.4201358422135764
 30
0.0
 40
0.2092839262981934
 50
223.9323891191745872
 51
270.4439581598559244
  0
ARC
  5
90D
  8
0
 10
32.3340713155709878
 20
7.402312420801147
 30
0.0
 40
0.1847980142288028
 50
174.9701007278418103
 51
223.5740334230260089
  0
ARC
  5
90E
  8
0
 10
32.3698864829710899
 20
7.3913639280676611
 30
0.0
 40
0.2215713230450175
 50
136.9412778487705964
 51
172.9614359380335884
  0
ARC
  5
910
  8
0
 10
32.3514848659088727
 20
7.4042136367820888
 30
0.0
 40
0.1594553139236292
 50
172.9294256932872997
 51
223.1119954141011874
  0
ARC
  5
911
  8
0
 10
32.3540535620567269
 20
7.4142004163024806
 30
0.0
 40
0.1682468134541428
 50
224.9972664100411066
 51
269.4802608666926744
  0
ARC
  5
912
  8
0
 10
32.3500932839033197
 20
7.4134744191003374
 30
0.0
 40
0.1675315779039129
 50
270.8324930685024015
 51
324.7662695089728118
  0
ARC
  5
913
  8
0
 10
32.354245181257042
 20
7.4040711986109482
 30
0.0
 40
0.1588034206368557
 50
326.6735475114908809
 51
7.1515640490611938
  0
CIRCLE
  5
914
  8
0
 10
32.35252738936979
 20
7.6922608949604596
 30
0.0
 40
0.1261967299999993
  0
ARC
  5
915
  8
0
 10
32.3526370959048322
 20
7.6652886144725123
 30
0.0
 40
0.1180224289177196
 50
191.7283130732319023
 51
348.73777186036682
  0
LINE
  5
916
  8
0
 10
31.4060009505197684
 20
3.7590115489604599
 30
0.0
 11
33.2990538285606732
 21
3.7590115489604599
 31
0.0
  0
ENDSEC
  0
EOF
