  0
SECTION
  2
HEADER
  9
$ACADVER
  1
AC1009
  9
$INSBASE
 10
0.0
 20
0.0
 30
0.0
  9
$EXTMIN
 10
-2.7184038051584838
 20
-8.8817556699225335
 30
0.0
  9
$EXTMAX
 10
32.030868150513712
 20
7.3618521291503987
 30
0.0
  9
$LIMMIN
 10
0.0
 20
0.0
  9
$LIMMAX
 10
144.0
 20
108.0
  9
$ORTHOMODE
 70
     1
  9
$REGENMODE
 70
     1
  9
$FILLMODE
 70
     1
  9
$QTEXTMODE
 70
     0
  9
$MIRRTEXT
 70
     1
  9
$DRAGMODE
 70
     2
  9
$LTSCALE
 40
4.0
  9
$OSMODE
 70
    37
  9
$ATTMODE
 70
     1
  9
$TEXTSIZE
 40
0.003
  9
$TRACEWID
 40
0.05
  9
$TEXTSTYLE
  7
STANDARD
  9
$CLAYER
  8
0
  9
$CELTYPE
  6
CONTINUOUS
  9
$CECOLOR
 62
   256
  9
$DIMSCALE
 40
1.0
  9
$DIMASZ
 40
0.18
  9
$DIMEXO
 40
0.0625
  9
$DIMDLI
 40
0.38
  9
$DIMRND
 40
0.0
  9
$DIMDLE
 40
0.0
  9
$DIMEXE
 40
0.18
  9
$DIMTP
 40
0.0
  9
$DIMTM
 40
0.0
  9
$DIMTXT
 40
0.18
  9
$DIMCEN
 40
0.09
  9
$DIMTSZ
 40
0.0
  9
$DIMTOL
 70
     0
  9
$DIMLIM
 70
     0
  9
$DIMTIH
 70
     1
  9
$DIMTOH
 70
     1
  9
$DIMSE1
 70
     0
  9
$DIMSE2
 70
     0
  9
$DIMTAD
 70
     0
  9
$DIMZIN
 70
     0
  9
$DIMBLK
  1

  9
$DIMASO
 70
     1
  9
$DIMSHO
 70
     1
  9
$DIMPOST
  1

  9
$DIMAPOST
  1

  9
$DIMALT
 70
     0
  9
$DIMALTD
 70
     2
  9
$DIMALTF
 40
25.399999999999999
  9
$DIMLFAC
 40
1.0
  9
$DIMTOFL
 70
     0
  9
$DIMTVP
 40
0.0
  9
$DIMTIX
 70
     0
  9
$DIMSOXD
 70
     0
  9
$DIMSAH
 70
     0
  9
$DIMBLK1
  1

  9
$DIMBLK2
  1

  9
$DIMSTYLE
  2
STANDARD
  9
$DIMCLRD
 70
     0
  9
$DIMCLRE
 70
     0
  9
$DIMCLRT
 70
     0
  9
$DIMTFAC
 40
1.0
  9
$DIMGAP
 40
0.09
  9
$LUNITS
 70
     2
  9
$LUPREC
 70
     4
  9
$SKETCHINC
 40
0.1
  9
$FILLETRAD
 40
0.0
  9
$AUNITS
 70
     0
  9
$AUPREC
 70
     0
  9
$MENU
  1
acad
  9
$ELEVATION
 40
0.0
  9
$PELEVATION
 40
0.0
  9
$THICKNESS
 40
0.0
  9
$LIMCHECK
 70
     0
  9
$BLIPMODE
 70
     0
  9
$CHAMFERA
 40
0.0
  9
$CHAMFERB
 40
0.0
  9
$SKPOLY
 70
     0
  9
$TDCREATE
 40
2454105.5724315052
  9
$TDUPDATE
 40
2454116.55546581
  9
$TDINDWG
 40
0.0118149884
  9
$TDUSRTIMER
 40
0.0118149884
  9
$USRTIMER
 70
     1
  9
$ANGBASE
 50
0.0
  9
$ANGDIR
 70
     0
  9
$PDMODE
 70
     3
  9
$PDSIZE
 40
-2.0
  9
$PLINEWID
 40
0.0
  9
$COORDS
 70
     1
  9
$SPLFRAME
 70
     0
  9
$SPLINETYPE
 70
     6
  9
$SPLINESEGS
 70
     8
  9
$ATTDIA
 70
     0
  9
$ATTREQ
 70
     1
  9
$HANDLING
 70
     1
  9
$HANDSEED
  5
350
  9
$SURFTAB1
 70
     6
  9
$SURFTAB2
 70
     6
  9
$SURFTYPE
 70
     6
  9
$SURFU
 70
     6
  9
$SURFV
 70
     6
  9
$UCSNAME
  2

  9
$UCSORG
 10
0.0
 20
0.0
 30
0.0
  9
$UCSXDIR
 10
1.0
 20
0.0
 30
0.0
  9
$UCSYDIR
 10
0.0
 20
1.0
 30
0.0
  9
$PUCSNAME
  2

  9
$PUCSORG
 10
0.0
 20
0.0
 30
0.0
  9
$PUCSXDIR
 10
1.0
 20
0.0
 30
0.0
  9
$PUCSYDIR
 10
0.0
 20
1.0
 30
0.0
  9
$USERI1
 70
     0
  9
$USERI2
 70
     0
  9
$USERI3
 70
     0
  9
$USERI4
 70
     0
  9
$USERI5
 70
     0
  9
$USERR1
 40
0.0
  9
$USERR2
 40
0.0
  9
$USERR3
 40
0.0
  9
$USERR4
 40
0.0
  9
$USERR5
 40
0.0
  9
$WORLDVIEW
 70
     1
  9
$SHADEDGE
 70
     3
  9
$SHADEDIF
 70
    70
  9
$TILEMODE
 70
     1
  9
$MAXACTVP
 70
    16
  9
$PLIMCHECK
 70
     0
  9
$PEXTMIN
 10
1.0000000000000000E+020
 20
1.0000000000000000E+020
 30
1.0000000000000000E+020
  9
$PEXTMAX
 10
-1.0000000000000000E+020
 20
-1.0000000000000000E+020
 30
-1.0000000000000000E+020
  9
$PLIMMIN
 10
0.0
 20
0.0
  9
$PLIMMAX
 10
12.0
 20
9.0
  9
$UNITMODE
 70
     0
  9
$VISRETAIN
 70
     0
  9
$PLINEGEN
 70
     1
  9
$PSLTSCALE
 70
     0
  0
ENDSEC
  0
SECTION
  2
TABLES
  0
TABLE
  2
VPORT
 70
     1
  0
VPORT
  2
*ACTIVE
 70
     0
 10
0.0
 20
0.0
 11
1.0
 21
1.0
 12
22.955965418171971
 22
0.2332633483960649
 13
0.0
 23
0.0
 14
1.0
 24
1.0
 15
0.0
 25
0.0
 16
0.0
 26
0.0
 36
1.0
 17
0.0
 27
0.0
 37
0.0
 40
34.467441306047988
 41
1.9470588235294111
 42
50.0
 43
0.0
 44
0.0
 50
0.0
 51
0.0
 71
     0
 72
   100
 73
     1
 74
     1
 75
     0
 76
     0
 77
     0
 78
     0
  0
ENDTAB
  0
TABLE
  2
LTYPE
 70
     1
  0
LTYPE
  2
CONTINUOUS
 70
     0
  3
Solid line
 72
    65
 73
     0
 40
0.0
  0
ENDTAB
  0
TABLE
  2
LAYER
 70
     2
  0
LAYER
  2
0
 70
     0
 62
     7
  6
CONTINUOUS
  0
LAYER
  2
DEFPOINTS
 70
     0
 62
     7
  6
CONTINUOUS
  0
ENDTAB
  0
TABLE
  2
STYLE
 70
     1
  0
STYLE
  2
STANDARD
 70
     0
 40
0.0
 41
1.0
 50
0.0
 71
     0
 42
0.003
  3
txt
  4

  0
ENDTAB
  0
TABLE
  2
VIEW
 70
     0
  0
ENDTAB
  0
TABLE
  2
UCS
 70
     0
  0
ENDTAB
  0
TABLE
  2
APPID
 70
     1
  0
APPID
  2
ACAD
 70
     0
  0
ENDTAB
  0
TABLE
  2
DIMSTYLE
 70
     1
  0
DIMSTYLE
  2
STANDARD
 70
     0
  3

  4

  5

  6

  7

 40
1.0
 41
0.18
 42
0.0625
 43
0.38
 44
0.18
 45
0.0
 46
0.0
 47
0.0
 48
0.0
140
0.18
141
0.09
142
0.0
143
25.399999999999999
144
1.0
145
0.0
146
1.0
147
0.09
 71
     0
 72
     0
 73
     1
 74
     1
 75
     0
 76
     0
 77
     0
 78
     0
170
     0
171
     2
172
     0
173
     0
174
     0
175
     0
176
     0
177
     0
178
     0
  0
ENDTAB
  0
ENDSEC
  0
SECTION
  2
BLOCKS
  0
BLOCK
  8
0
  2
$MODEL_SPACE
 70
     2
 10
0.0
 20
0.0
 30
0.0
  3
$MODEL_SPACE
  1

  0
ENDBLK
  5
9
  8
0
  0
BLOCK
 67
     1
  8
0
  2
$PAPER_SPACE
 70
     0
 10
0.0
 20
0.0
 30
0.0
  3
$PAPER_SPACE
  1

  0
ENDBLK
  5
E
 67
     1
  8
0
  0
BLOCK
  8
0
  2
*D0
 70
     1
 10
0.0
 20
0.0
 30
0.0
  3
*D0
  1

  0
LINE
  5
224
  8
0
  6
CONTINUOUS
 62
     0
 10
-0.0002584186737735
 20
-6.9007389647788111
 30
0.0
 11
-0.0002584186737736
 21
-8.8817556699225335
 31
0.0
  0
LINE
  5
225
  8
0
  6
CONTINUOUS
 62
     0
 10
26.937223128040088
 20
-0.0864487707519506
 30
0.0
 11
26.937223128040088
 21
-8.8817556699225335
 31
0.0
  0
LINE
  5
226
  8
0
  6
CONTINUOUS
 62
     0
 10
0.1797415813262264
 20
-8.7017556699225338
 30
0.0
 11
12.83848235468316
 21
-8.7017556699225338
 31
0.0
  0
LINE
  5
227
  8
0
  6
CONTINUOUS
 62
     0
 10
26.757223128040099
 20
-8.7017556699225338
 30
0.0
 11
14.09848235468316
 21
-8.7017556699225338
 31
0.0
  0
SOLID
  5
228
  8
0
  6
CONTINUOUS
 62
     0
 10
0.1797415813262264
 20
-8.6717556699225344
 30
0.0
 11
0.1797415813262264
 21
-8.7317556699225332
 31
0.0
 12
-0.0002584186737736
 22
-8.7017556699225338
 32
0.0
 13
-0.0002584186737736
 23
-8.7017556699225338
 33
0.0
  0
SOLID
  5
229
  8
0
  6
CONTINUOUS
 62
     0
 10
26.757223128040099
 20
-8.6717556699225344
 30
0.0
 11
26.757223128040099
 21
-8.7317556699225332
 31
0.0
 12
26.937223128040088
 22
-8.7017556699225338
 32
0.0
 13
26.937223128040088
 23
-8.7017556699225338
 33
0.0
  0
INSERT
  5
22A
  8
0
  6
CONTINUOUS
  2
*U3
 10
0.0
 20
0.0
 30
0.0
  0
POINT
  5
22B
  8
DEFPOINTS
  6
CONTINUOUS
 62
     0
 10
-0.0002584186737735
 20
-6.8382389647788111
 30
0.0
  0
POINT
  5
22C
  8
DEFPOINTS
  6
CONTINUOUS
 62
     0
 10
26.937223128040088
 20
-0.0239487707519506
 30
0.0
  0
POINT
  5
22D
  8
DEFPOINTS
  6
CONTINUOUS
 62
     0
 10
26.937223128040088
 20
-8.7017556699225338
 30
0.0
  0
ENDBLK
  5
22F
  8
0
  0
BLOCK
  8
0
  2
*D1
 70
     1
 10
0.0
 20
0.0
 30
0.0
  3
*D1
  1

  0
LINE
  5
232
  8
0
  6
CONTINUOUS
 62
     0
 10
1.4563600076641161
 20
7.2685477183007867
 30
0.0
 11
-2.4184038051584822
 21
7.2685477183007876
 31
0.0
  0
LINE
  5
233
  8
0
  6
CONTINUOUS
 62
     0
 10
1.4563600076641161
 20
-7.3135714073144484
 30
0.0
 11
-2.4184038051584871
 21
-7.3135714073144467
 31
0.0
  0
LINE
  5
234
  8
0
  6
CONTINUOUS
 62
     0
 10
-2.238403805158482
 20
7.0885477183007879
 30
0.0
 11
-2.2384038051584838
 21
0.1574881554931701
 31
0.0
  0
LINE
  5
235
  8
0
  6
CONTINUOUS
 62
     0
 10
-2.238403805158486
 20
-7.1335714073144469
 30
0.0
 11
-2.2384038051584838
 21
-0.2025118445068299
 31
0.0
  0
SOLID
  5
236
  8
0
  6
CONTINUOUS
 62
     0
 10
-2.2684038051584818
 20
7.0885477183007879
 30
0.0
 11
-2.2084038051584831
 21
7.0885477183007879
 31
0.0
 12
-2.238403805158482
 22
7.2685477183007876
 32
0.0
 13
-2.238403805158482
 23
7.2685477183007876
 33
0.0
  0
SOLID
  5
237
  8
0
  6
CONTINUOUS
 62
     0
 10
-2.2684038051584858
 20
-7.1335714073144469
 30
0.0
 11
-2.2084038051584862
 21
-7.1335714073144469
 31
0.0
 12
-2.238403805158486
 22
-7.3135714073144467
 32
0.0
 13
-2.238403805158486
 23
-7.3135714073144467
 33
0.0
  0
INSERT
  5
238
  8
0
  6
CONTINUOUS
  2
*U4
 10
0.0
 20
0.0
 30
0.0
  0
POINT
  5
239
  8
DEFPOINTS
  6
CONTINUOUS
 62
     0
 10
1.5188600076641161
 20
7.2685477183007867
 30
0.0
  0
POINT
  5
23A
  8
DEFPOINTS
  6
CONTINUOUS
 62
     0
 10
1.5188600076641161
 20
-7.3135714073144484
 30
0.0
  0
POINT
  5
23B
  8
DEFPOINTS
  6
CONTINUOUS
 62
     0
 10
-2.238403805158486
 20
-7.3135714073144467
 30
0.0
  0
ENDBLK
  5
23D
  8
0
  0
BLOCK
  8
0
  2
*D2
 70
     1
 10
0.0
 20
0.0
 30
0.0
  3
*D2
  1

  0
LINE
  5
240
  8
0
  6
CONTINUOUS
 62
     0
 10
12.490599855676811
 20
7.3618521291503853
 30
0.0
 11
31.70086815051372
 21
7.36185212915038
 31
0.0
  0
LINE
  5
241
  8
0
  6
CONTINUOUS
 62
     0
 10
12.490599855676811
 20
-7.406492637832037
 30
0.0
 11
31.70086815051371
 21
-7.4064926378320433
 31
0.0
  0
LINE
  5
242
  8
0
  6
CONTINUOUS
 62
     0
 10
31.52086815051371
 20
7.1818521291503803
 30
0.0
 11
31.52086815051371
 21
0.1576797456591685
 31
0.0
  0
LINE
  5
243
  8
0
  6
CONTINUOUS
 62
     0
 10
31.52086815051371
 20
-7.2264926378320427
 30
0.0
 11
31.52086815051371
 21
-0.2023202543408315
 31
0.0
  0
SOLID
  5
244
  8
0
  6
CONTINUOUS
 62
     0
 10
31.490868150513709
 20
7.1818521291503803
 30
0.0
 11
31.550868150513711
 21
7.1818521291503803
 31
0.0
 12
31.52086815051371
 22
7.36185212915038
 32
0.0
 13
31.52086815051371
 23
7.36185212915038
 33
0.0
  0
SOLID
  5
245
  8
0
  6
CONTINUOUS
 62
     0
 10
31.490868150513709
 20
-7.2264926378320427
 30
0.0
 11
31.550868150513711
 21
-7.2264926378320427
 31
0.0
 12
31.52086815051371
 22
-7.4064926378320433
 32
0.0
 13
31.52086815051371
 23
-7.4064926378320433
 33
0.0
  0
INSERT
  5
246
  8
0
  6
CONTINUOUS
  2
*U5
 10
0.0
 20
0.0
 30
0.0
  0
POINT
  5
247
  8
DEFPOINTS
  6
CONTINUOUS
 62
     0
 10
12.428099855676811
 20
7.3618521291503853
 30
0.0
  0
POINT
  5
248
  8
DEFPOINTS
  6
CONTINUOUS
 62
     0
 10
12.428099855676811
 20
-7.406492637832037
 30
0.0
  0
POINT
  5
249
  8
DEFPOINTS
  6
CONTINUOUS
 62
     0
 10
31.52086815051371
 20
-7.4064926378320433
 30
0.0
  0
ENDBLK
  5
24B
  8
0
  0
BLOCK
  8
0
  2
*U3
 70
     1
 10
0.0
 20
0.0
 30
0.0
  3
*U3
  1

  0
TEXT
  5
263
  8
0
  6
CONTINUOUS
 62
     0
 10
12.92848235468316
 20
-8.7917556699225337
 30
0.0
 40
0.18
  1
26.9375
  0
ENDBLK
  5
265
  8
0
  0
BLOCK
  8
0
  2
*U4
 70
     1
 10
0.0
 20
0.0
 30
0.0
  3
*U4
  1

  0
TEXT
  5
267
  8
0
  6
CONTINUOUS
 62
     0
 10
-2.7184038051584838
 20
-0.1125118445068303
 30
0.0
 40
0.18
  1
14.5821
  0
ENDBLK
  5
269
  8
0
  0
BLOCK
  8
0
  2
*U5
 70
     1
 10
0.0
 20
0.0
 30
0.0
  3
*U5
  1

  0
TEXT
  5
26B
  8
0
  6
CONTINUOUS
 62
     0
 10
31.010868150513708
 20
-0.1123202543408264
 30
0.0
 40
0.18
  1
14.7683
  0
ENDBLK
  5
26D
  8
0
  0
ENDSEC
  0
SECTION
  2
ENTITIES
  0
POLYLINE
  8
0
  5
26E
  66
     1
 10
0.000000
 20
0.000000
 30
0.000000
  70
     8
  0
VERTEX
  8
0
  5
26F
 10
0.190086
 20
-6.99860
 30
0.000000
  70
    32
  0
VERTEX
  8
0
  5
270
 10
0.186801
 20
-6.99857
 30
0.000000
  70
    32
  0
VERTEX
  8
0
  5
271
 10
0.183541
 20
-6.99850
 30
0.000000
  70
    32
  0
VERTEX
  8
0
  5
272
 10
0.180308
 20
-6.99839
 30
0.000000
  70
    32
  0
VERTEX
  8
0
  5
273
 10
0.177102
 20
-6.99822
 30
0.000000
  70
    32
  0
VERTEX
  8
0
  5
274
 10
0.173923
 20
-6.99802
 30
0.000000
  70
    32
  0
VERTEX
  8
0
  5
275
 10
0.170770
 20
-6.99777
 30
0.000000
  70
    32
  0
VERTEX
  8
0
  5
276
 10
0.167645
 20
-6.99747
 30
0.000000
  70
    32
  0
VERTEX
  8
0
  5
277
 10
0.164546
 20
-6.99713
 30
0.000000
  70
    32
  0
VERTEX
  8
0
  5
278
 10
0.161474
 20
-6.99675
 30
0.000000
  70
    32
  0
VERTEX
  8
0
  5
279
 10
0.158429
 20
-6.99633
 30
0.000000
  70
    32
  0
VERTEX
  8
0
  5
27A
 10
0.155411
 20
-6.99586
 30
0.000000
  70
    32
  0
VERTEX
  8
0
  5
27B
 10
0.152420
 20
-6.99536
 30
0.000000
  70
    32
  0
VERTEX
  8
0
  5
27C
 10
0.149457
 20
-6.99481
 30
0.000000
  70
    32
  0
VERTEX
  8
0
  5
27D
 10
0.146520
 20
-6.99422
 30
0.000000
  70
    32
  0
VERTEX
  8
0
  5
27E
 10
0.143611
 20
-6.99360
 30
0.000000
  70
    32
  0
VERTEX
  8
0
  5
27F
 10
0.140729
 20
-6.99293
 30
0.000000
  70
    32
  0
VERTEX
  8
0
  5
280
 10
0.137875
 20
-6.99223
 30
0.000000
  70
    32
  0
VERTEX
  8
0
  5
281
 10
0.135048
 20
-6.99149
 30
0.000000
  70
    32
  0
VERTEX
  8
0
  5
282
 10
0.132248
 20
-6.99071
 30
0.000000
  70
    32
  0
VERTEX
  8
0
  5
283
 10
0.129476
 20
-6.98990
 30
0.000000
  70
    32
  0
VERTEX
  8
0
  5
284
 10
0.126732
 20
-6.98905
 30
0.000000
  70
    32
  0
VERTEX
  8
0
  5
285
 10
0.124015
 20
-6.98817
 30
0.000000
  70
    32
  0
VERTEX
  8
0
  5
286
 10
0.121326
 20
-6.98725
 30
0.000000
  70
    32
  0
VERTEX
  8
0
  5
287
 10
0.118665
 20
-6.98630
 30
0.000000
  70
    32
  0
VERTEX
  8
0
  5
288
 10
0.116031
 20
-6.98531
 30
0.000000
  70
    32
  0
VERTEX
  8
0
  5
289
 10
0.113426
 20
-6.98429
 30
0.000000
  70
    32
  0
VERTEX
  8
0
  5
28A
 10
0.110848
 20
-6.98324
 30
0.000000
  70
    32
  0
VERTEX
  8
0
  5
28B
 10
0.108299
 20
-6.98216
 30
0.000000
  70
    32
  0
VERTEX
  8
0
  5
28C
 10
0.105777
 20
-6.98105
 30
0.000000
  70
    32
  0
VERTEX
  8
0
  5
28D
 10
0.103283
 20
-6.97990
 30
0.000000
  70
    32
  0
VERTEX
  8
0
  5
28E
 10
0.100818
 20
-6.97873
 30
0.000000
  70
    32
  0
VERTEX
  8
0
  5
28F
 10
0.0983811
 20
-6.97752
 30
0.000000
  70
    32
  0
VERTEX
  8
0
  5
290
 10
0.0959723
 20
-6.97629
 30
0.000000
  70
    32
  0
VERTEX
  8
0
  5
291
 10
0.0935918
 20
-6.97503
 30
0.000000
  70
    32
  0
VERTEX
  8
0
  5
292
 10
0.0912396
 20
-6.97374
 30
0.000000
  70
    32
  0
VERTEX
  8
0
  5
293
 10
0.0889159
 20
-6.97243
 30
0.000000
  70
    32
  0
VERTEX
  8
0
  5
294
 10
0.0866208
 20
-6.97109
 30
0.000000
  70
    32
  0
VERTEX
  8
0
  5
295
 10
0.0843541
 20
-6.96972
 30
0.000000
  70
    32
  0
VERTEX
  8
0
  5
296
 10
0.0821161
 20
-6.96832
 30
0.000000
  70
    32
  0
VERTEX
  8
0
  5
297
 10
0.0799067
 20
-6.96691
 30
0.000000
  70
    32
  0
VERTEX
  8
0
  5
298
 10
0.0777260
 20
-6.96546
 30
0.000000
  70
    32
  0
VERTEX
  8
0
  5
299
 10
0.0755741
 20
-6.96400
 30
0.000000
  70
    32
  0
VERTEX
  8
0
  5
29A
 10
0.0734510
 20
-6.96251
 30
0.000000
  70
    32
  0
VERTEX
  8
0
  5
29B
 10
0.0713568
 20
-6.96100
 30
0.000000
  70
    32
  0
VERTEX
  8
0
  5
29C
 10
0.0692916
 20
-6.95947
 30
0.000000
  70
    32
  0
VERTEX
  8
0
  5
29D
 10
0.0672553
 20
-6.95791
 30
0.000000
  70
    32
  0
VERTEX
  8
0
  5
29E
 10
0.0652481
 20
-6.95634
 30
0.000000
  70
    32
  0
VERTEX
  8
0
  5
29F
 10
0.0632699
 20
-6.95474
 30
0.000000
  70
    32
  0
VERTEX
  8
0
  5
2A0
 10
0.0613210
 20
-6.95313
 30
0.000000
  70
    32
  0
VERTEX
  8
0
  5
2A1
 10
0.0594012
 20
-6.95150
 30
0.000000
  70
    32
  0
VERTEX
  8
0
  5
2A2
 10
0.0575107
 20
-6.94984
 30
0.000000
  70
    32
  0
VERTEX
  8
0
  5
2A3
 10
0.0556496
 20
-6.94818
 30
0.000000
  70
    32
  0
VERTEX
  8
0
  5
2A4
 10
0.0538178
 20
-6.94649
 30
0.000000
  70
    32
  0
VERTEX
  8
0
  5
2A5
 10
0.0520155
 20
-6.94479
 30
0.000000
  70
    32
  0
VERTEX
  8
0
  5
2A6
 10
0.0502426
 20
-6.94307
 30
0.000000
  70
    32
  0
VERTEX
  8
0
  5
2A7
 10
0.0484993
 20
-6.94133
 30
0.000000
  70
    32
  0
VERTEX
  8
0
  5
2A8
 10
0.0467856
 20
-6.93958
 30
0.000000
  70
    32
  0
VERTEX
  8
0
  5
2A9
 10
0.0451016
 20
-6.93782
 30
0.000000
  70
    32
  0
VERTEX
  8
0
  5
2AA
 10
0.0434472
 20
-6.93604
 30
0.000000
  70
    32
  0
VERTEX
  8
0
  5
2AB
 10
0.0418227
 20
-6.93425
 30
0.000000
  70
    32
  0
VERTEX
  8
0
  5
2AC
 10
0.0402279
 20
-6.93245
 30
0.000000
  70
    32
  0
VERTEX
  8
0
  5
2AD
 10
0.0386631
 20
-6.93063
 30
0.000000
  70
    32
  0
VERTEX
  8
0
  5
2AE
 10
0.0371282
 20
-6.92880
 30
0.000000
  70
    32
  0
VERTEX
  8
0
  5
2AF
 10
0.0356232
 20
-6.92697
 30
0.000000
  70
    32
  0
VERTEX
  8
0
  5
2B0
 10
0.0341484
 20
-6.92512
 30
0.000000
  70
    32
  0
VERTEX
  8
0
  5
2B1
 10
0.0327036
 20
-6.92326
 30
0.000000
  70
    32
  0
VERTEX
  8
0
  5
2B2
 10
0.0312890
 20
-6.92140
 30
0.000000
  70
    32
  0
VERTEX
  8
0
  5
2B3
 10
0.0299046
 20
-6.91952
 30
0.000000
  70
    32
  0
VERTEX
  8
0
  5
2B4
 10
0.0285504
 20
-6.91764
 30
0.000000
  70
    32
  0
VERTEX
  8
0
  5
2B5
 10
0.0272266
 20
-6.91575
 30
0.000000
  70
    32
  0
VERTEX
  8
0
  5
2B6
 10
0.0259332
 20
-6.91385
 30
0.000000
  70
    32
  0
VERTEX
  8
0
  5
2B7
 10
0.0246702
 20
-6.91195
 30
0.000000
  70
    32
  0
VERTEX
  8
0
  5
2B8
 10
0.0234377
 20
-6.91004
 30
0.000000
  70
    32
  0
VERTEX
  8
0
  5
2B9
 10
0.0222357
 20
-6.90812
 30
0.000000
  70
    32
  0
VERTEX
  8
0
  5
2BA
 10
0.0210644
 20
-6.90621
 30
0.000000
  70
    32
  0
VERTEX
  8
0
  5
2BB
 10
0.0199237
 20
-6.90428
 30
0.000000
  70
    32
  0
VERTEX
  8
0
  5
2BC
 10
0.0188137
 20
-6.90236
 30
0.000000
  70
    32
  0
VERTEX
  8
0
  5
2BD
 10
0.0177345
 20
-6.90043
 30
0.000000
  70
    32
  0
VERTEX
  8
0
  5
2BE
 10
0.0166861
 20
-6.89850
 30
0.000000
  70
    32
  0
VERTEX
  8
0
  5
2BF
 10
0.0156686
 20
-6.89657
 30
0.000000
  70
    32
  0
VERTEX
  8
0
  5
2C0
 10
0.0146820
 20
-6.89464
 30
0.000000
  70
    32
  0
VERTEX
  8
0
  5
2C1
 10
0.0137264
 20
-6.89270
 30
0.000000
  70
    32
  0
VERTEX
  8
0
  5
2C2
 10
0.0128019
 20
-6.89077
 30
0.000000
  70
    32
  0
VERTEX
  8
0
  5
2C3
 10
0.0119085
 20
-6.88884
 30
0.000000
  70
    32
  0
VERTEX
  8
0
  5
2C4
 10
0.0110462
 20
-6.88691
 30
0.000000
  70
    32
  0
VERTEX
  8
0
  5
2C5
 10
0.0102151
 20
-6.88498
 30
0.000000
  70
    32
  0
VERTEX
  8
0
  5
2C6
 10
0.00941534
 20
-6.88305
 30
0.000000
  70
    32
  0
VERTEX
  8
0
  5
2C7
 10
0.00864687
 20
-6.88113
 30
0.000000
  70
    32
  0
VERTEX
  8
0
  5
2C8
 10
0.00790979
 20
-6.87921
 30
0.000000
  70
    32
  0
VERTEX
  8
0
  5
2C9
 10
0.00720414
 20
-6.87729
 30
0.000000
  70
    32
  0
VERTEX
  8
0
  5
2CA
 10
0.00652999
 20
-6.87538
 30
0.000000
  70
    32
  0
VERTEX
  8
0
  5
2CB
 10
0.00588738
 20
-6.87348
 30
0.000000
  70
    32
  0
VERTEX
  8
0
  5
2CC
 10
0.00527637
 20
-6.87158
 30
0.000000
  70
    32
  0
VERTEX
  8
0
  5
2CD
 10
0.00469702
 20
-6.86968
 30
0.000000
  70
    32
  0
VERTEX
  8
0
  5
2CE
 10
0.00414939
 20
-6.86780
 30
0.000000
  70
    32
  0
VERTEX
  8
0
  5
2CF
 10
0.00363352
 20
-6.86592
 30
0.000000
  70
    32
  0
VERTEX
  8
0
  5
2D0
 10
0.00314948
 20
-6.86405
 30
0.000000
  70
    32
  0
VERTEX
  8
0
  5
2D1
 10
0.00269733
 20
-6.86219
 30
0.000000
  70
    32
  0
VERTEX
  8
0
  5
2D2
 10
0.00227710
 20
-6.86034
 30
0.000000
  70
    32
  0
VERTEX
  8
0
  5
2D3
 10
0.00188887
 20
-6.85850
 30
0.000000
  70
    32
  0
VERTEX
  8
0
  5
2D4
 10
0.00153269
 20
-6.85667
 30
0.000000
  70
    32
  0
VERTEX
  8
0
  5
2D5
 10
0.00120861
 20
-6.85485
 30
0.000000
  70
    32
  0
VERTEX
  8
0
  5
2D6
 10
0.000916683
 20
-6.85304
 30
0.000000
  70
    32
  0
VERTEX
  8
0
  5
2D7
 10
0.000656973
 20
-6.85125
 30
0.000000
  70
    32
  0
VERTEX
  8
0
  5
2D8
 10
0.000429534
 20
-6.84946
 30
0.000000
  70
    32
  0
VERTEX
  8
0
  5
2D9
 10
0.000234419
 20
-6.84770
 30
0.000000
  70
    32
  0
VERTEX
  8
0
  5
2DA
 10
7.16850e-005
 20
-6.84594
 30
0.000000
  70
    32
  0
VERTEX
  8
0
  5
2DB
 10
-5.86129e-005
 20
-6.84420
 30
0.000000
  70
    32
  0
VERTEX
  8
0
  5
2DC
 10
-0.000156419
 20
-6.84248
 30
0.000000
  70
    32
  0
VERTEX
  8
0
  5
2DD
 10
-0.000221678
 20
-6.84077
 30
0.000000
  70
    32
  0
VERTEX
  8
0
  5
2DE
 10
-0.000254334
 20
-6.83908
 30
0.000000
  70
    32
  0
VERTEX
  8
0
  5
2DF
 10
-0.000258419
 20
-6.83783
 30
0.000000
  70
    32
  0
VERTEX
  8
0
  5
2E0
 10
-0.000258419
 20
-6.83457
 30
0.000000
  70
    32
  0
VERTEX
  8
0
  5
2E1
 10
-0.000258419
 20
-6.82811
 30
0.000000
  70
    32
  0
VERTEX
  8
0
  5
2E2
 10
-0.000258419
 20
-6.81851
 30
0.000000
  70
    32
  0
VERTEX
  8
0
  5
2E3
 10
-0.000258419
 20
-6.80583
 30
0.000000
  70
    32
  0
VERTEX
  8
0
  5
2E4
 10
-0.000258419
 20
-6.79013
 30
0.000000
  70
    32
  0
VERTEX
  8
0
  5
2E5
 10
-0.000258419
 20
-6.77146
 30
0.000000
  70
    32
  0
VERTEX
  8
0
  5
2E6
 10
-0.000258419
 20
-6.74989
 30
0.000000
  70
    32
  0
VERTEX
  8
0
  5
2E7
 10
-0.000258419
 20
-6.72547
 30
0.000000
  70
    32
  0
VERTEX
  8
0
  5
2E8
 10
-0.000258419
 20
-6.69826
 30
0.000000
  70
    32
  0
VERTEX
  8
0
  5
2E9
 10
-0.000258419
 20
-6.66833
 30
0.000000
  70
    32
  0
VERTEX
  8
0
  5
2EA
 10
-0.000258419
 20
-6.63572
 30
0.000000
  70
    32
  0
VERTEX
  8
0
  5
2EB
 10
-0.000258419
 20
-6.60051
 30
0.000000
  70
    32
  0
VERTEX
  8
0
  5
2EC
 10
-0.000258419
 20
-6.56274
 30
0.000000
  70
    32
  0
VERTEX
  8
0
  5
2ED
 10
-0.000258419
 20
-6.52249
 30
0.000000
  70
    32
  0
VERTEX
  8
0
  5
2EE
 10
-0.000258419
 20
-6.47979
 30
0.000000
  70
    32
  0
VERTEX
  8
0
  5
2EF
 10
-0.000258419
 20
-6.43473
 30
0.000000
  70
    32
  0
VERTEX
  8
0
  5
2F0
 10
-0.000258419
 20
-6.38735
 30
0.000000
  70
    32
  0
VERTEX
  8
0
  5
2F1
 10
-0.000258419
 20
-6.33771
 30
0.000000
  70
    32
  0
VERTEX
  8
0
  5
2F2
 10
-0.000258419
 20
-6.28588
 30
0.000000
  70
    32
  0
VERTEX
  8
0
  5
2F3
 10
-0.000258419
 20
-6.23190
 30
0.000000
  70
    32
  0
VERTEX
  8
0
  5
2F4
 10
-0.000258419
 20
-6.17585
 30
0.000000
  70
    32
  0
VERTEX
  8
0
  5
2F5
 10
-0.000258419
 20
-6.11778
 30
0.000000
  70
    32
  0
VERTEX
  8
0
  5
2F6
 10
-0.000258419
 20
-6.05774
 30
0.000000
  70
    32
  0
VERTEX
  8
0
  5
2F7
 10
-0.000258419
 20
-5.99581
 30
0.000000
  70
    32
  0
VERTEX
  8
0
  5
2F8
 10
-0.000258419
 20
-5.93203
 30
0.000000
  70
    32
  0
VERTEX
  8
0
  5
2F9
 10
-0.000258419
 20
-5.86646
 30
0.000000
  70
    32
  0
VERTEX
  8
0
  5
2FA
 10
-0.000258419
 20
-5.79917
 30
0.000000
  70
    32
  0
VERTEX
  8
0
  5
2FB
 10
-0.000258419
 20
-5.73021
 30
0.000000
  70
    32
  0
VERTEX
  8
0
  5
2FC
 10
-0.000258419
 20
-5.65965
 30
0.000000
  70
    32
  0
VERTEX
  8
0
  5
2FD
 10
-0.000258419
 20
-5.58754
 30
0.000000
  70
    32
  0
VERTEX
  8
0
  5
2FE
 10
-0.000258419
 20
-5.51393
 30
0.000000
  70
    32
  0
VERTEX
  8
0
  5
2FF
 10
-0.000258419
 20
-5.43890
 30
0.000000
  70
    32
  0
VERTEX
  8
0
  5
300
 10
-0.000258419
 20
-5.36250
 30
0.000000
  70
    32
  0
VERTEX
  8
0
  5
301
 10
-0.000258419
 20
-5.28478
 30
0.000000
  70
    32
  0
VERTEX
  8
0
  5
302
 10
-0.000258419
 20
-5.20581
 30
0.000000
  70
    32
  0
VERTEX
  8
0
  5
303
 10
-0.000258419
 20
-5.12565
 30
0.000000
  70
    32
  0
VERTEX
  8
0
  5
304
 10
-0.000258419
 20
-5.04435
 30
0.000000
  70
    32
  0
VERTEX
  8
0
  5
305
 10
-0.000258419
 20
-4.96197
 30
0.000000
  70
    32
  0
VERTEX
  8
0
  5
306
 10
-0.000258419
 20
-4.87858
 30
0.000000
  70
    32
  0
VERTEX
  8
0
  5
307
 10
-0.000258419
 20
-4.79422
 30
0.000000
  70
    32
  0
VERTEX
  8
0
  5
308
 10
-0.000258419
 20
-4.70897
 30
0.000000
  70
    32
  0
VERTEX
  8
0
  5
309
 10
-0.000258419
 20
-4.62288
 30
0.000000
  70
    32
  0
VERTEX
  8
0
  5
30A
 10
-0.000258419
 20
-4.53600
 30
0.000000
  70
    32
  0
VERTEX
  8
0
  5
30B
 10
-0.000258419
 20
-4.44840
 30
0.000000
  70
    32
  0
VERTEX
  8
0
  5
30C
 10
-0.000258419
 20
-4.36014
 30
0.000000
  70
    32
  0
VERTEX
  8
0
  5
30D
 10
-0.000258419
 20
-4.27128
 30
0.000000
  70
    32
  0
VERTEX
  8
0
  5
30E
 10
-0.000258419
 20
-4.18187
 30
0.000000
  70
    32
  0
VERTEX
  8
0
  5
30F
 10
-0.000258419
 20
-4.09197
 30
0.000000
  70
    32
  0
VERTEX
  8
0
  5
310
 10
-0.000258419
 20
-4.00164
 30
0.000000
  70
    32
  0
VERTEX
  8
0
  5
311
 10
-0.000258419
 20
-3.91095
 30
0.000000
  70
    32
  0
VERTEX
  8
0
  5
312
 10
-0.000258419
 20
-3.81994
 30
0.000000
  70
    32
  0
VERTEX
  8
0
  5
313
 10
-0.000258419
 20
-3.72869
 30
0.000000
  70
    32
  0
VERTEX
  8
0
  5
314
 10
-0.000258419
 20
-3.63724
 30
0.000000
  70
    32
  0
VERTEX
  8
0
  5
315
 10
-0.000258419
 20
-3.54566
 30
0.000000
  70
    32
  0
VERTEX
  8
0
  5
316
 10
-0.000258419
 20
-3.45401
 30
0.000000
  70
    32
  0
VERTEX
  8
0
  5
317
 10
-0.000258419
 20
-3.36234
 30
0.000000
  70
    32
  0
VERTEX
  8
0
  5
318
 10
-0.000258419
 20
-3.27072
 30
0.000000
  70
    32
  0
VERTEX
  8
0
  5
319
 10
-0.000258419
 20
-3.17920
 30
0.000000
  70
    32
  0
VERTEX
  8
0
  5
31A
 10
-0.000258419
 20
-3.08784
 30
0.000000
  70
    32
  0
VERTEX
  8
0
  5
31B
 10
-0.000258419
 20
-2.99670
 30
0.000000
  70
    32
  0
VERTEX
  8
0
  5
31C
 10
-0.000258419
 20
-2.90585
 30
0.000000
  70
    32
  0
VERTEX
  8
0
  5
31D
 10
-0.000258419
 20
-2.81533
 30
0.000000
  70
    32
  0
VERTEX
  8
0
  5
31E
 10
-0.000258419
 20
-2.72521
 30
0.000000
  70
    32
  0
VERTEX
  8
0
  5
31F
 10
-0.000258419
 20
-2.63555
 30
0.000000
  70
    32
  0
VERTEX
  8
0
  5
320
 10
-0.000258419
 20
-2.54640
 30
0.000000
  70
    32
  0
VERTEX
  8
0
  5
321
 10
-0.000258419
 20
-2.45783
 30
0.000000
  70
    32
  0
VERTEX
  8
0
  5
322
 10
-0.000258419
 20
-2.36990
 30
0.000000
  70
    32
  0
VERTEX
  8
0
  5
323
 10
-0.000258419
 20
-2.28265
 30
0.000000
  70
    32
  0
VERTEX
  8
0
  5
324
 10
-0.000258419
 20
-2.19616
 30
0.000000
  70
    32
  0
VERTEX
  8
0
  5
325
 10
-0.000258419
 20
-2.11048
 30
0.000000
  70
    32
  0
VERTEX
  8
0
  5
326
 10
-0.000258419
 20
-2.02567
 30
0.000000
  70
    32
  0
VERTEX
  8
0
  5
327
 10
-0.000258419
 20
-1.94179
 30
0.000000
  70
    32
  0
VERTEX
  8
0
  5
328
 10
-0.000258419
 20
-1.85890
 30
0.000000
  70
    32
  0
VERTEX
  8
0
  5
329
 10
-0.000258419
 20
-1.77705
 30
0.000000
  70
    32
  0
VERTEX
  8
0
  5
32A
 10
-0.000258419
 20
-1.69631
 30
0.000000
  70
    32
  0
VERTEX
  8
0
  5
32B
 10
-0.000258419
 20
-1.61674
 30
0.000000
  70
    32
  0
VERTEX
  8
0
  5
32C
 10
-0.000258419
 20
-1.53838
 30
0.000000
  70
    32
  0
VERTEX
  8
0
  5
32D
 10
-0.000258419
 20
-1.46132
 30
0.000000
  70
    32
  0
VERTEX
  8
0
  5
32E
 10
-0.000258419
 20
-1.38559
 30
0.000000
  70
    32
  0
VERTEX
  8
0
  5
32F
 10
-0.000258419
 20
-1.31127
 30
0.000000
  70
    32
  0
VERTEX
  8
0
  5
330
 10
-0.000258419
 20
-1.23840
 30
0.000000
  70
    32
  0
VERTEX
  8
0
  5
331
 10
-0.000258419
 20
-1.16706
 30
0.000000
  70
    32
  0
VERTEX
  8
0
  5
332
 10
-0.000258419
 20
-1.09729
 30
0.000000
  70
    32
  0
VERTEX
  8
0
  5
333
 10
-0.000258419
 20
-1.02916
 30
0.000000
  70
    32
  0
VERTEX
  8
0
  5
334
 10
-0.000258419
 20
-0.962723
 30
0.000000
  70
    32
  0
VERTEX
  8
0
  5
335
 10
-0.000258419
 20
-0.898043
 30
0.000000
  70
    32
  0
VERTEX
  8
0
  5
336
 10
-0.000258419
 20
-0.835177
 30
0.000000
  70
    32
  0
VERTEX
  8
0
  5
337
 10
-0.000258419
 20
-0.774184
 30
0.000000
  70
    32
  0
VERTEX
  8
0
  5
338
 10
-0.000258419
 20
-0.715123
 30
0.000000
  70
    32
  0
VERTEX
  8
0
  5
339
 10
-0.000258419
 20
-0.658052
 30
0.000000
  70
    32
  0
VERTEX
  8
0
  5
33A
 10
-0.000258419
 20
-0.603032
 30
0.000000
  70
    32
  0
VERTEX
  8
0
  5
33B
 10
-0.000258419
 20
-0.550121
 30
0.000000
  70
    32
  0
VERTEX
  8
0
  5
33C
 10
-0.000258419
 20
-0.499377
 30
0.000000
  70
    32
  0
VERTEX
  8
0
  5
33D
 10
-0.000258419
 20
-0.450861
 30
0.000000
  70
    32
  0
VERTEX
  8
0
  5
33E
 10
-0.000258419
 20
-0.404630
 30
0.000000
  70
    32
  0
VERTEX
  8
0
  5
33F
 10
-0.000258419
 20
-0.360744
 30
0.000000
  70
    32
  0
VERTEX
  8
0
  5
340
 10
-0.000258419
 20
-0.319262
 30
0.000000
  70
    32
  0
VERTEX
  8
0
  5
341
 10
-0.000258419
 20
-0.280242
 30
0.000000
  70
    32
  0
VERTEX
  8
0
  5
342
 10
-0.000258419
 20
-0.243745
 30
0.000000
  70
    32
  0
VERTEX
  8
0
  5
343
 10
-0.000258419
 20
-0.209828
 30
0.000000
  70
    32
  0
VERTEX
  8
0
  5
344
 10
-0.000258419
 20
-0.178551
 30
0.000000
  70
    32
  0
VERTEX
  8
0
  5
345
 10
-0.000258419
 20
-0.149973
 30
0.000000
  70
    32
  0
VERTEX
  8
0
  5
346
 10
-0.000258419
 20
-0.124153
 30
0.000000
  70
    32
  0
VERTEX
  8
0
  5
347
 10
-0.000258419
 20
-0.101149
 30
0.000000
  70
    32
  0
VERTEX
  8
0
  5
348
 10
-0.000258419
 20
-0.0810214
 30
0.000000
  70
    32
  0
VERTEX
  8
0
  5
349
 10
-0.000258419
 20
-0.0638283
 30
0.000000
  70
    32
  0
VERTEX
  8
0
  5
34A
 10
-0.000258419
 20
-0.0496290
 30
0.000000
  70
    32
  0
VERTEX
  8
0
  5
34B
 10
-0.000258419
 20
-0.0384824
 30
0.000000
  70
    32
  0
VERTEX
  8
0
  5
34C
 10
-0.000258419
 20
-0.0304475
 30
0.000000
  70
    32
  0
VERTEX
  8
0
  5
34D
 10
-0.000258419
 20
-0.0255833
 30
0.000000
  70
    32
  0
VERTEX
  8
0
  5
34E
 10
-0.000258419
 20
-0.0239488
 30
0.000000
  70
    32
  0
SEQEND
  8
0
  5
34F
  0
POLYLINE
  5
25
  8
0
 66
     1
 10
0.0
 20
0.0
 30
0.0
  0
VERTEX
  5
26
  8
0
 10
26.013183757346731
 20
6.5244115134960969
 30
0.0
  0
VERTEX
  5
27
  8
0
 10
25.97984706846001
 20
6.6171411538476468
 30
0.0
  0
VERTEX
  5
28
  8
0
 10
25.936643486023488
 20
6.7037399088867096
 30
0.0
  0
VERTEX
  5
29
  8
0
 10
25.883477214954151
 20
6.7834414179492271
 30
0.0
  0
VERTEX
  5
2A
  8
0
 10
25.81699542734674
 20
6.8598858941894534
 30
0.0
  0
VERTEX
  5
2B
  8
0
 10
25.743999574094779
 20
6.9229190588085947
 30
0.0
  0
VERTEX
  5
2C
  8
0
 10
25.66439386011529
 20
6.979438157783199
 30
0.0
  0
VERTEX
  5
2D
  8
0
 10
25.577603514910219
 20
7.0259945681250073
 30
0.0
  0
VERTEX
  5
2E
  8
0
 10
25.48468228439263
 20
7.0593312570117126
 30
0.0
  0
VERTEX
  5
2F
  8
0
 10
25.388312430886781
 20
7.0825136670996107
 30
0.0
  0
VERTEX
  5
30
  8
0
 10
25.29175098721489
 20
7.0924763557324084
 30
0.0
  0
VERTEX
  5
31
  8
0
 10
23.45708355744927
 20
7.165472208984375
 30
0.0
  0
VERTEX
  5
32
  8
0
 10
21.618967504695359
 20
7.2288885539355396
 30
0.0
  0
VERTEX
  5
33
  8
0
 10
19.78065986177544
 20
7.2819590299218708
 30
0.0
  0
VERTEX
  5
34
  8
0
 10
17.942352218855518
 20
7.3185527516308531
 30
0.0
  0
VERTEX
  5
35
  8
0
 10
16.104523551350631
 20
7.344992194541013
 30
0.0
  0
VERTEX
  5
36
  8
0
 10
14.266407498596729
 20
7.3585950963281226
 30
0.0
  0
VERTEX
  5
37
  8
0
 10
12.428099855676811
 20
7.3618521291503853
 30
0.0
  0
VERTEX
  5
38
  8
0
 10
10.593145040662151
 20
7.3516978503515631
 30
0.0
  0
VERTEX
  5
39
  8
0
 10
8.7551247829912668
 20
7.3285154402636792
 30
0.0
  0
VERTEX
  5
3A
  8
0
 10
6.9170087302373551
 20
7.2921133087207082
 30
0.0
  0
VERTEX
  5
3B
  8
0
 10
5.0788926774834522
 20
7.2453653082128886
 30
0.0
  0
SEQEND
  5
3C
  8
0
  0
POLYLINE
  5
3D
  8
0
 66
     1
 10
0.0
 20
0.0
 30
0.0
  0
VERTEX
  5
3E
  8
0
 10
5.0788926774834522
 20
-7.2903889972265636
 30
0.0
  0
VERTEX
  5
3F
  8
0
 10
6.9170087302373551
 20
-7.3367538174023457
 30
0.0
  0
VERTEX
  5
40
  8
0
 10
8.7551247829912668
 20
-7.3733475391113279
 30
0.0
  0
VERTEX
  5
41
  8
0
 10
10.593145040662151
 20
-7.3967215393652381
 30
0.0
  0
VERTEX
  5
42
  8
0
 10
12.428099855676811
 20
-7.406492637832037
 30
0.0
  0
VERTEX
  5
43
  8
0
 10
14.266407498596729
 20
-7.4034271951757873
 30
0.0
  0
VERTEX
  5
44
  8
0
 10
16.104523551350631
 20
-7.3898242933886769
 30
0.0
  0
VERTEX
  5
45
  8
0
 10
17.942352218855518
 20
-7.3633848504785169
 30
0.0
  0
VERTEX
  5
46
  8
0
 10
19.78065986177544
 20
-7.3269827189355459
 30
0.0
  0
VERTEX
  5
47
  8
0
 10
21.618967504695359
 20
-7.2737206527832043
 30
0.0
  0
VERTEX
  5
48
  8
0
 10
23.45708355744927
 20
-7.2106874881640621
 30
0.0
  0
VERTEX
  5
49
  8
0
 10
25.29175098721489
 20
-7.1375000447460968
 30
0.0
  0
SEQEND
  5
4A
  8
0
  0
POLYLINE
  5
4B
  8
0
 66
     1
 10
0.0
 20
0.0
 30
0.0
  0
VERTEX
  5
4C
  8
0
 10
17.218045596233441
 20
-5.2127852369531311
 30
0.0
  0
VERTEX
  5
4D
  8
0
 10
19.295457766340871
 20
-5.1729344824218719
 30
0.0
  0
VERTEX
  5
4E
  8
0
 10
21.369612903626031
 20
-5.1198640064355549
 30
0.0
  0
VERTEX
  5
4F
  8
0
 10
21.58582240597466
 20
-5.1064526948144566
 30
0.0
  0
VERTEX
  5
50
  8
0
 10
21.798487490252
 20
-5.0798216617382863
 30
0.0
  0
VERTEX
  5
51
  8
0
 10
22.011152574529358
 20
-5.0401624973730534
 30
0.0
  0
VERTEX
  5
52
  8
0
 10
22.22046483090142
 20
-4.9834518082324228
 30
0.0
  0
VERTEX
  5
53
  8
0
 10
22.426711644617239
 20
-4.9169700206249942
 30
0.0
  0
VERTEX
  5
54
  8
0
 10
22.625965417273491
 20
-4.840525544384767
 30
0.0
  0
VERTEX
  5
55
  8
0
 10
22.8221537472735
 20
-4.7476043138671917
 30
0.0
  0
VERTEX
  5
56
  8
0
 10
23.011732216545951
 20
-4.64452880455078
 30
0.0
  0
VERTEX
  5
57
  8
0
 10
23.191252202102589
 20
-4.5278503934472729
 30
0.0
  0
VERTEX
  5
58
  8
0
 10
23.367419359753939
 20
-4.4017840642089894
 30
0.0
  0
VERTEX
  5
59
  8
0
 10
23.5335280336895
 20
-4.2623064233496057
 30
0.0
  0
VERTEX
  5
5A
  8
0
 10
23.689674018992239
 20
-4.1159315365136626
 30
0.0
  0
VERTEX
  5
5B
  8
0
 10
23.839401733733439
 20
-3.9597855512109348
 30
0.0
  0
VERTEX
  5
5C
  8
0
 10
23.975526546687551
 20
-3.7934852871093838
 30
0.0
  0
VERTEX
  5
5D
  8
0
 10
24.10188026117487
 20
-3.6174139245410188
 30
0.0
  0
VERTEX
  5
5E
  8
0
 10
24.218271287029349
 20
-3.4346369061621052
 30
0.0
  0
VERTEX
  5
5F
  8
0
 10
24.321251001262741
 20
-3.244771051640619
 30
0.0
  0
VERTEX
  5
60
  8
0
 10
24.41445961702934
 20
-3.0522229347949188
 30
0.0
  0
VERTEX
  5
61
  8
0
 10
24.49071250310357
 20
-2.8495205391503968
 30
0.0
  0
VERTEX
  5
62
  8
0
 10
24.557290085794001
 20
-2.6466265533398499
 30
0.0
  0
VERTEX
  5
63
  8
0
 10
24.610456356863331
 20
-2.4374100920507762
 30
0.0
  0
VERTEX
  5
64
  8
0
 10
24.650307111394589
 20
-2.2247450077734432
 30
0.0
  0
VERTEX
  5
65
  8
0
 10
24.680290972376039
 20
-2.0116967431640589
 30
0.0
  0
VERTEX
  5
66
  8
0
 10
24.720141726907279
 20
-1.5166277541796871
 30
0.0
  0
VERTEX
  5
67
  8
0
 10
24.74677275998345
 20
-1.017918552041017
 30
0.0
  0
VERTEX
  5
68
  8
0
 10
24.763441104426811
 20
-0.5226579728906207
 30
0.0
  0
VERTEX
  5
69
  8
0
 10
24.769955170071341
 20
-0.0239487707519506
 30
0.0
  0
VERTEX
  5
6A
  8
0
 10
24.763441104426811
 20
0.4747604313867196
 30
0.0
  0
VERTEX
  5
6B
  8
0
 10
24.74677275998345
 20
0.9696378302050799
 30
0.0
  0
VERTEX
  5
6C
  8
0
 10
24.720141726907279
 20
1.4683470323437491
 30
0.0
  0
VERTEX
  5
6D
  8
0
 10
24.680290972376039
 20
1.9636076114941321
 30
0.0
  0
VERTEX
  5
6E
  8
0
 10
24.650307111394589
 20
2.176464285937505
 30
0.0
  0
VERTEX
  5
6F
  8
0
 10
24.610456356863331
 20
2.389129370214838
 30
0.0
  0
VERTEX
  5
70
  8
0
 10
24.557290085794001
 20
2.5983458315039121
 30
0.0
  0
VERTEX
  5
71
  8
0
 10
24.49071250310357
 20
2.8012398173144448
 30
0.0
  0
VERTEX
  5
72
  8
0
 10
24.41445961702934
 20
3.003942212958981
 30
0.0
  0
VERTEX
  5
73
  8
0
 10
24.321251001262741
 20
3.1968735101367178
 30
0.0
  0
VERTEX
  5
74
  8
0
 10
24.218271287029349
 20
3.3863561843261669
 30
0.0
  0
VERTEX
  5
75
  8
0
 10
24.10188026117487
 20
3.5691332027050811
 30
0.0
  0
VERTEX
  5
76
  8
0
 10
23.975526546687551
 20
3.745396155439443
 30
0.0
  0
VERTEX
  5
77
  8
0
 10
23.839401733733439
 20
3.911504829374997
 30
0.0
  0
VERTEX
  5
78
  8
0
 10
23.689674018992239
 20
4.0678424048437369
 30
0.0
  0
VERTEX
  5
79
  8
0
 10
23.5335280336895
 20
4.2140257015136688
 30
0.0
  0
VERTEX
  5
7A
  8
0
 10
23.367419359753939
 20
4.3535033423730383
 30
0.0
  0
VERTEX
  5
7B
  8
0
 10
23.191252202102589
 20
4.4799528519433593
 30
0.0
  0
VERTEX
  5
7C
  8
0
 10
23.011732216545951
 20
4.5962480827148431
 30
0.0
  0
VERTEX
  5
7D
  8
0
 10
22.8221537472735
 20
4.6993235920312548
 30
0.0
  0
VERTEX
  5
7E
  8
0
 10
22.625965417273491
 20
4.7922448225488301
 30
0.0
  0
VERTEX
  5
7F
  8
0
 10
22.426711644617239
 20
4.8688808889550677
 30
0.0
  0
VERTEX
  5
80
  8
0
 10
22.22046483090142
 20
4.9351710863964717
 30
0.0
  0
VERTEX
  5
81
  8
0
 10
22.011152574529358
 20
4.9918817755371023
 30
0.0
  0
VERTEX
  5
82
  8
0
 10
21.798487490252
 20
5.0315409399023352
 30
0.0
  0
VERTEX
  5
83
  8
0
 10
21.58582240597466
 20
5.0581719729785064
 30
0.0
  0
VERTEX
  5
84
  8
0
 10
21.369612903626031
 20
5.0715832845996038
 30
0.0
  0
VERTEX
  5
85
  8
0
 10
19.295457766340871
 20
5.124653760585935
 30
0.0
  0
VERTEX
  5
86
  8
0
 10
17.218045596233441
 20
5.1645045151171942
 30
0.0
  0
SEQEND
  5
87
  8
0
  0
POLYLINE
  5
88
  8
0
 66
     1
 10
0.0
 20
0.0
 30
0.0
  0
VERTEX
  5
89
  8
0
 10
1.023503633430721
 20
6.9564473378613272
 30
0.0
  0
VERTEX
  5
8A
  8
0
 10
1.0766699045000501
 20
6.9627698133398388
 30
0.0
  0
VERTEX
  5
8B
  8
0
 10
1.1266749378301311
 20
6.9828867807714872
 30
0.0
  0
VERTEX
  5
8C
  8
0
 10
1.1730397580059131
 20
7.0095178138476584
 30
0.0
  0
VERTEX
  5
8D
  8
0
 10
1.2096334797148951
 20
7.0493685683789016
 30
0.0
  0
VERTEX
  5
8E
  8
0
 10
1.236360307874079
 20
7.0924763557324084
 30
0.0
  0
SEQEND
  5
8F
  8
0
  0
POLYLINE
  5
90
  8
0
 66
     1
 10
0.0
 20
0.0
 30
0.0
  0
VERTEX
  5
91
  8
0
 10
1.236360307874079
 20
-7.1375000447460968
 30
0.0
  0
VERTEX
  5
92
  8
0
 10
1.2096334797148951
 20
-7.0942006672265663
 30
0.0
  0
VERTEX
  5
93
  8
0
 10
1.1730397580059131
 20
-7.0541583225292959
 30
0.0
  0
VERTEX
  5
94
  8
0
 10
1.1266749378301311
 20
-7.0277188796191501
 30
0.0
  0
VERTEX
  5
95
  8
0
 10
1.0766699045000501
 20
-7.0079850925195402
 30
0.0
  0
VERTEX
  5
96
  8
0
 10
1.023503633430721
 20
-7.0010878465429647
 30
0.0
  0
SEQEND
  5
97
  8
0
  0
LINE
  5
98
  8
0
 10
0.1559833617119679
 20
-6.994573780898441
 30
0.0
 11
1.023503633430721
 21
-7.0010878465429647
 31
0.0
  0
LINE
  5
99
  8
0
 10
-0.0002584186737735
 20
-5.0466765630175772
 30
0.0
 11
-0.0002584186737735
 21
-5.5289090108788983
 31
0.0
  0
POLYLINE
  5
9A
  8
0
 66
     1
 10
0.0
 20
0.0
 30
0.0
  0
VERTEX
  5
9B
  8
0
 10
0.1559833617119679
 20
6.949741682050778
 30
0.0
  0
VERTEX
  5
9C
  8
0
 10
0.1161326071807167
 20
6.9462930590624898
 30
0.0
  0
VERTEX
  5
9D
  8
0
 10
0.0760902624834543
 20
6.9294331244531193
 30
0.0
  0
VERTEX
  5
9E
  8
0
 10
0.0462979916680197
 20
6.9031852717089697
 30
0.0
  0
VERTEX
  5
9F
  8
0
 10
0.0195711635088429
 20
6.872914025478515
 30
0.0
  0
VERTEX
  5
A0
  8
0
 10
0.0064472371367756
 20
6.8332548611132822
 30
0.0
  0
VERTEX
  5
A1
  8
0
 10
-0.0002584186737735
 20
6.7935956967480493
 30
0.0
  0
VERTEX
  5
A2
  8
0
 10
-0.0002584186737735
 20
-0.0239487707519506
 30
0.0
  0
SEQEND
  5
A3
  8
0
  0
LINE
  5
A4
  8
0
 10
-0.0002584186737735
 20
-1.8823733811035119
 30
0.0
 11
-0.0002584186737735
 21
-1.3403648014453109
 31
0.0
  0
ATTDEF
  5
A5
  8
0
 62
     6
 10
0.0
 20
-0.015
 30
0.0
 40
0.003
  1
VITREOUS CHINA
  3

  2
MATERIAL
 70
     2
  0
ATTDEF
  5
A6
  8
0
 62
     6
 10
0.0
 20
-0.01
 30
0.0
 40
0.003
  1
TOILET
  3

  2
PRODUCT
 70
     2
  0
ATTDEF
  5
A7
  8
0
 62
     6
 10
0.0
 20
-0.005
 30
0.0
 40
0.003
  1
ESCALE
  3

  2
TRADENAME
 70
     2
  0
ATTDEF
  5
A8
  8
0
 62
     6
 10
0.0
 20
0.0
 30
0.0
 40
0.003
  1
K-19796
  3

  2
MODELNUMBER
 70
     2
  0
LINE
  5
A9
  8
0
 10
1.023503633430721
 20
6.9564473378613272
 30
0.0
 11
0.1559833617119679
 21
6.949741682050778
 31
0.0
  0
POLYLINE
  5
AA
  8
0
 66
     1
 10
0.0
 20
0.0
 30
0.0
  0
VERTEX
  5
AB
  8
0
 10
5.6363242655059116
 20
-7.1108690116699256
 30
0.0
  0
VERTEX
  5
AC
  8
0
 10
5.815748455979544
 20
-6.6255711211523396
 30
0.0
  0
VERTEX
  5
AD
  8
0
 10
5.9854973430693903
 20
-6.137016197812506
 30
0.0
  0
VERTEX
  5
AE
  8
0
 10
6.1382905004668507
 20
-5.641755618662109
 30
0.0
  0
VERTEX
  5
AF
  8
0
 10
6.2811209692315009
 20
-5.1430464165234389
 30
0.0
  0
VERTEX
  5
B0
  8
0
 10
6.4076662738848214
 20
-4.6410801815624927
 30
0.0
  0
VERTEX
  5
B1
  8
0
 10
6.5238657095733004
 20
-4.1358569137792989
 30
0.0
  0
VERTEX
  5
B2
  8
0
 10
6.623684186067436
 20
-3.6273766131738299
 30
0.0
  0
VERTEX
  5
B3
  8
0
 10
6.7133483837627486
 20
-3.11889631256836
 30
0.0
  0
VERTEX
  5
B4
  8
0
 10
6.786535827180721
 20
-2.6037103561523409
 30
0.0
  0
VERTEX
  5
B5
  8
0
 10
6.849664786882868
 20
-2.0915898423925721
 30
0.0
  0
VERTEX
  5
B6
  8
0
 10
6.8964127873906804
 20
-1.576212295810556
 30
0.0
  0
VERTEX
  5
B7
  8
0
 10
6.9295578861113816
 20
-1.057960896738287
 30
0.0
  0
VERTEX
  5
B8
  8
0
 10
6.949387468293998
 20
-0.5391347271679697
 30
0.0
  0
VERTEX
  5
B9
  8
0
 10
6.9559973290215353
 20
-0.0239487707519506
 30
0.0
  0
SEQEND
  5
BA
  8
0
  0
POLYLINE
  5
BB
  8
0
 66
     1
 10
0.0
 20
0.0
 30
0.0
  0
VERTEX
  5
BC
  8
0
 10
12.93667595136529
 20
-0.0239487707519506
 30
0.0
  0
VERTEX
  5
BD
  8
0
 10
12.943285812092819
 20
-0.3665119875878919
 30
0.0
  0
VERTEX
  5
BE
  8
0
 10
12.95640973846489
 20
-0.7088836142578221
 30
0.0
  0
VERTEX
  5
BF
  8
0
 10
12.98668098469537
 20
-1.051255240927738
 30
0.0
  0
VERTEX
  5
C0
  8
0
 10
13.02317891132134
 20
-1.39017824460938
 30
0.0
  0
VERTEX
  5
C1
  8
0
 10
13.0729923544854
 20
-1.7292928384570341
 30
0.0
  0
VERTEX
  5
C2
  8
0
 10
13.11619593692193
 20
-1.9586262671777419
 30
0.0
  0
VERTEX
  5
C3
  8
0
 10
13.172619240813519
 20
-2.1879596958984351
 30
0.0
  0
VERTEX
  5
C4
  8
0
 10
13.242262266160211
 20
-2.4140360917968811
 30
0.0
  0
VERTEX
  5
C5
  8
0
 10
13.325508193294
 20
-2.6368554548730501
 30
0.0
  0
VERTEX
  5
C6
  8
0
 10
13.4187168090606
 20
-2.8527775719726591
 30
0.0
  0
VERTEX
  5
C7
  8
0
 10
13.528306384021541
 20
-3.062185623427744
 30
0.0
  0
VERTEX
  5
C8
  8
0
 10
13.6480502377813
 20
-3.2683366420605542
 30
0.0
  0
VERTEX
  5
C9
  8
0
 10
13.77766098509087
 20
-3.4643333818945261
 30
0.0
  0
VERTEX
  5
CA
  8
0
 10
13.91723442103326
 20
-3.6538160560839898
 30
0.0
  0
VERTEX
  5
CB
  8
0
 10
14.070219168596729
 20
-3.8331444514746171
 30
0.0
  0
VERTEX
  5
CC
  8
0
 10
14.233070809710011
 20
-4.0028933385644541
 30
0.0
  0
VERTEX
  5
CD
  8
0
 10
14.4058851394561
 20
-4.1657449796777319
 30
0.0
  0
VERTEX
  5
CE
  8
0
 10
14.58540512501275
 20
-4.3188255223242251
 30
0.0
  0
VERTEX
  5
CF
  8
0
 10
14.774887799202199
 20
-4.4583031631835928
 30
0.0
  0
VERTEX
  5
D0
  8
0
 10
14.970884539036181
 20
-4.5912667383984376
 30
0.0
  0
VERTEX
  5
D1
  8
0
 10
15.177131352751999
 20
-4.7075619691699231
 30
0.0
  0
VERTEX
  5
D2
  8
0
 10
15.386252018958061
 20
-4.8173431342968689
 30
0.0
  0
VERTEX
  5
D3
  8
0
 10
15.60246152130669
 20
-4.9104559549804696
 30
0.0
  0
VERTEX
  5
D4
  8
0
 10
15.82508929421684
 20
-4.9934144968652339
 30
0.0
  0
VERTEX
  5
D5
  8
0
 10
16.05116569011529
 20
-5.0633449074609373
 30
0.0
  0
VERTEX
  5
D6
  8
0
 10
16.28049911883598
 20
-5.1198640064355549
 30
0.0
  0
VERTEX
  5
D7
  8
0
 10
16.510024137722709
 20
-5.1629717937890609
 30
0.0
  0
VERTEX
  5
D8
  8
0
 10
16.74587163208794
 20
-5.1930514498535203
 30
0.0
  0
VERTEX
  5
D9
  8
0
 10
16.981814921536191
 20
-5.209528204130855
 30
0.0
  0
VERTEX
  5
DA
  8
0
 10
17.218045596233441
 20
-5.2127852369531311
 30
0.0
  0
SEQEND
  5
DB
  8
0
  0
LINE
  5
DC
  8
0
 10
1.3334965220440009
 20
6.9156386324999977
 30
0.0
 11
1.3334965220440009
 21
-6.9156386324999977
 31
0.0
  0
POLYLINE
  5
DD
  8
0
 66
     1
 10
0.0
 20
0.0
 30
0.0
  0
VERTEX
  5
DE
  8
0
 10
1.236360307874079
 20
-7.1340514217578104
 30
0.0
  0
VERTEX
  5
DF
  8
0
 10
1.266152578689506
 20
-7.1873134879101519
 30
0.0
  0
VERTEX
  5
E0
  8
0
 10
1.306194923386776
 20
-7.2306128654296842
 30
0.0
  0
VERTEX
  5
E1
  8
0
 10
1.3526555386455641
 20
-7.2637579641503933
 30
0.0
  0
VERTEX
  5
E2
  8
0
 10
1.4058218097149
 20
-7.2903889972265636
 30
0.0
  0
VERTEX
  5
E3
  8
0
 10
1.4621493185234931
 20
-7.3068657515038993
 30
0.0
  0
VERTEX
  5
E4
  8
0
 10
1.5188600076641161
 20
-7.3135714073144484
 30
0.0
  0
VERTEX
  5
E5
  8
0
 10
5.3439576721660691
 20
-7.3135714073144484
 30
0.0
  0
SEQEND
  5
E6
  8
0
  0
POLYLINE
  5
E7
  8
0
 66
     1
 10
0.0
 20
0.0
 30
0.0
  0
VERTEX
  5
E8
  8
0
 10
5.3439576721660691
 20
-7.3135714073144484
 30
0.0
  0
VERTEX
  5
E9
  8
0
 10
5.4068950417022057
 20
-7.3068657515038993
 30
0.0
  0
VERTEX
  5
EA
  8
0
 10
5.4667669685820854
 20
-7.2869403742382772
 30
0.0
  0
VERTEX
  5
EB
  8
0
 10
5.5201248298174326
 20
-7.2570523083398442
 30
0.0
  0
VERTEX
  5
EC
  8
0
 10
5.5699382729815019
 20
-7.217009963642588
 30
0.0
  0
VERTEX
  5
ED
  8
0
 10
5.6097890275127531
 20
-7.1673881106445299
 30
0.0
  0
VERTEX
  5
EE
  8
0
 10
5.6363242655059116
 20
-7.1108690116699256
 30
0.0
  0
SEQEND
  5
EF
  8
0
  0
POLYLINE
  5
F0
  8
0
 66
     1
 10
0.0
 20
0.0
 30
0.0
  0
VERTEX
  5
F1
  8
0
 10
6.9559973290215353
 20
-0.0239487707519506
 30
0.0
  0
VERTEX
  5
F2
  8
0
 10
6.949387468293998
 20
0.4946858086523416
 30
0.0
  0
VERTEX
  5
F3
  8
0
 10
6.9295578861113816
 20
1.013128797890622
 30
0.0
  0
VERTEX
  5
F4
  8
0
 10
6.8964127873906804
 20
1.5281231641406301
 30
0.0
  0
VERTEX
  5
F5
  8
0
 10
6.849664786882868
 20
2.0469493337109328
 30
0.0
  0
VERTEX
  5
F6
  8
0
 10
6.786535827180721
 20
2.558686667138665
 30
0.0
  0
VERTEX
  5
F7
  8
0
 10
6.7133483837627486
 20
3.0740642137206948
 30
0.0
  0
VERTEX
  5
F8
  8
0
 10
6.623684186067436
 20
3.5825445143261652
 30
0.0
  0
VERTEX
  5
F9
  8
0
 10
6.5238657095733004
 20
4.0910248149316351
 30
0.0
  0
VERTEX
  5
FA
  8
0
 10
6.4076662738848214
 20
4.5962480827148431
 30
0.0
  0
VERTEX
  5
FB
  8
0
 10
6.2811209692315009
 20
5.0980227275097638
 30
0.0
  0
VERTEX
  5
FC
  8
0
 10
6.1382905004668507
 20
5.5965403394824227
 30
0.0
  0
VERTEX
  5
FD
  8
0
 10
5.9854973430693903
 20
6.0919925087988167
 30
0.0
  0
VERTEX
  5
FE
  8
0
 10
5.815748455979544
 20
6.5807390223046758
 30
0.0
  0
VERTEX
  5
FF
  8
0
 10
5.6363242655059116
 20
7.0660369128222618
 30
0.0
  0
SEQEND
  5
100
  8
0
  0
CIRCLE
  5
101
  8
0
 10
3.6391883749590401
 20
-0.0172431149414156
 30
0.0
 40
0.4321316194482422
  0
CIRCLE
  5
102
  8
0
 10
3.6391404774175342
 20
-0.0172431149414156
 30
0.0
 40
0.5990545515893554
  0
POLYLINE
  5
103
  8
0
 66
     1
 10
0.0
 20
0.0
 30
0.0
  0
VERTEX
  5
104
  8
0
 10
10.18093879847954
 20
-3.1717751983886799
 30
0.0
  0
VERTEX
  5
105
  8
0
 10
10.17452052791802
 20
-3.115256099414061
 30
0.0
  0
VERTEX
  5
106
  8
0
 10
10.15785218347466
 20
-3.058928590605468
 30
0.0
  0
VERTEX
  5
107
  8
0
 10
10.131125355315479
 20
-3.0091151474414128
 30
0.0
  0
VERTEX
  5
108
  8
0
 10
10.094627428689501
 20
-2.965624179755856
 30
0.0
  0
VERTEX
  5
109
  8
0
 10
10.04816681343072
 20
-2.9294136383789109
 30
0.0
  0
VERTEX
  5
10A
  8
0
 10
9.9983533702666492
 20
-2.8993339823144519
 30
0.0
  0
VERTEX
  5
10B
  8
0
 10
9.9416426811260337
 20
-2.8826656378710922
 30
0.0
  0
VERTEX
  5
10C
  8
0
 10
9.8853151723174406
 20
-2.8796001952148411
 30
0.0
  0
VERTEX
  5
10D
  8
0
 10
9.8252516552715363
 20
-2.8826656378710922
 30
0.0
  0
VERTEX
  5
10E
  8
0
 10
9.7720853842022066
 20
-2.8993339823144519
 30
0.0
  0
VERTEX
  5
10F
  8
0
 10
9.7189191131328627
 20
-2.9294136383789109
 30
0.0
  0
VERTEX
  5
110
  8
0
 10
9.6758113257793497
 20
-2.965624179755856
 30
0.0
  0
VERTEX
  5
111
  8
0
 10
9.639313399153373
 20
-3.0091151474414128
 30
0.0
  0
VERTEX
  5
112
  8
0
 10
9.6125865709941962
 20
-3.058928590605468
 30
0.0
  0
VERTEX
  5
113
  8
0
 10
9.595918226550836
 20
-3.115256099414061
 30
0.0
  0
VERTEX
  5
114
  8
0
 10
9.5894999559893108
 20
-3.1717751983886799
 30
0.0
  0
VERTEX
  5
115
  8
0
 10
9.595918226550836
 20
-3.2317429203515569
 30
0.0
  0
VERTEX
  5
116
  8
0
 10
9.6125865709941962
 20
-3.2850049865039139
 30
0.0
  0
VERTEX
  5
117
  8
0
 10
9.639313399153373
 20
-3.3380754624902451
 30
0.0
  0
VERTEX
  5
118
  8
0
 10
9.6758113257793497
 20
-3.3813748400097761
 30
0.0
  0
VERTEX
  5
119
  8
0
 10
9.7189191131328627
 20
-3.4179685617187441
 30
0.0
  0
VERTEX
  5
11A
  8
0
 10
9.7720853842022066
 20
-3.4444080046289041
 30
0.0
  0
VERTEX
  5
11B
  8
0
 10
9.8252516552715363
 20
-3.4643333818945261
 30
0.0
  0
VERTEX
  5
11C
  8
0
 10
9.8853151723174406
 20
-3.4677820048828139
 30
0.0
  0
VERTEX
  5
11D
  8
0
 10
9.9416426811260337
 20
-3.4643333818945261
 30
0.0
  0
VERTEX
  5
11E
  8
0
 10
9.9983533702666492
 20
-3.4444080046289041
 30
0.0
  0
VERTEX
  5
11F
  8
0
 10
10.04816681343072
 20
-3.4179685617187441
 30
0.0
  0
VERTEX
  5
120
  8
0
 10
10.094627428689501
 20
-3.3813748400097761
 30
0.0
  0
VERTEX
  5
121
  8
0
 10
10.131125355315479
 20
-3.3380754624902451
 30
0.0
  0
VERTEX
  5
122
  8
0
 10
10.15785218347466
 20
-3.2850049865039139
 30
0.0
  0
VERTEX
  5
123
  8
0
 10
10.17452052791802
 20
-3.2317429203515569
 30
0.0
  0
VERTEX
  5
124
  8
0
 10
10.18093879847954
 20
-3.1717751983886799
 30
0.0
  0
SEQEND
  5
125
  8
0
  0
POLYLINE
  5
126
  8
0
 66
     1
 10
0.0
 20
0.0
 30
0.0
  0
VERTEX
  5
127
  8
0
 10
10.18093879847954
 20
3.127134689707026
 30
0.0
  0
VERTEX
  5
128
  8
0
 10
10.17452052791802
 20
3.186719231337896
 30
0.0
  0
VERTEX
  5
129
  8
0
 10
10.15785218347466
 20
3.239981297490238
 30
0.0
  0
VERTEX
  5
12A
  8
0
 10
10.131125355315479
 20
3.29324336364258
 30
0.0
  0
VERTEX
  5
12B
  8
0
 10
10.094627428689501
 20
3.3365427411621118
 30
0.0
  0
VERTEX
  5
12C
  8
0
 10
10.04816681343072
 20
3.372944872705069
 30
0.0
  0
VERTEX
  5
12D
  8
0
 10
9.9983533702666492
 20
3.399384315615229
 30
0.0
  0
VERTEX
  5
12E
  8
0
 10
9.9416426811260337
 20
3.4195012830468761
 30
0.0
  0
VERTEX
  5
12F
  8
0
 10
9.8853151723174406
 20
3.4227583158691379
 30
0.0
  0
VERTEX
  5
130
  8
0
 10
9.8252516552715363
 20
3.4195012830468761
 30
0.0
  0
VERTEX
  5
131
  8
0
 10
9.7720853842022066
 20
3.399384315615229
 30
0.0
  0
VERTEX
  5
132
  8
0
 10
9.7189191131328627
 20
3.372944872705069
 30
0.0
  0
VERTEX
  5
133
  8
0
 10
9.6758113257793497
 20
3.3365427411621118
 30
0.0
  0
VERTEX
  5
134
  8
0
 10
9.639313399153373
 20
3.29324336364258
 30
0.0
  0
VERTEX
  5
135
  8
0
 10
9.6125865709941962
 20
3.239981297490238
 30
0.0
  0
VERTEX
  5
136
  8
0
 10
9.595918226550836
 20
3.186719231337896
 30
0.0
  0
VERTEX
  5
137
  8
0
 10
9.5894999559893108
 20
3.127134689707026
 30
0.0
  0
VERTEX
  5
138
  8
0
 10
9.595918226550836
 20
3.0706155907324222
 30
0.0
  0
VERTEX
  5
139
  8
0
 10
9.6125865709941962
 20
3.013904901591792
 30
0.0
  0
VERTEX
  5
13A
  8
0
 10
9.639313399153373
 20
2.9640914584277369
 30
0.0
  0
VERTEX
  5
13B
  8
0
 10
9.6758113257793497
 20
2.9209836710742172
 30
0.0
  0
VERTEX
  5
13C
  8
0
 10
9.7189191131328627
 20
2.8811329165429589
 30
0.0
  0
VERTEX
  5
13D
  8
0
 10
9.7720853842022066
 20
2.8545018834667881
 30
0.0
  0
VERTEX
  5
13E
  8
0
 10
9.8252516552715363
 20
2.8380251291894529
 30
0.0
  0
VERTEX
  5
13F
  8
0
 10
9.8853151723174406
 20
2.834384916035154
 30
0.0
  0
VERTEX
  5
140
  8
0
 10
9.9416426811260337
 20
2.8380251291894529
 30
0.0
  0
VERTEX
  5
141
  8
0
 10
9.9983533702666492
 20
2.8545018834667881
 30
0.0
  0
VERTEX
  5
142
  8
0
 10
10.04816681343072
 20
2.8811329165429589
 30
0.0
  0
VERTEX
  5
143
  8
0
 10
10.094627428689501
 20
2.9209836710742172
 30
0.0
  0
VERTEX
  5
144
  8
0
 10
10.131125355315479
 20
2.9640914584277369
 30
0.0
  0
VERTEX
  5
145
  8
0
 10
10.15785218347466
 20
3.013904901591792
 30
0.0
  0
VERTEX
  5
146
  8
0
 10
10.17452052791802
 20
3.0706155907324222
 30
0.0
  0
VERTEX
  5
147
  8
0
 10
10.18093879847954
 20
3.127134689707026
 30
0.0
  0
SEQEND
  5
148
  8
0
  0
LINE
  5
149
  8
0
 10
1.5188600076641161
 20
7.2685477183007867
 30
0.0
 11
5.3439576721660691
 21
7.2685477183007867
 31
0.0
  0
POLYLINE
  5
14A
  8
0
 66
     1
 10
0.0
 20
0.0
 30
0.0
  0
VERTEX
  5
14B
  8
0
 10
1.5188600076641161
 20
7.2685477183007867
 30
0.0
  0
VERTEX
  5
14C
  8
0
 10
1.4621493185234931
 20
7.2620336526562488
 30
0.0
  0
VERTEX
  5
14D
  8
0
 10
1.4058218097149
 20
7.2453653082128886
 30
0.0
  0
VERTEX
  5
14E
  8
0
 10
1.3526555386455641
 20
7.2189258653027286
 30
0.0
  0
VERTEX
  5
14F
  8
0
 10
1.306194923386776
 20
7.1857807665820204
 30
0.0
  0
VERTEX
  5
150
  8
0
 10
1.266152578689506
 20
7.139032766074215
 30
0.0
  0
VERTEX
  5
151
  8
0
 10
1.236360307874079
 20
7.0892193229101457
 30
0.0
  0
SEQEND
  5
152
  8
0
  0
POLYLINE
  5
153
  8
0
 66
     1
 10
0.0
 20
0.0
 30
0.0
  0
VERTEX
  5
154
  8
0
 10
5.6363242655059116
 20
7.0660369128222618
 30
0.0
  0
VERTEX
  5
155
  8
0
 10
5.6097890275127531
 20
7.122364421630869
 30
0.0
  0
VERTEX
  5
156
  8
0
 10
5.5699382729815019
 20
7.1723694549609363
 30
0.0
  0
VERTEX
  5
157
  8
0
 10
5.5201248298174326
 20
7.2122202094921937
 30
0.0
  0
VERTEX
  5
158
  8
0
 10
5.4667669685820854
 20
7.2421082753906267
 30
0.0
  0
VERTEX
  5
159
  8
0
 10
5.4068950417022057
 20
7.2620336526562488
 30
0.0
  0
VERTEX
  5
15A
  8
0
 10
5.3439576721660691
 20
7.2685477183007867
 30
0.0
  0
SEQEND
  5
15B
  8
0
  0
POLYLINE
  5
15C
  8
0
 66
     1
 10
0.0
 20
0.0
 30
0.0
  0
VERTEX
  5
15D
  8
0
 10
13.0729923544854
 20
1.6810121166210821
 30
0.0
  0
VERTEX
  5
15E
  8
0
 10
13.02317891132134
 20
1.3420891129394541
 30
0.0
  0
VERTEX
  5
15F
  8
0
 10
12.98668098469537
 20
1.0029745190918
 30
0.0
  0
VERTEX
  5
160
  8
0
 10
12.95640973846489
 20
0.6606028924218701
 30
0.0
  0
VERTEX
  5
161
  8
0
 10
12.943285812092819
 20
0.3184228559179654
 30
0.0
  0
VERTEX
  5
162
  8
0
 10
12.93667595136529
 20
-0.0239487707519506
 30
0.0
  0
SEQEND
  5
163
  8
0
  0
POLYLINE
  5
164
  8
0
 66
     1
 10
0.0
 20
0.0
 30
0.0
  0
VERTEX
  5
165
  8
0
 10
14.153177710481501
 20
1.4187251793457061
 30
0.0
  0
VERTEX
  5
166
  8
0
 10
14.106717095222709
 20
1.0596852082324151
 30
0.0
  0
VERTEX
  5
167
  8
0
 10
14.073380406335991
 20
0.7004536469531284
 30
0.0
  0
VERTEX
  5
168
  8
0
 10
14.053550824153371
 20
0.3383482331835874
 30
0.0
  0
VERTEX
  5
169
  8
0
 10
14.04684516834282
 20
-0.0239487707519506
 30
0.0
  0
SEQEND
  5
16A
  8
0
  0
POLYLINE
  5
16B
  8
0
 66
     1
 10
0.0
 20
0.0
 30
0.0
  0
VERTEX
  5
16C
  8
0
 10
18.28491543569146
 20
-0.0239487707519506
 30
0.0
  0
VERTEX
  5
16D
  8
0
 10
18.278305574963909
 20
0.1187859029296798
 30
0.0
  0
VERTEX
  5
16E
  8
0
 10
18.261541435437561
 20
0.2551981011328119
 30
0.0
  0
VERTEX
  5
16F
  8
0
 10
18.228204746550841
 20
0.3912271190039074
 30
0.0
  0
VERTEX
  5
170
  8
0
 10
18.18864137726861
 20
0.5243822843847635
 30
0.0
  0
VERTEX
  5
171
  8
0
 10
18.13193068812798
 20
0.6540888267773322
 30
0.0
  0
VERTEX
  5
172
  8
0
 10
18.06554469560356
 20
0.7770897133593661
 30
0.0
  0
VERTEX
  5
173
  8
0
 10
17.992453047268601
 20
0.8933849441308648
 30
0.0
  0
VERTEX
  5
174
  8
0
 10
17.905854292229542
 20
1.0064231420800731
 30
0.0
  0
VERTEX
  5
175
  8
0
 10
17.809771823972699
 20
1.1060500284081971
 30
0.0
  0
VERTEX
  5
176
  8
0
 10
17.703247691668011
 20
1.1989712589257731
 30
0.0
  0
VERTEX
  5
177
  8
0
 10
17.593562321624081
 20
1.2821213909765621
 30
0.0
  0
VERTEX
  5
178
  8
0
 10
17.473914262947321
 20
1.355308834394527
 30
0.0
  0
VERTEX
  5
179
  8
0
 10
17.2578963507647
 20
1.4683470323437491
 30
0.0
  0
VERTEX
  5
17A
  8
0
 10
17.0385256106768
 20
1.567973918671874
 30
0.0
  0
VERTEX
  5
17B
  8
0
 10
16.815897837766649
 20
1.6578297065331991
 30
0.0
  0
VERTEX
  5
17C
  8
0
 10
16.586372818879941
 20
1.7342741827734389
 30
0.0
  0
VERTEX
  5
17D
  8
0
 10
16.353686562253959
 20
1.800564380214843
 30
0.0
  0
VERTEX
  5
17E
  8
0
 10
16.117647477722699
 20
1.8538264463671861
 30
0.0
  0
VERTEX
  5
17F
  8
0
 10
15.8784471554522
 20
1.8936772008984439
 30
0.0
  0
VERTEX
  5
180
  8
0
 10
15.63915103809868
 20
1.923756856962888
 30
0.0
  0
VERTEX
  5
181
  8
0
 10
15.399759125662159
 20
1.940233611240223
 30
0.0
  0
VERTEX
  5
182
  8
0
 10
15.15711018040337
 20
1.9469392670507719
 30
0.0
  0
VERTEX
  5
183
  8
0
 10
14.91446123514458
 20
1.940233611240223
 30
0.0
  0
VERTEX
  5
184
  8
0
 10
14.67506932270806
 20
1.9204998241406119
 30
0.0
  0
VERTEX
  5
185
  8
0
 10
14.588757952918019
 20
1.903639889531241
 30
0.0
  0
VERTEX
  5
186
  8
0
 10
14.508673263523489
 20
1.877200446621081
 30
0.0
  0
VERTEX
  5
187
  8
0
 10
14.432420377449271
 20
1.837158101923825
 30
0.0
  0
VERTEX
  5
188
  8
0
 10
14.35942452419731
 20
1.7873446587597701
 30
0.0
  0
VERTEX
  5
189
  8
0
 10
14.29955259731744
 20
1.72756852696289
 30
0.0
  0
VERTEX
  5
18A
  8
0
 10
14.246386326248089
 20
1.6578297065331991
 30
0.0
  0
VERTEX
  5
18B
  8
0
 10
14.202991153645559
 20
1.5813852302929721
 30
0.0
  0
VERTEX
  5
18C
  8
0
 10
14.17319888283013
 20
1.501492131064444
 30
0.0
  0
VERTEX
  5
18D
  8
0
 10
14.153177710481501
 20
1.4187251793457061
 30
0.0
  0
SEQEND
  5
18E
  8
0
  0
POLYLINE
  5
18F
  8
0
 66
     1
 10
0.0
 20
0.0
 30
0.0
  0
VERTEX
  5
190
  8
0
 10
14.67506932270806
 20
-1.9653319229882911
 30
0.0
  0
VERTEX
  5
191
  8
0
 10
14.91446123514458
 20
-1.9852573002538989
 30
0.0
  0
VERTEX
  5
192
  8
0
 10
15.15711018040337
 20
-1.9917713658984371
 30
0.0
  0
VERTEX
  5
193
  8
0
 10
15.399759125662159
 20
-1.9852573002538989
 30
0.0
  0
VERTEX
  5
194
  8
0
 10
15.63915103809868
 20
-1.9685889558105389
 30
0.0
  0
VERTEX
  5
195
  8
0
 10
15.8784471554522
 20
-1.9419579227343671
 30
0.0
  0
VERTEX
  5
196
  8
0
 10
16.117647477722699
 20
-1.899041725546873
 30
0.0
  0
VERTEX
  5
197
  8
0
 10
16.353686562253959
 20
-1.8457796593945299
 30
0.0
  0
VERTEX
  5
198
  8
0
 10
16.586372818879941
 20
-1.7792978717871151
 30
0.0
  0
VERTEX
  5
199
  8
0
 10
16.815897837766649
 20
-1.7028533955468741
 30
0.0
  0
VERTEX
  5
19A
  8
0
 10
17.0385256106768
 20
-1.6129976076855499
 30
0.0
  0
VERTEX
  5
19B
  8
0
 10
17.2578963507647
 20
-1.513370721357425
 30
0.0
  0
VERTEX
  5
19C
  8
0
 10
17.473914262947321
 20
-1.4003325234082029
 30
0.0
  0
SEQEND
  5
19D
  8
0
  0
POLYLINE
  5
19E
  8
0
 66
     1
 10
0.0
 20
0.0
 30
0.0
  0
VERTEX
  5
19F
  8
0
 10
14.04684516834282
 20
-0.0239487707519506
 30
0.0
  0
VERTEX
  5
1A0
  8
0
 10
14.053550824153371
 20
-0.3829887418652267
 30
0.0
  0
VERTEX
  5
1A1
  8
0
 10
14.073380406335991
 20
-0.7454773359667901
 30
0.0
  0
VERTEX
  5
1A2
  8
0
 10
14.106717095222709
 20
-1.104325716914069
 30
0.0
  0
VERTEX
  5
1A3
  8
0
 10
14.153177710481501
 20
-1.4633656880273449
 30
0.0
  0
VERTEX
  5
1A4
  8
0
 10
14.17319888283013
 20
-1.5465158200781199
 30
0.0
  0
VERTEX
  5
1A5
  8
0
 10
14.202991153645559
 20
-1.6296659521289101
 30
0.0
  0
VERTEX
  5
1A6
  8
0
 10
14.246386326248089
 20
-1.7028533955468741
 30
0.0
  0
VERTEX
  5
1A7
  8
0
 10
14.29955259731744
 20
-1.77240062581054
 30
0.0
  0
VERTEX
  5
1A8
  8
0
 10
14.35942452419731
 20
-1.832368347773432
 30
0.0
  0
VERTEX
  5
1A9
  8
0
 10
14.432420377449271
 20
-1.8823733811035119
 30
0.0
  0
VERTEX
  5
1AA
  8
0
 10
14.508673263523489
 20
-1.9222241356347709
 30
0.0
  0
VERTEX
  5
1AB
  8
0
 10
14.588757952918019
 20
-1.9486635785449311
 30
0.0
  0
VERTEX
  5
1AC
  8
0
 10
14.67506932270806
 20
-1.9653319229882911
 30
0.0
  0
SEQEND
  5
1AD
  8
0
  0
POLYLINE
  5
1AE
  8
0
 66
     1
 10
0.0
 20
0.0
 30
0.0
  0
VERTEX
  5
1AF
  8
0
 10
17.473914262947321
 20
-1.4003325234082029
 30
0.0
  0
VERTEX
  5
1B0
  8
0
 10
17.593562321624081
 20
-1.327145079990238
 30
0.0
  0
VERTEX
  5
1B1
  8
0
 10
17.703247691668011
 20
-1.244186538105474
 30
0.0
  0
VERTEX
  5
1B2
  8
0
 10
17.809771823972699
 20
-1.151073717421873
 30
0.0
  0
VERTEX
  5
1B3
  8
0
 10
17.905854292229542
 20
-1.051446831093749
 30
0.0
  0
VERTEX
  5
1B4
  8
0
 10
17.992453047268601
 20
-0.9382170429785151
 30
0.0
  0
VERTEX
  5
1B5
  8
0
 10
18.06554469560356
 20
-0.8219218122070305
 30
0.0
  0
VERTEX
  5
1B6
  8
0
 10
18.13193068812798
 20
-0.6989209256249969
 30
0.0
  0
VERTEX
  5
1B7
  8
0
 10
18.18864137726861
 20
-0.5692143832324282
 30
0.0
  0
VERTEX
  5
1B8
  8
0
 10
18.228204746550841
 20
-0.4362508080175834
 30
0.0
  0
VERTEX
  5
1B9
  8
0
 10
18.261541435437561
 20
-0.3000301999804766
 30
0.0
  0
VERTEX
  5
1BA
  8
0
 10
18.278305574963909
 20
-0.1636180017773445
 30
0.0
  0
VERTEX
  5
1BB
  8
0
 10
18.28491543569146
 20
-0.0239487707519506
 30
0.0
  0
SEQEND
  5
1BC
  8
0
  0
POLYLINE
  5
1BD
  8
0
 66
     1
 10
0.0
 20
0.0
 30
0.0
  0
VERTEX
  5
1BE
  8
0
 10
17.218045596233441
 20
5.1645045151171942
 30
0.0
  0
VERTEX
  5
1BF
  8
0
 10
16.981814921536191
 20
5.1612474822949181
 30
0.0
  0
VERTEX
  5
1C0
  8
0
 10
16.74587163208794
 20
5.1447707280175692
 30
0.0
  0
VERTEX
  5
1C1
  8
0
 10
16.510024137722709
 20
5.1146910719531098
 30
0.0
  0
VERTEX
  5
1C2
  8
0
 10
16.28049911883598
 20
5.0715832845996038
 30
0.0
  0
VERTEX
  5
1C3
  8
0
 10
16.05116569011529
 20
5.0150641856249996
 30
0.0
  0
VERTEX
  5
1C4
  8
0
 10
15.82508929421684
 20
4.9453253651953091
 30
0.0
  0
VERTEX
  5
1C5
  8
0
 10
15.60246152130669
 20
4.8621752331445194
 30
0.0
  0
VERTEX
  5
1C6
  8
0
 10
15.386252018958061
 20
4.7690624124609471
 30
0.0
  0
VERTEX
  5
1C7
  8
0
 10
15.177131352751999
 20
4.6594728374999974
 30
0.0
  0
VERTEX
  5
1C8
  8
0
 10
14.970884539036181
 20
4.5429860165625007
 30
0.0
  0
VERTEX
  5
1C9
  8
0
 10
14.774887799202199
 20
4.4102140315136671
 30
0.0
  0
VERTEX
  5
1CA
  8
0
 10
14.58540512501275
 20
4.270544800488274
 30
0.0
  0
VERTEX
  5
1CB
  8
0
 10
14.4058851394561
 20
4.117464257841795
 30
0.0
  0
VERTEX
  5
1CC
  8
0
 10
14.233070809710011
 20
3.9546126167285029
 30
0.0
  0
VERTEX
  5
1CD
  8
0
 10
14.070219168596729
 20
3.7852469099707009
 30
0.0
  0
VERTEX
  5
1CE
  8
0
 10
13.91723442103326
 20
3.6057269244140628
 30
0.0
  0
VERTEX
  5
1CF
  8
0
 10
13.77766098509087
 20
3.4160526600585892
 30
0.0
  0
VERTEX
  5
1D0
  8
0
 10
13.6480502377813
 20
3.220247510390613
 30
0.0
  0
VERTEX
  5
1D1
  8
0
 10
13.528306384021541
 20
3.013904901591792
 30
0.0
  0
VERTEX
  5
1D2
  8
0
 10
13.4187168090606
 20
2.804688440302733
 30
0.0
  0
VERTEX
  5
1D3
  8
0
 10
13.325508193294
 20
2.5885747330371118
 30
0.0
  0
VERTEX
  5
1D4
  8
0
 10
13.242262266160211
 20
2.3657553699609428
 30
0.0
  0
VERTEX
  5
1D5
  8
0
 10
13.172619240813519
 20
2.1396789740624969
 30
0.0
  0
VERTEX
  5
1D6
  8
0
 10
13.11619593692193
 20
1.9103455453417899
 30
0.0
  0
VERTEX
  5
1D7
  8
0
 10
13.0729923544854
 20
1.6810121166210821
 30
0.0
  0
SEQEND
  5
1D8
  8
0
  0
LINE
  5
1D9
  8
0
 10
16.975396650974659
 20
7.3618521291503987
 30
0.0
 11
17.457245918503961
 21
7.3618521291503987
 31
0.0
  0
POLYLINE
  5
1DA
  8
0
 66
     1
 10
0.0
 20
0.0
 30
0.0
  0
VERTEX
  5
1DB
  8
0
 10
26.013183757346731
 20
-6.5690520221777362
 30
0.0
  0
VERTEX
  5
1DC
  8
0
 10
26.159367054016649
 20
-6.0339406884960951
 30
0.0
  0
VERTEX
  5
1DD
  8
0
 10
26.295683457136771
 20
-5.498829354814454
 30
0.0
  0
VERTEX
  5
1DE
  8
0
 10
26.415523105979538
 20
-4.9600778079785144
 30
0.0
  0
VERTEX
  5
1DF
  8
0
 10
26.52520847602349
 20
-4.4182608184863241
 30
0.0
  0
VERTEX
  5
1E0
  8
0
 10
26.621578329529349
 20
-3.8733783863378828
 30
0.0
  0
VERTEX
  5
1E1
  8
0
 10
26.704728461580132
 20
-3.3281127738574199
 30
0.0
  0
VERTEX
  5
1E2
  8
0
 10
26.777724314832088
 20
-2.77959012855468
 30
0.0
  0
VERTEX
  5
1E3
  8
0
 10
26.8342434138067
 20
-2.2310674832519548
 30
0.0
  0
VERTEX
  5
1E4
  8
0
 10
26.88070402906548
 20
-1.679479395292965
 30
0.0
  0
VERTEX
  5
1E5
  8
0
 10
26.91384912778619
 20
-1.1276997171679779
 30
0.0
  0
VERTEX
  5
1E6
  8
0
 10
26.930709062395561
 20
-0.5759200390429773
 30
0.0
  0
VERTEX
  5
1E7
  8
0
 10
26.937223128040088
 20
-0.0239487707519506
 30
0.0
  0
SEQEND
  5
1E8
  8
0
  0
POLYLINE
  5
1E9
  8
0
 66
     1
 10
0.0
 20
0.0
 30
0.0
  0
VERTEX
  5
1EA
  8
0
 10
25.29175098721489
 20
-7.1375000447460968
 30
0.0
  0
VERTEX
  5
1EB
  8
0
 10
25.388312430886781
 20
-7.1273457659472612
 30
0.0
  0
VERTEX
  5
1EC
  8
0
 10
25.48468228439263
 20
-7.1039717656933661
 30
0.0
  0
VERTEX
  5
1ED
  8
0
 10
25.577603514910219
 20
-7.070826666972656
 30
0.0
  0
VERTEX
  5
1EE
  8
0
 10
25.66439386011529
 20
-7.0246534369628861
 30
0.0
  0
VERTEX
  5
1EF
  8
0
 10
25.743999574094779
 20
-6.9679427478222564
 30
0.0
  0
VERTEX
  5
1F0
  8
0
 10
25.81699542734674
 20
-6.9047179930371172
 30
0.0
  0
VERTEX
  5
1F1
  8
0
 10
25.883477214954151
 20
-6.828465106962887
 30
0.0
  0
VERTEX
  5
1F2
  8
0
 10
25.936643486023488
 20
-6.7485720077343743
 30
0.0
  0
VERTEX
  5
1F3
  8
0
 10
25.97984706846001
 20
-6.6619732526953106
 30
0.0
  0
VERTEX
  5
1F4
  8
0
 10
26.013183757346731
 20
-6.5690520221777362
 30
0.0
  0
SEQEND
  5
1F5
  8
0
  0
POLYLINE
  5
1F6
  8
0
 66
     1
 10
0.0
 20
0.0
 30
0.0
  0
VERTEX
  5
1F7
  8
0
 10
26.937223128040088
 20
-0.0239487707519506
 30
0.0
  0
VERTEX
  5
1F8
  8
0
 10
26.930709062395561
 20
0.5310879401953126
 30
0.0
  0
VERTEX
  5
1F9
  8
0
 10
26.91384912778619
 20
1.082867618320313
 30
0.0
  0
VERTEX
  5
1FA
  8
0
 10
26.88070402906548
 20
1.6348388866113259
 30
0.0
  0
VERTEX
  5
1FB
  8
0
 10
26.8342434138067
 20
2.186426974570316
 30
0.0
  0
VERTEX
  5
1FC
  8
0
 10
26.777724314832088
 20
2.73475802970703
 30
0.0
  0
VERTEX
  5
1FD
  8
0
 10
26.704728461580132
 20
3.2832806750097552
 30
0.0
  0
VERTEX
  5
1FE
  8
0
 10
26.621578329529349
 20
3.828354697324222
 30
0.0
  0
VERTEX
  5
1FF
  8
0
 10
26.52520847602349
 20
4.3736203098046706
 30
0.0
  0
VERTEX
  5
200
  8
0
 10
26.415523105979538
 20
4.915437299296876
 30
0.0
  0
VERTEX
  5
201
  8
0
 10
26.295683457136771
 20
5.4538056658007781
 30
0.0
  0
VERTEX
  5
202
  8
0
 10
26.159367054016649
 20
5.9889169994824201
 30
0.0
  0
VERTEX
  5
203
  8
0
 10
26.013183757346731
 20
6.5244115134960969
 30
0.0
  0
SEQEND
  5
204
  8
0
  0
ENDSEC
  0
EOF
