  0
SECTION
  2
HEADER
  9
$ACADVER
  1
AC1009
  9
$INSBASE
 10
3.8464620126499991
 20
1.1408662250999999
 30
0.0
  9
$EXTMIN
 10
0.7623874014264837
 20
1.1299873409843211
 30
-0.0000000349181948
  9
$EXTMAX
 10
6.9303563852763679
 20
9.9767087319569772
 30
0.0000000814935746
  9
$LIMMIN
 10
0.0
 20
0.0
  9
$LIMMAX
 10
11.692913385800001
 20
8.2677165353999982
  9
$ORTHOMODE
 70
     0
  9
$REGENMODE
 70
     1
  9
$FILLMODE
 70
     1
  9
$QTEXTMODE
 70
     0
  9
$MIRRTEXT
 70
     0
  9
$DRAGMODE
 70
     2
  9
$LTSCALE
 40
0.6431102362
  9
$OSMODE
 70
    39
  9
$ATTMODE
 70
     1
  9
$TEXTSIZE
 40
0.2
  9
$TRACEWID
 40
0.05
  9
$TEXTSTYLE
  7
STANDARD
  9
$CLAYER
  8
0
  9
$CELTYPE
  6
BYLAYER
  9
$CECOLOR
 62
   256
  9
$DIMSCALE
 40
1.0
  9
$DIMASZ
 40
0.1875
  9
$DIMEXO
 40
0.0625
  9
$DIMDLI
 40
0.4443307087
  9
$DIMRND
 40
0.0
  9
$DIMDLE
 40
0.0
  9
$DIMEXE
 40
0.125
  9
$DIMTP
 40
0.0
  9
$DIMTM
 40
0.0
  9
$DIMTXT
 40
0.15625
  9
$DIMCEN
 40
0.1052362205
  9
$DIMTSZ
 40
0.0
  9
$DIMTOL
 70
     0
  9
$DIMLIM
 70
     0
  9
$DIMTIH
 70
     1
  9
$DIMTOH
 70
     1
  9
$DIMSE1
 70
     0
  9
$DIMSE2
 70
     0
  9
$DIMTAD
 70
     0
  9
$DIMZIN
 70
     0
  9
$DIMBLK
  1

  9
$DIMASO
 70
     1
  9
$DIMSHO
 70
     1
  9
$DIMPOST
  1

  9
$DIMAPOST
  1

  9
$DIMALT
 70
     0
  9
$DIMALTD
 70
     2
  9
$DIMALTF
 40
25.399999999999999
  9
$DIMLFAC
 40
1.0
  9
$DIMTOFL
 70
     0
  9
$DIMTVP
 40
0.0
  9
$DIMTIX
 70
     0
  9
$DIMSOXD
 70
     0
  9
$DIMSAH
 70
     0
  9
$DIMBLK1
  1

  9
$DIMBLK2
  1

  9
$DIMSTYLE
  2
STANDARD
  9
$DIMCLRD
 70
     0
  9
$DIMCLRE
 70
     0
  9
$DIMCLRT
 70
     0
  9
$DIMTFAC
 40
1.0
  9
$DIMGAP
 40
0.09
  9
$LUNITS
 70
     2
  9
$LUPREC
 70
     4
  9
$SKETCHINC
 40
0.1
  9
$FILLETRAD
 40
0.0
  9
$AUNITS
 70
     0
  9
$AUPREC
 70
     0
  9
$MENU
  1
.
  9
$ELEVATION
 40
0.0
  9
$PELEVATION
 40
0.0
  9
$THICKNESS
 40
0.0
  9
$LIMCHECK
 70
     0
  9
$BLIPMODE
 70
     0
  9
$CHAMFERA
 40
0.0
  9
$CHAMFERB
 40
0.0
  9
$SKPOLY
 70
     0
  9
$TDCREATE
 40
2457542.4998638192
  9
$TDUPDATE
 40
2457542.7410134031
  9
$TDINDWG
 40
0.2074477083
  9
$TDUSRTIMER
 40
0.2074477083
  9
$USRTIMER
 70
     1
  9
$ANGBASE
 50
0.0
  9
$ANGDIR
 70
     0
  9
$PDMODE
 70
     0
  9
$PDSIZE
 40
0.3125
  9
$PLINEWID
 40
0.0
  9
$COORDS
 70
     1
  9
$SPLFRAME
 70
     0
  9
$SPLINETYPE
 70
     6
  9
$SPLINESEGS
 70
     8
  9
$ATTDIA
 70
     1
  9
$ATTREQ
 70
     1
  9
$HANDLING
 70
     1
  9
$HANDSEED
  5
11FD
  9
$SURFTAB1
 70
     6
  9
$SURFTAB2
 70
     6
  9
$SURFTYPE
 70
     6
  9
$SURFU
 70
     6
  9
$SURFV
 70
     6
  9
$UCSNAME
  2

  9
$UCSORG
 10
0.0
 20
0.0
 30
0.0
  9
$UCSXDIR
 10
1.0
 20
0.0
 30
0.0
  9
$UCSYDIR
 10
0.0
 20
1.0
 30
0.0
  9
$PUCSNAME
  2

  9
$PUCSORG
 10
0.0
 20
0.0
 30
0.0
  9
$PUCSXDIR
 10
1.0
 20
0.0
 30
0.0
  9
$PUCSYDIR
 10
0.0
 20
1.0
 30
0.0
  9
$USERI1
 70
     0
  9
$USERI2
 70
     0
  9
$USERI3
 70
     0
  9
$USERI4
 70
     0
  9
$USERI5
 70
     0
  9
$USERR1
 40
0.0
  9
$USERR2
 40
0.0
  9
$USERR3
 40
0.0
  9
$USERR4
 40
0.0
  9
$USERR5
 40
0.0
  9
$WORLDVIEW
 70
     1
  9
$SHADEDGE
 70
     3
  9
$SHADEDIF
 70
    70
  9
$TILEMODE
 70
     1
  9
$MAXACTVP
 70
    48
  9
$PLIMCHECK
 70
     0
  9
$PEXTMIN
 10
1.0000000000000000E+020
 20
1.0000000000000000E+020
 30
1.0000000000000000E+020
  9
$PEXTMAX
 10
-1.0000000000000000E+020
 20
-1.0000000000000000E+020
 30
-1.0000000000000000E+020
  9
$PLIMMIN
 10
0.0
 20
0.0
  9
$PLIMMAX
 10
12.0
 20
9.0
  9
$UNITMODE
 70
     0
  9
$VISRETAIN
 70
     1
  9
$PLINEGEN
 70
     0
  9
$PSLTSCALE
 70
     1
  0
ENDSEC
  0
SECTION
  2
TABLES
  0
TABLE
  2
VPORT
 70
     1
  0
VPORT
  2
*ACTIVE
 70
     0
 10
0.0
 20
0.0
 11
1.0
 21
1.0
 12
-0.0000900881835317
 22
-0.0049724858376994
 13
0.0
 23
0.0
 14
1.0
 24
1.0
 15
0.0
 25
0.0
 16
-0.0000000000000067
 26
0.0
 36
29.758798639694689
 17
3.846461981534957
 27
5.5583205223083487
 37
0.0
 40
8.9051785687136196
 41
1.798301486199575
 42
50.0
 43
0.0
 44
0.0
 50
0.0
 51
0.0
 71
     0
 72
   100
 73
     1
 74
     1
 75
     0
 76
     0
 77
     0
 78
     0
  0
ENDTAB
  0
TABLE
  2
LTYPE
 70
     1
  0
LTYPE
  2
CONTINUOUS
 70
     0
  3
Solid line
 72
    65
 73
     0
 40
0.0
  0
ENDTAB
  0
TABLE
  2
LAYER
 70
     2
  0
LAYER
  2
0
 70
     0
 62
     7
  6
CONTINUOUS
  0
LAYER
  2
DEFPOINTS
 70
     0
 62
     7
  6
CONTINUOUS
  0
ENDTAB
  0
TABLE
  2
STYLE
 70
     1
  0
STYLE
  2
STANDARD
 70
     0
 40
0.0
 41
0.8
 50
0.0
 71
     0
 42
0.2
  3
txt
  4

  0
ENDTAB
  0
TABLE
  2
VIEW
 70
    13
  0
ENDTAB
  0
TABLE
  2
UCS
 70
     0
  0
ENDTAB
  0
TABLE
  2
APPID
 70
     5
  0
APPID
  2
ACAD
 70
     0
  0
APPID
  2
ACAD_MLEADERVER
 70
     0
  0
APPID
  2
ACAD_NAV_VCDISPLAY
 70
     0
  0
APPID
  2
ACAD_EXEMPT_FROM_CAD_STANDARDS
 70
     0
  0
APPID
  2
AcDbAttr
 70
     0
  0
ENDTAB
  0
TABLE
  2
DIMSTYLE
 70
     1
  0
DIMSTYLE
  2
STANDARD
 70
     0
  3

  4

  5

  6

  7

 40
1.0
 41
0.1875
 42
0.0625
 43
0.38
 44
0.125
 45
0.0
 46
0.0
 47
1.5
 48
1.5
140
0.15625
141
0.09
142
0.0
143
25.399999999999999
144
1.0
145
0.0
146
1.0
147
0.09
 71
     0
 72
     0
 73
     1
 74
     1
 75
     0
 76
     0
 77
     0
 78
     4
170
     0
171
     2
172
     0
173
     0
174
     0
175
     0
176
     0
177
     0
178
     0
  0
ENDTAB
  0
ENDSEC
  0
SECTION
  2
BLOCKS
  0
BLOCK
  8
0
  2
$MODEL_SPACE
 70
     0
 10
0.0
 20
0.0
 30
0.0
  3
$MODEL_SPACE
  1

  0
ENDBLK
  5
21
  8
0
  0
BLOCK
 67
     1
  8
0
  2
$PAPER_SPACE
 70
     0
 10
0.0
 20
0.0
 30
0.0
  3
$PAPER_SPACE
  1

  0
ENDBLK
  5
1D
 67
     1
  8
0
  0
ENDSEC
  0
SECTION
  2
ENTITIES
  0
LINE
  5
227
  8
0
 10
0.7627033305000001
 20
1.1408662250999999
 30
0.0
 11
6.9302206948
 21
1.1408662250999999
 31
0.0
  0
LINE
  5
22A
  8
0
 10
6.8467777611000002
 20
1.2670371703000001
 30
0.0
 11
0.8461483004999999
 21
1.2670371703000001
 31
0.0
  0
LINE
  5
869
  8
0
 10
2.989868451
 20
7.4398826066999986
 30
0.0
 11
4.703044103099999
 21
7.4398826066999986
 31
0.0
  0
LINE
  5
86A
  8
0
 10
2.9395456603999999
 20
7.5500794692999982
 30
0.0
 11
4.7533759398999988
 21
7.5500794570999998
 31
0.0
  0
LINE
  5
86B
  8
0
 10
4.7860239407391214
 20
7.6649971107003436
 30
0.0
 11
2.9071935919
 21
7.6649971084999997
 31
0.0
  0
LINE
  5
87B
  8
0
 10
4.7028125327999986
 20
8.2608659300999996
 30
0.0
 11
2.9901116922000002
 21
8.260866161900001
 31
0.0
  0
ARC
  5
E46
  8
0
 10
3.8464620029999459
 20
7.0898826067000167
 30
0.0
 40
0.9461189142999446
 50
150.8954422578619
 51
156.92090470949969
  0
ARC
  5
E47
  8
0
 10
2.9898655796
 20
7.4548826066999991
 30
0.0
 40
0.0150000000000009
 50
156.9209047097028
 51
269.99999999999659
  0
ARC
  5
FB1
  8
0
 10
0.846133603223685
 20
1.207059142614227
 30
0.0
 40
0.0599780294865144
 50
89.9859599937041
 51
131.2780909435759
  0
ARC
  5
FB2
  8
0
 10
0.9081690042961362
 20
1.1029694358817941
 30
0.0
 40
0.1804806887541017
 50
124.2608875974356
 51
136.7606709498744
  0
ARC
  5
FB3
  8
0
 10
0.8399474944979054
 20
1.1841141368061969
 30
0.0
 40
0.0762055867058934
 50
146.10922209731351
 51
173.2737659100016
  0
ARC
  5
FB4
  8
0
 10
1.0794269083716781
 20
1.1574875351450269
 30
0.0
 40
0.3171594121691013
 50
173.56386046799969
 51
183.00406465581469
  0
ARC
  5
FB5
  8
0
 10
6.8467863072357247
 20
1.207036621829076
 30
0.0
 40
0.0600005484710085
 50
48.671580985701191
 51
89.999904255546085
  0
ARC
  5
FB6
  8
0
 10
6.770486618953548
 20
1.0862358586093599
 30
0.0
 40
0.2023528994095782
 50
43.923393493793881
 51
55.049190349058762
  0
ARC
  5
FB7
  8
0
 10
6.8529765115020629
 20
1.1841141368061909
 30
0.0
 40
0.0762055867059253
 50
6.7262340900001858
 51
33.890777902667907
  0
ARC
  5
FB8
  8
0
 10
6.636769932866561
 20
1.158184668191403
 30
0.0
 40
0.2939613548588053
 50
356.62251998029529
 51
6.8095966317175911
  0
ARC
  5
FB9
  8
0
 10
2.4774530948110751
 20
1.2852665509066219
 30
0.0
 40
0.0182439243288437
 50
175.74682274625999
 51
272.2879426801851
  0
ARC
  5
FBA
  8
0
 10
2.7515067178273811
 20
1.2491710126830371
 30
0.0
 40
0.2946368665712664
 50
163.80432877168769
 51
172.69791034402149
  0
ARC
  5
FBB
  8
0
 10
2.52827785127961
 20
1.317511893010773
 30
0.0
 40
0.0612978430360899
 50
127.9169533298585
 51
166.9522281450262
  0
ARC
  5
FBC
  8
0
 10
2.1881860262552051
 20
1.952721187309673
 30
0.0
 40
0.6601925456097578
 50
297.26349310027348
 51
300.99185164481543
  0
ARC
  5
FBD
  8
0
 10
2.4939582651792702
 20
1.4259745418665279
 30
0.0
 40
0.0520010975952953
 50
311.0814644496524
 51
350.64443521724309
  0
ARC
  5
FBE
  8
0
 10
2.7030151129254509
 20
1.399184015133444
 30
0.0
 40
0.1588096584933805
 50
144.21105469678241
 51
173.36947013135369
  0
ARC
  5
FBF
  8
0
 10
2.6554024893055979
 20
1.3931531511019499
 30
0.0
 40
0.1279721303797071
 50
110.640664832619
 51
129.38971626699129
  0
ARC
  5
FC0
  8
0
 10
2.5882437101105391
 20
1.553101608297857
 30
0.0
 40
0.0458412140939727
 50
298.74820606111848
 51
355.19331983236361
  0
ARC
  5
FC1
  8
0
 10
2.7316696936575831
 20
1.553308119513886
 30
0.0
 40
0.0978297623981241
 50
141.40394833191979
 51
182.37130420599669
  0
ARC
  5
FC2
  8
0
 10
3.4273603194199511
 20
0.8020828277080933
 30
0.0
 40
1.1207022069256951
 50
130.71752682424079
 51
133.55008296837929
  0
ARC
  5
FC3
  8
0
 10
2.6646735942127111
 20
1.6820756733346081
 30
0.0
 40
0.0439828407295475
 50
315.96274084395981
 51
338.58220575208009
  0
ARC
  5
FC4
  8
0
 10
-1.5169015300630979
 20
3.023564307919798
 30
0.0
 40
4.4353829003455543
 50
342.1772875855487
 51
348.35355288505548
  0
ARC
  5
FC5
  8
0
 10
-14.562980724627771
 20
5.3614137533855351
 30
0.0
 40
17.68815846369554
 50
349.46765406968899
 51
4.702839177715834
  0
ARC
  5
FC6
  8
0
 10
3.006184185432375
 20
7.4098845875598824
 30
0.0
 40
0.0299980191879504
 50
89.996764355521876
 51
193.9980488612853
  0
LINE
  5
FC7
  8
0
 10
2.9898655795999991
 20
7.4398826066999986
 30
0.0
 11
3.0061858794999989
 21
7.4398826066999977
 31
0.0
  0
ARC
  5
FC8
  8
0
 10
2.9409727725654871
 20
7.6021457943864696
 30
0.0
 40
0.0520858796329978
 50
171.39139895466019
 51
268.42994418609391
  0
ARC
  5
FC9
  8
0
 10
2.962662528115823
 20
7.6037947033030289
 30
0.0
 40
0.0734465577984912
 50
144.87546275902591
 51
175.19870643919489
  0
ARC
  5
FCA
  8
0
 10
2.877671358460598
 20
7.6634850865921402
 30
0.0
 40
0.0304113062111941
 50
325.02463352684191
 51
351.08093082957629
  0
ARC
  5
FCB
  8
0
 10
16.814738206033709
 20
8.8262661813829713
 30
0.0
 40
13.95594292958215
 50
184.7730803949062
 51
184.7987344692437
  0
LINE
  5
FCF
  8
0
 10
2.9071935919
 20
7.6649971084999997
 30
0.0
 11
2.8367773751999992
 21
7.8470798211000004
 31
0.0
  0
ARC
  5
FD0
  8
0
 10
-19.980680420065639
 20
-5.4210438412211701
 30
0.0
 40
26.394686695571441
 50
30.177573190775341
 51
30.367539509769369
  0
ARC
  5
FD1
  8
0
 10
2.5814694297422638
 20
7.7942057475535051
 30
0.0
 40
0.2471884381234535
 50
31.309232518938821
 51
38.5693596942018
  0
ARC
  5
FD2
  8
0
 10
2.8254846279672261
 20
7.9737324287348121
 30
0.0
 40
0.0567576994043546
 50
161.37155142351921
 51
206.60046697062151
  0
ARC
  5
FD3
  8
0
 10
2.913986940307371
 20
7.9542755597773143
 30
0.0
 40
0.1471673214277971
 50
106.0348861761176
 51
165.2025349570045
  0
ARC
  5
FD4
  8
0
 10
2.8539478036571082
 20
8.1260269898522228
 30
0.0
 40
0.0359803970259505
 50
302.60569023967599
 51
350.24489115936802
  0
ARC
  5
FD5
  8
0
 10
3.0438780058866501
 20
8.0935294968075215
 30
0.0
 40
0.1567099613075658
 50
154.64709183209709
 51
170.30107394391601
  0
ARC
  5
FD6
  8
0
 10
2.9477062378832311
 20
8.1342512121539254
 30
0.0
 40
0.0525468902257866
 50
105.4242094281485
 51
149.86534764874779
  0
ARC
  5
FD7
  8
0
 10
2.9053390594134729
 20
8.2929775421266196
 30
0.0
 40
0.1117391822926172
 50
284.71957981956751
 51
295.31913162092678
  0
ARC
  5
FD8
  8
0
 10
2.9404392710581648
 20
8.2100508600176703
 30
0.0
 40
0.0220857757188866
 50
305.0578349879097
 51
348.05969142482252
  0
ARC
  5
FD9
  8
0
 10
3.1018908884774761
 20
8.1694228562879641
 30
0.0
 40
0.1444177400979627
 50
140.7144197011514
 51
165.5412606922211
  0
ARC
  5
FDC
  8
0
 10
3.0486404928193349
 20
8.7494545329772162
 30
0.0
 40
0.4415391515358101
 50
289.1587097276896
 51
332.16900909821862
  0
ARC
  5
FDD
  8
0
 10
2.658039413607483
 20
9.0485689048314342
 30
0.0
 40
0.9302400030733972
 50
327.10213015073111
 51
356.00056152769048
  0
CIRCLE
  5
FDE
  8
0
 10
3.8461528534767622
 20
9.6889840245807886
 30
0.0
 40
0.2871157588192119
  0
LINE
  5
FDF
  8
0
 10
5.2116267018000002
 20
1.2670374379
 30
0.0
 11
5.2205824181000002
 21
1.2681203681999991
 31
0.0
  0
ARC
  5
FE0
  8
0
 10
5.216665490219194
 20
1.2844670140258421
 30
0.0
 40
0.016809376959869
 50
283.474961289389
 51
337.76249039097291
  0
ARC
  5
FE1
  8
0
 10
5.2017206639099927
 20
1.287643162673491
 30
0.0
 40
0.0319602606129473
 50
342.63723116044048
 51
14.53530760409882
  0
ARC
  5
FE2
  8
0
 10
4.776720313030582
 20
1.206278985487744
 30
0.0
 40
0.4646169533753512
 50
11.09201809676247
 51
15.76134253102353
  0
ARC
  5
FE3
  8
0
 10
5.1644120124202084
 20
1.318083648880167
 30
0.0
 40
0.061175224909867
 50
13.614282676199601
 51
50.59606272249524
  0
ARC
  5
FE4
  8
0
 10
6.11331942387823
 20
3.0466314515381159
 30
0.0
 40
1.9117876897249479
 50
240.34388312896121
 51
241.57335808323279
  0
ARC
  5
FE5
  8
0
 10
5.2171681222473074
 20
1.438843923227378
 30
0.0
 40
0.0731390239400386
 50
192.74762895942541
 51
227.09887505315339
  0
ARC
  5
FE6
  8
0
 10
5.0327201699304256
 20
1.4192252575081761
 30
0.0
 40
0.1131652200326476
 50
1.7622203897232449
 51
38.440400643796572
  0
ARC
  5
FE7
  8
0
 10
5.0467025578203444
 20
1.4094582211663349
 30
0.0
 40
0.1095119392174037
 50
47.02295579413866
 51
70.839609439482473
  0
ARC
  5
FE8
  8
0
 10
5.1063725633789421
 20
1.5541979167533551
 30
0.0
 40
0.0476253873834373
 50
185.7742678660511
 51
240.11942292314779
  0
ARC
  5
FE9
  8
0
 10
4.3392641998150907
 20
1.4396461343886
 30
0.0
 40
0.728045908679396
 50
8.6709736976599903
 51
12.04823839992244
  0
ARC
  5
FEA
  8
0
 10
7.5806041773975297
 20
2.9456150776015302
 30
0.0
 40
2.8689429015377028
 50
207.71742963486071
 51
208.16100826944421
  0
ARC
  5
FEB
  8
0
 10
4.6036415434668809
 20
1.170291095993691
 30
0.0
 40
0.6209660431743588
 50
45.242796052123161
 51
50.270540347556178
  0
ARC
  5
FEC
  8
0
 10
5.082333195339193
 20
1.7269473785923419
 30
0.0
 40
0.113776971428579
 50
215.15740606549301
 51
224.03723320386041
  0
ARC
  5
FED
  8
0
 10
13.64811950244178
 20
4.1657886606211392
 30
0.0
 40
9.0136977625384507
 50
188.2154573147136
 51
196.1312723757114
  0
ARC
  5
FEE
  8
0
 10
24.532862754096008
 20
5.3788771115987482
 30
0.0
 40
19.96323628630465
 50
176.553108945807
 51
187.197258753612
  0
ARC
  5
FEF
  8
0
 10
4.686738414490816
 20
7.4098826083499807
 30
0.0
 40
0.0299998753427818
 50
346.006639171926
 51
40.250504986006163
  0
ARC
  5
FF0
  8
0
 10
4.6867381448858829
 20
7.4098823744713611
 30
0.0
 40
0.0300002322286433
 50
40.250513202916423
 51
90.000035305164374
  0
LINE
  5
FF1
  8
0
 10
4.6867381448858829
 20
7.4398826066999986
 30
0.0
 11
4.7030584264000002
 21
7.4398826066999986
 31
0.0
  0
ARC
  5
FF2
  8
0
 10
4.703058426382551
 20
7.4548826067221201
 30
0.0
 40
0.0150000000221207
 50
270.00000006664737
 51
346.52678162842631
  0
LINE
  5
FF3
  8
0
 10
4.717645610398657
 20
7.4513877443294181
 30
0.0
 11
4.7168326373999996
 21
7.4607697402999991
 31
0.0
  0
LINE
  5
FF4
  8
0
 10
4.7168326373999996
 20
7.4607697402999991
 30
0.0
 11
4.673117831551477
 21
7.5500794570999998
 31
0.0
  0
ARC
  5
FF5
  8
0
 10
4.7509568358416896
 20
7.6030717529505809
 30
0.0
 40
0.0530474832952558
 50
272.6137439406441
 51
8.7538584482523447
  0
ARC
  5
FF6
  8
0
 10
4.7298408717896061
 20
7.6036776870879574
 30
0.0
 40
0.073923634081307
 50
5.7975932518975206
 51
35.965038969467479
  0
ARC
  5
FFA
  8
0
 10
4.8089854359675996
 20
7.6603524071770632
 30
0.0
 40
0.0234265561691566
 50
168.5643875013053
 51
214.47344670636051
  0
LINE
  5
FFB
  8
0
 10
4.7860239407391214
 20
7.6649971107003436
 30
0.0
 11
4.8561466308999988
 21
7.8470798212000004
 31
0.0
  0
LINE
  5
FFC
  8
0
 10
4.8561466308999988
 20
7.8470798212000004
 30
0.0
 11
4.9046876457000002
 21
7.9302392270000004
 31
0.0
  0
LINE
  5
FFD
  8
0
 10
4.9046876457000002
 20
7.9302392270000004
 30
0.0
 11
4.9181893081999988
 21
7.9483182392999989
 31
0.0
  0
ARC
  5
FFE
  8
0
 10
4.8710976565006652
 20
7.9729675308227401
 30
0.0
 40
0.0531527161332746
 50
332.37098722915391
 51
4.0096910431039916
  0
ARC
  5
FFF
  8
0
 10
4.7420319797516557
 20
7.9310299480033901
 30
0.0
 40
0.1896157747025634
 50
20.338706856092472
 51
35.100361728620747
  0
ARC
  5
1000
  8
0
 10
4.8050252494603889
 20
7.9901345779303821
 30
0.0
 40
0.1031897695793382
 50
45.139458020842241
 51
65.721410087028303
  0
ARC
  5
1001
  8
0
 10
4.864420541480535
 20
8.1795776687991548
 30
0.0
 40
0.0950652374523759
 50
241.2905750443357
 51
251.65448116578031
  0
ARC
  5
1002
  8
0
 10
4.8632613003063447
 20
8.1363363526373682
 30
0.0
 40
0.0620195985093674
 50
192.2150556304901
 51
210.09951432134511
  0
ARC
  5
1003
  8
0
 10
4.586573826943531
 20
8.0806881906069545
 30
0.0
 40
0.2202170668120086
 50
11.13429288691464
 51
18.564632680733741
  0
ARC
  5
1004
  8
0
 10
4.7453992008918036
 20
8.1339498978020686
 30
0.0
 40
0.0526990530341892
 50
18.646895641033069
 51
72.109050138141427
  0
ARC
  5
1005
  8
0
 10
4.7499013648468731
 20
8.2074021392823404
 30
0.0
 40
0.0184871762025206
 50
201.47834822123551
 51
251.24205183345191
  0
ARC
  5
1006
  8
0
 10
4.4802740728817216
 20
8.1241960659681567
 30
0.0
 40
0.2637431695660783
 50
16.846944248699462
 51
25.91438032721091
  0
ARC
  5
1007
  8
0
 10
4.6556106110672646
 20
8.7609963113487002
 30
0.0
 40
0.4569079394996029
 50
208.45240183070769
 51
244.63926526440611
  0
ARC
  5
1008
  8
0
 10
5.0063855049998436
 20
9.0404886336989492
 30
0.0
 40
0.9008052019297776
 50
184.3867310610774
 51
208.53260142501691
  0
ARC
  5
1009
  8
0
 10
3.846048053805001
 20
9.3429645399509447
 30
0.0
 40
0.3470226058293345
 50
138.91780958397791
 51
41.03453143413325
  0
LINE
  5
100A
  8
0
 10
2.9767443429750431
 20
7.4043559857379222
 30
0.0
 11
3.713370182806798
 21
7.4017782068586948
 31
0.0
  0
LINE
  5
100B
  8
0
 10
3.9795626678605038
 20
7.4017748315571943
 30
0.0
 11
4.7158480061097734
 21
7.4026283546764482
 31
0.0
  0
ARC
  5
100C
  8
0
 10
2.707956541263131
 20
1.661231892620179
 30
0.0
 40
0.004186875364544
 50
104.44190905053939
 51
140.6362015889861
  0
ARC
  5
100D
  8
0
 10
2.7143071396746792
 20
1.627973121625385
 30
0.0
 40
0.0380390427412279
 50
91.722509211726347
 51
101.2096877864692
  0
ARC
  5
100E
  8
0
 10
2.722448990330534
 20
1.428259957838925
 30
0.0
 40
0.2379162768468987
 50
88.003106812186857
 51
92.236675712771174
  0
LINE
  5
100F
  8
0
 10
2.7307392556999979
 20
1.6660317523999999
 30
0.0
 11
4.97723683205
 21
1.6660960098999991
 31
0.0
  0
ARC
  5
1010
  8
0
 10
4.9790765667119059
 20
1.6454705361596831
 30
0.0
 40
0.0207073607839985
 50
62.579258037636187
 51
95.097134256633922
  0
ARC
  5
1011
  8
0
 10
15.763812591765589
 20
3.3592976135617398
 30
0.0
 40
12.937329715635981
 50
163.34173159526009
 51
167.41494221518721
  0
ARC
  5
1012
  8
0
 10
4.0127292561747048
 20
6.7524342005350722
 30
0.0
 40
0.7175048536888966
 50
119.3430183237988
 51
153.87346080308211
  0
ARC
  5
1013
  8
0
 10
3.8464620029999979
 20
7.0454045613390521
 30
0.0
 40
0.3806474675609471
 50
60.863060333991761
 51
119.1369396660082
  0
ARC
  5
1017
  8
0
 10
3.684706429134684
 20
6.7577949657339538
 30
0.0
 40
0.7106221758007293
 50
26.273486663577611
 51
60.762272941662843
  0
ARC
  5
1018
  8
0
 10
-12.66807860675152
 20
2.2097480012104791
 30
0.0
 40
17.676033502369329
 50
13.84437275100912
 51
15.61850549022051
  0
LINE
  5
1019
  8
0
 10
4.3219151968
 20
7.0723563478999996
 30
0.0
 11
4.3552790312999781
 21
6.9686822415500753
 31
0.0
  0
LINE
  5
101A
  8
0
 10
4.4944529770185291
 20
6.4393661888225173
 30
0.0
 11
4.5552255593000002
 21
6.178642997849999
 31
0.0
  0
ARC
  5
101B
  8
0
 10
3.3854228444775241
 20
5.7780581794690073
 30
0.0
 40
0.4708132851293298
 50
104.5548823827761
 51
121.8007102178436
  0
ARC
  5
101C
  8
0
 10
3.7517722536576379
 20
4.53699144226829
 30
0.0
 40
1.7646339559739921
 50
91.004031321612175
 51
105.9415454699391
  0
ARC
  5
101E
  8
0
 10
3.8454786548457411
 20
3.1848210393491541
 30
0.0
 40
3.119024309394784
 50
86.246839456390063
 51
92.289991724630013
  0
ARC
  5
101F
  8
0
 10
3.9876829443836601
 20
4.8032289621357096
 30
0.0
 40
1.495211444842548
 50
70.071960896872994
 51
87.624991215119479
  0
ARC
  5
1020
  8
0
 10
2.3285267194129888
 20
1.9883489581612011
 30
0.0
 40
4.7451819630658658
 50
62.01407297805082
 51
62.803112195539647
  0
ARC
  5
1021
  8
0
 10
-32.23056615172559
 20
10.781228868050601
 30
0.0
 40
35.917056668815093
 50
350.9001551108056
 51
352.53133967908701
  0
ARC
  5
1022
  8
0
 10
465.21188454674723
 20
-44.047936284654291
 30
0.0
 40
464.5844880475222
 50
173.92727956259131
 51
174.10155840168039
  0
ARC
  5
1023
  8
0
 10
-11.94353670899882
 20
5.2207639989464303
 30
0.0
 40
15.10783386596043
 50
349.51629373074218
 51
354.20491786885913
  0
ARC
  5
1024
  8
0
 10
-46.01147569668867
 20
12.16155828293957
 30
0.0
 40
49.873914387069163
 50
347.85178324118613
 51
348.79704127553788
  0
LINE
  5
1025
  8
0
 10
3.137320095300002
 20
6.178195874900001
 30
0.0
 11
3.137700388899999
 21
6.1772551623999989
 31
0.0
  0
LINE
  5
1026
  8
0
 10
3.137700388899999
 20
6.1772551623999989
 30
0.0
 11
3.1418067333999988
 21
6.1755314201999987
 31
0.0
  0
ARC
  5
1027
  8
0
 10
3.1618955548468799
 20
6.2957645138938618
 30
0.0
 40
0.1218997849314015
 50
260.51450911942089
 51
269.99999999999977
  0
ARC
  5
102B
  8
0
 10
3.342865833399578
 20
6.5344419870172707
 30
0.0
 40
0.4076251930321586
 50
243.8363488603365
 51
260.99115139520399
  0
ARC
  5
102C
  8
0
 10
3.82483079345988
 20
8.8948908767553476
 30
0.0
 40
2.8164361000895002
 50
258.82602278609659
 51
270.44005585547347
  0
ARC
  5
102D
  8
0
 10
3.8713820397489682
 20
8.8402894651186337
 30
0.0
 40
2.7618640474682521
 50
269.48301861318782
 51
282.1280699762645
  0
ARC
  5
102E
  8
0
 10
4.3615320051918651
 20
6.5084090758865276
 30
0.0
 40
0.3792022646632005
 50
283.7468768989026
 51
296.3420435618894
  0
ARC
  5
102F
  8
0
 10
4.528474614543307
 20
6.1715703476558961
 30
0.0
 40
0.003266353973042
 50
293.84366433103321
 51
45.881714978792537
  0
ARC
  5
1030
  8
0
 10
3.1642796139492591
 20
6.1716364574946549
 30
0.0
 40
0.0032632700681793
 50
136.93450616232019
 51
249.35371672993011
  0
ARC
  5
1031
  8
0
 10
17.117777654906341
 20
7.6065145861666368
 30
0.0
 40
12.893475626377599
 50
186.65362980504651
 51
190.06364823899591
  0
ARC
  5
1032
  8
0
 10
-28.596191131723842
 20
0.9559841645424636
 30
0.0
 40
33.310414272136029
 50
5.059054938309778
 51
7.5860878346386711
  0
ARC
  5
1033
  8
0
 10
22.39419522960614
 20
5.6031208856338592
 30
0.0
 40
17.891617955184909
 50
185.48361276636771
 51
189.36867758115099
  0
ARC
  5
1037
  8
0
 10
28.93572045742847
 20
7.0656963011899219
 30
0.0
 40
24.586884275407151
 50
190.25003243719141
 51
192.68639632793699
  0
LINE
  5
1045
  8
0
 10
3.5860140346999998
 20
8.9836877371000021
 30
0.0
 11
3.5915773272371978
 21
9.0405857699216305
 31
0.0
  0
LINE
  5
1046
  8
0
 10
3.5915773272371978
 20
9.0405857699216305
 30
0.0
 11
3.5973506405688558
 21
9.1009463573175182
 31
0.0
  0
LINE
  5
1047
  8
0
 10
2.9901116922000002
 20
8.260866161900001
 30
0.0
 11
3.0086960835999998
 21
8.2760739742999991
 31
0.0
  0
LINE
  5
1048
  8
0
 10
3.0086960835999998
 20
8.2760739742999991
 30
0.0
 11
3.0359910022999999
 21
8.2883532378999991
 31
0.0
  0
ARC
  5
1049
  8
0
 10
2.7571400364770851
 20
9.7175895732404456
 30
0.0
 40
1.453095917997973
 50
283.44455029240629
 51
286.35057057350241
  0
LINE
  5
104A
  8
0
 10
3.1662065112515729
 20
8.3232609297284696
 30
0.0
 11
3.1935474587899568
 21
8.3323708560583611
 31
0.0
  0
ARC
  5
104B
  8
0
 10
3.255597855593972
 20
7.5936443421190027
 30
0.0
 40
0.7285929040904327
 50
102.7345449908904
 51
107.5424480937123
  0
LINE
  5
104C
  8
0
 10
4.108219218580448
 20
8.9715877355673612
 30
0.0
 11
4.0952917538990912
 21
9.1015084200848761
 31
0.0
  0
ARC
  5
104D
  8
0
 10
5.796258586919449
 20
9.4850127423924402
 30
0.0
 40
1.8071239769528089
 50
208.9525403458336
 51
211.40636723385759
  0
ARC
  5
104E
  8
0
 10
4.8055221089026112
 20
9.1908153236696091
 30
0.0
 40
0.9108137273075545
 50
247.7000961400926
 51
257.8617904101942
  0
ARC
  5
104F
  8
0
 10
4.5688039036649783
 20
8.0560372229384232
 30
0.0
 40
0.2484731638075943
 50
62.318990591234183
 51
79.518706069601166
  0
ARC
  5
1050
  8
0
 10
4.6195135906289231
 20
8.1879839311518783
 30
0.0
 40
0.1106820397124089
 50
27.714910093225221
 51
41.184113244835203
  0
LINE
  5
1051
  8
0
 10
4.6842317536000069
 20
8.2760720487999961
 30
0.0
 11
4.702812619100003
 21
8.260865930099996
 31
0.0
  0
ARC
  5
1052
  8
0
 10
4.840941063262381
 20
8.4552050322432173
 30
0.0
 40
0.2824790693476063
 50
249.9198772628805
 51
253.6852255753146
  0
ARC
  5
1059
  8
0
 10
4.8333704095479604
 20
8.1201521120211613
 30
0.0
 40
0.0280602896458453
 50
212.11832324705571
 51
238.60845896251979
  0
ARC
  5
105A
  8
0
 10
4.763254052469831
 20
7.8911083355772789
 30
0.0
 40
0.2106495985821412
 50
66.439542607418915
 51
70.23179086167741
  0
ARC
  5
105B
  8
0
 10
4.7639850301651316
 20
7.9487271734428377
 30
0.0
 40
0.1614895456372791
 50
34.441959059115867
 51
45.181230942248661
  0
ARC
  5
105C
  8
0
 10
4.8391101221207462
 20
7.96923765028491
 30
0.0
 40
0.0853356700110178
 50
5.0061340751030707
 51
18.939168984497279
  0
ARC
  5
105D
  8
0
 10
10.460082537367461
 20
6.2154745616251317
 30
0.0
 40
5.8656256681149834
 50
168.32314747450579
 51
176.44548237360189
  0
ARC
  5
105E
  8
0
 10
-2.1530698798748031
 20
6.3318362778035793
 30
0.0
 40
5.2407063133140221
 50
5.2528461975593297
 51
11.78981835623838
  0
ARC
  5
105F
  8
0
 10
3.8317309332875151
 20
4.675969904345564
 30
0.0
 40
1.57539754466626
 50
89.464236550791483
 51
101.0443949670409
  0
ARC
  5
1060
  8
0
 10
3.8419502506307528
 20
4.2873098295865288
 30
0.0
 40
1.9639939272943361
 50
82.476114828968889
 51
89.868378108128738
  0
ARC
  5
1061
  8
0
 10
4.0104664036893398
 20
5.6167530544743851
 30
0.0
 40
0.6239707011909815
 50
71.237959499629895
 51
81.832289893151042
  0
LINE
  5
1066
  8
0
 10
4.2412078175000003
 20
6.1566126446
 30
0.0
 11
4.2111593742000002
 21
6.1402630039999986
 31
0.0
  0
LINE
  5
1067
  8
0
 10
4.2111593742000011
 20
6.2075675495000002
 30
0.0
 11
4.2412078175000003
 21
6.1912179088999988
 31
0.0
  0
ARC
  5
1069
  8
0
 10
4.0289822129352144
 20
6.6537447807806203
 30
0.0
 40
0.5448413100823754
 50
277.3956774666209
 51
289.53407323732631
  0
ARC
  5
106A
  8
0
 10
3.8497134469251271
 20
7.9780346128365673
 30
0.0
 40
1.881204044262814
 50
270.37934247371658
 51
277.61843374526802
  0
ARC
  5
106B
  8
0
 10
3.8318124558195699
 20
7.6786573796452036
 30
0.0
 40
1.5820768326207879
 50
259.22471174586212
 51
271.09942407580439
  0
ARC
  5
106C
  8
0
 10
3.5673838714994388
 20
6.333406987590001
 30
0.0
 40
0.2112705672916253
 50
236.80528588242061
 51
261.46572761594672
  0
ARC
  5
106D
  8
0
 10
3.565835366774627
 20
6.017269509595347
 30
0.0
 40
0.2080414200843837
 50
99.937532247440558
 51
123.2669537737664
  0
ARC
  5
106E
  8
0
 10
3.4611870890841252
 20
6.1739152762828322
 30
0.0
 40
0.0197250860841252
 50
118.69489819370951
 51
241.3051302736819
  0
ARC
  5
106F
  8
0
 10
4.2317369161275886
 20
6.173915276749999
 30
0.0
 40
0.0197250868724105
 50
298.69487108332601
 51
61.305128916673979
  0
ARC
  5
1076
  8
0
 10
3.492980385289731
 20
6.1737744233947973
 30
0.0
 40
0.0155181872342031
 50
132.39584014555041
 51
225.56532866381519
  0
ARC
  5
1077
  8
0
 10
3.5482806128892141
 20
6.1129892662607466
 30
0.0
 40
0.0980599419895177
 50
102.7773740258786
 51
132.41317358548039
  0
ARC
  5
1078
  8
0
 10
3.6877331347810451
 20
5.7125929685902381
 30
0.0
 40
0.5215455579548689
 50
96.370302907755445
 51
107.9969228898118
  0
ARC
  5
1079
  8
0
 10
3.8080150422943562
 20
4.9200148168686892
 30
0.0
 40
1.322953167015424
 50
92.735042363774596
 51
97.738982268696503
  0
ARC
  5
107A
  8
0
 10
3.8464194887110148
 20
4.443192482795272
 30
0.0
 40
1.8011325291863931
 50
86.76573683315037
 51
93.231554016662642
  0
ARC
  5
107B
  8
0
 10
3.901497780055748
 20
5.1391878969984557
 30
0.0
 40
1.1032503064849259
 50
77.221751865515074
 51
87.582342639115438
  0
ARC
  5
107C
  8
0
 10
4.0684422503584416
 20
5.9307506040205089
 30
0.0
 40
0.2946229043678219
 50
64.077965496930432
 51
74.835547144970079
  0
ARC
  5
107D
  8
0
 10
4.1855496705269859
 20
6.1674654626068168
 30
0.0
 40
0.030586499488968
 50
12.05545430905379
 51
67.537769407189629
  0
ARC
  5
107E
  8
0
 10
4.1871467257865476
 20
6.1790165557183219
 30
0.0
 40
0.0287817298999144
 50
291.4188380901565
 51
349.6663743770485
  0
ARC
  5
107F
  8
0
 10
4.0966334654941514
 20
6.3410679036113873
 30
0.0
 40
0.2141690050205631
 50
283.10886320886522
 51
298.1448033203738
  0
ARC
  5
1083
  8
0
 10
3.917702935558796
 20
7.1113188706712203
 30
0.0
 40
1.004929808293151
 50
273.42935860298968
 51
283.08453703292219
  0
ARC
  5
1084
  8
0
 10
3.8493454918116208
 20
7.8755342668453157
 30
0.0
 40
1.772008849762376
 50
262.52484210933619
 51
274.1575784110268
  0
ARC
  5
1085
  8
0
 10
3.662532432107509
 20
6.5308827919388364
 30
0.0
 40
0.4146091327526541
 50
248.5184648912695
 51
263.94715312227328
  0
ARC
  5
1086
  8
0
 10
3.532772450544317
 20
6.2128799282310796
 30
0.0
 40
0.0713072132419083
 50
224.7329470053088
 51
251.9701692901661
  0
ARC
  5
1087
  8
0
 10
4.5337436501954587
 20
6.2652396025433212
 30
0.0
 40
0.091373429582042
 50
268.1215275041684
 51
280.98210888404691
  0
ARC
  5
1088
  8
0
 10
4.554854905500572
 20
6.177953035563676
 30
0.0
 40
0.0007832191236041
 50
299.4580882831562
 51
61.754917480184567
  0
LINE
  5
1089
  8
0
 10
4.551150513699997
 20
6.1755395203999992
 30
0.0
 11
4.5552400823000054
 21
6.1772710744000019
 31
0.0
  0
ATTDEF
  5
10F1
  8
DEFPOINTS
 10
3.8412434191583911
 20
1.135008282320239
 30
0.0
 40
0.001
  1
K-193-4
  3

  2
MODELNUMBER
 70
     0
1001
AcDbAttr
1070
     0
1070
     1
  0
ATTDEF
  5
10F2
  8
DEFPOINTS
 10
3.8412434191583911
 20
1.1333416156535721
 30
0.0
 40
0.001
  1
DEVONSHIRE
  3

  2
TRADENAME
 70
     0
1001
AcDbAttr
1070
     0
1070
     1
  0
ATTDEF
  5
10F3
  8
DEFPOINTS
 10
3.8412434191583911
 20
1.1316749489869049
 30
0.0
 40
0.001
  1
BATHROOM SINK FAUCET
  3

  2
PRODUCT
 70
     0
1001
AcDbAttr
1070
     0
1070
     1
  0
ATTDEF
  5
10F4
  8
DEFPOINTS
 10
3.8412434191583911
 20
1.130008282320238
 30
0.0
 40
0.001
  1
PREMIUM MATERIALS
  3

  2
MATERIAL
 70
     0
1001
AcDbAttr
1070
     0
1070
     1
  0
ENDSEC
  0
EOF
