  0
SECTION
  2
HEADER
  9
$ACADVER
  1
AC1009
  9
$INSBASE
 10
3845.2641246830057753
 20
120.8285935525736932
 30
0.0
  9
$EXTMIN
 10
3844.2691246830067939
 20
120.8233898838202975
 30
0.0
  9
$EXTMAX
 10
3846.2591246830070304
 20
124.0205148123737047
 30
0.0
  9
$LIMMIN
 10
0.0
 20
0.0
  9
$LIMMAX
 10
11.6929133858000007
 20
8.2677165353999982
  9
$ORTHOMODE
 70
     1
  9
$REGENMODE
 70
     1
  9
$FILLMODE
 70
     1
  9
$QTEXTMODE
 70
     0
  9
$MIRRTEXT
 70
     0
  9
$DRAGMODE
 70
     2
  9
$LTSCALE
 40
0.6431102362
  9
$OSMODE
 70
  4095
  9
$ATTMODE
 70
     1
  9
$TEXTSIZE
 40
0.2
  9
$TRACEWID
 40
0.05
  9
$TEXTSTYLE
  7
STANDARD
  9
$CLAYER
  8
0
  9
$CELTYPE
  6
BYLAYER
  9
$CECOLOR
 62
   256
  9
$DIMSCALE
 40
1.0
  9
$DIMASZ
 40
0.1875
  9
$DIMEXO
 40
0.0625
  9
$DIMDLI
 40
0.4443307087
  9
$DIMRND
 40
0.0
  9
$DIMDLE
 40
0.0
  9
$DIMEXE
 40
0.125
  9
$DIMTP
 40
0.01
  9
$DIMTM
 40
0.01
  9
$DIMTXT
 40
2.0
  9
$DIMCEN
 40
0.1052362205
  9
$DIMTSZ
 40
0.0
  9
$DIMTOL
 70
     1
  9
$DIMLIM
 70
     0
  9
$DIMTIH
 70
     1
  9
$DIMTOH
 70
     1
  9
$DIMSE1
 70
     0
  9
$DIMSE2
 70
     0
  9
$DIMTAD
 70
     0
  9
$DIMZIN
 70
     0
  9
$DIMBLK
  1

  9
$DIMASO
 70
     1
  9
$DIMSHO
 70
     1
  9
$DIMPOST
  1
\X
  9
$DIMAPOST
  1

  9
$DIMALT
 70
     1
  9
$DIMALTD
 70
     2
  9
$DIMALTF
 40
25.3999999999999986
  9
$DIMLFAC
 40
1.0
  9
$DIMTOFL
 70
     0
  9
$DIMTVP
 40
0.0
  9
$DIMTIX
 70
     0
  9
$DIMSOXD
 70
     0
  9
$DIMSAH
 70
     0
  9
$DIMBLK1
  1

  9
$DIMBLK2
  1

  9
$DIMSTYLE
  2
STANDARD
  9
$DIMCLRD
 70
     0
  9
$DIMCLRE
 70
     0
  9
$DIMCLRT
 70
     0
  9
$DIMTFAC
 40
1.0
  9
$DIMGAP
 40
0.09
  9
$LUNITS
 70
     2
  9
$LUPREC
 70
     4
  9
$SKETCHINC
 40
0.1
  9
$FILLETRAD
 40
0.0
  9
$AUNITS
 70
     0
  9
$AUPREC
 70
     0
  9
$MENU
  1
.
  9
$ELEVATION
 40
0.0
  9
$PELEVATION
 40
0.0
  9
$THICKNESS
 40
0.0
  9
$LIMCHECK
 70
     0
  9
$BLIPMODE
 70
     0
  9
$CHAMFERA
 40
0.0
  9
$CHAMFERB
 40
0.0
  9
$SKPOLY
 70
     0
  9
$TDCREATE
 40
2458060.468368056230247
  9
$TDUPDATE
 40
2458900.2668750011362135
  9
$TDINDWG
 40
0.3039769676
  9
$TDUSRTIMER
 40
0.3039769676
  9
$USRTIMER
 70
     1
  9
$ANGBASE
 50
0.0
  9
$ANGDIR
 70
     0
  9
$PDMODE
 70
     0
  9
$PDSIZE
 40
0.3125
  9
$PLINEWID
 40
0.0
  9
$COORDS
 70
     1
  9
$SPLFRAME
 70
     0
  9
$SPLINETYPE
 70
     6
  9
$SPLINESEGS
 70
     8
  9
$ATTDIA
 70
     1
  9
$ATTREQ
 70
     1
  9
$HANDLING
 70
     1
  9
$HANDSEED
  5
6BFA
  9
$SURFTAB1
 70
     6
  9
$SURFTAB2
 70
     6
  9
$SURFTYPE
 70
     6
  9
$SURFU
 70
     6
  9
$SURFV
 70
     6
  9
$UCSNAME
  2

  9
$UCSORG
 10
0.0
 20
0.0
 30
0.0
  9
$UCSXDIR
 10
1.0
 20
0.0
 30
0.0
  9
$UCSYDIR
 10
0.0
 20
1.0
 30
0.0
  9
$PUCSNAME
  2

  9
$PUCSORG
 10
0.0
 20
0.0
 30
0.0
  9
$PUCSXDIR
 10
1.0
 20
0.0
 30
0.0
  9
$PUCSYDIR
 10
0.0
 20
1.0
 30
0.0
  9
$USERI1
 70
     0
  9
$USERI2
 70
     0
  9
$USERI3
 70
     0
  9
$USERI4
 70
     0
  9
$USERI5
 70
     0
  9
$USERR1
 40
0.0
  9
$USERR2
 40
0.0
  9
$USERR3
 40
0.0
  9
$USERR4
 40
0.0
  9
$USERR5
 40
0.0
  9
$WORLDVIEW
 70
     1
  9
$SHADEDGE
 70
     3
  9
$SHADEDIF
 70
    70
  9
$TILEMODE
 70
     1
  9
$MAXACTVP
 70
    64
  9
$PLIMCHECK
 70
     0
  9
$PEXTMIN
 10
1.0000000000000000E+20
 20
1.0000000000000000E+20
 30
1.0000000000000000E+20
  9
$PEXTMAX
 10
-1.0000000000000000E+20
 20
-1.0000000000000000E+20
 30
-1.0000000000000000E+20
  9
$PLIMMIN
 10
0.0
 20
0.0
  9
$PLIMMAX
 10
12.0
 20
9.0
  9
$UNITMODE
 70
     0
  9
$VISRETAIN
 70
     1
  9
$PLINEGEN
 70
     0
  9
$PSLTSCALE
 70
     1
  0
ENDSEC
  0
SECTION
  2
TABLES
  0
TABLE
  2
VPORT
 70
     1
  0
VPORT
  2
*ACTIVE
 70
     0
 10
0.0
 20
0.0
 11
1.0
 21
1.0
 12
0.0
 22
0.0
 13
0.0
 23
0.0
 14
1.0
 24
1.0
 15
0.0
 25
0.0
 16
0.0
 26
0.0
 36
10.7886162805471493
 17
3845.2640380859379547
 27
122.4219526628573931
 37
0.0
 40
3.7659035840136381
 41
2.1481900452488678
 42
50.0
 43
0.0
 44
0.0
 50
0.0
 51
0.0
 71
     0
 72
   100
 73
     1
 74
     1
 75
     0
 76
     0
 77
     0
 78
     0
  0
ENDTAB
  0
TABLE
  2
LTYPE
 70
     2
  0
LTYPE
  2
CONTINUOUS
 70
     0
  3
Solid line
 72
    65
 73
     0
 40
0.0
  0
LTYPE
  2
PHANTOM2
 70
     0
  3
___ _ _ ___ _ _ ___ _ _ ___ _ _
 72
    65
 73
     6
 40
1.25
 49
0.625
 49
-0.125
 49
0.125
 49
-0.125
 49
0.125
 49
-0.125
  0
ENDTAB
  0
TABLE
  2
LAYER
 70
     2
  0
LAYER
  2
0
 70
     0
 62
   255
  6
CONTINUOUS
  0
LAYER
  2
DEFPOINTS
 70
     0
 62
     7
  6
CONTINUOUS
  0
ENDTAB
  0
TABLE
  2
STYLE
 70
     1
  0
STYLE
  2
STANDARD
 70
     0
 40
0.0
 41
0.8
 50
0.0
 71
     0
 42
0.2
  3
txt
  4

  0
ENDTAB
  0
TABLE
  2
VIEW
 70
     0
  0
ENDTAB
  0
TABLE
  2
UCS
 70
     0
  0
ENDTAB
  0
TABLE
  2
APPID
 70
     9
  0
APPID
  2
ACAD
 70
     0
  0
APPID
  2
ACAD_MLEADERVER
 70
     0
  0
APPID
  2
ACAD_EXEMPT_FROM_CAD_STANDARDS
 70
     0
  0
APPID
  2
ACAD_NAV_VCDISPLAY
 70
     0
  0
APPID
  2
ACAECLAYERSTANDARD
 70
     0
  0
APPID
  2
ACCMTRANSPARENCY
 70
     0
  0
APPID
  2
ACAD_DSTYLE_DIMJAG
 70
     0
  0
APPID
  2
ACAD_DSTYLE_DIMTALN
 70
     0
  0
APPID
  2
ACDBATTR
 70
     0
  0
ENDTAB
  0
TABLE
  2
DIMSTYLE
 70
     1
  0
DIMSTYLE
  2
STANDARD
 70
     0
  3

  4

  5

  6

  7

 40
1.0
 41
0.1875
 42
0.0625
 43
0.38
 44
0.125
 45
0.0
 46
0.0
 47
0.01
 48
0.01
140
0.15625
141
0.09
142
0.0
143
25.3999999999999986
144
1.0
145
0.0
146
1.0
147
0.09
 71
     1
 72
     0
 73
     1
 74
     1
 75
     0
 76
     0
 77
     0
 78
     4
170
     0
171
     2
172
     0
173
     0
174
     0
175
     0
176
     0
177
     0
178
     0
  0
ENDTAB
  0
ENDSEC
  0
SECTION
  2
BLOCKS
  0
BLOCK
  8
0
  2
$MODEL_SPACE
 70
     0
 10
0.0
 20
0.0
 30
0.0
  3
$MODEL_SPACE
  1

  0
ENDBLK
  5
21
  8
0
  0
BLOCK
 67
     1
  8
0
  2
$PAPER_SPACE
 70
     0
 10
0.0
 20
0.0
 30
0.0
  3
$PAPER_SPACE
  1

  0
ENDBLK
  5
1D
 67
     1
  8
0
  0
ENDSEC
  0
SECTION
  2
ENTITIES
  0
ATTDEF
  5
3930
  8
DEFPOINTS
 10
3845.2593969770628064
 20
120.8267232171535994
 30
0.0
 40
0.001
  1
K-1895-C
  3

  2
MODELNUMBER
 70
     0
1001
ACDBATTR
1070
     0
1070
     1
  0
ATTDEF
  5
3931
  8
DEFPOINTS
 10
3845.2593969770628064
 20
120.8250565504870053
 30
0.0
 40
0.001
  1
CONTEMPORARY
  3

  2
TRADENAME
 70
     0
1001
ACDBATTR
1070
     0
1070
     1
  0
ATTDEF
  5
3932
  8
DEFPOINTS
 10
3845.2593969770628064
 20
120.8233898838202975
 30
0.0
 40
0.001
  1
SOAP DISPENSER
  3

  2
PRODUCT
 70
     0
1001
ACDBATTR
1070
     0
1070
     1
  0
LINE
  5
6A7D
  8
0
 10
3845.1261332963058521
 20
123.0407554089736948
 30
0.0
 11
3845.1261367873657946
 21
123.5319922587666071
 31
0.0
  0
LINE
  5
6A7E
  8
0
 10
3845.4021332963061468
 20
123.0407187419737056
 30
0.0
 11
3845.4021296647069903
 21
123.531911457573699
 31
0.0
  0
LINE
  5
6A7F
  8
0
 10
3845.9750107979061795
 20
123.6981581058737021
 30
0.0
 11
3845.8982385520062053
 21
123.644401600673703
 31
0.0
  0
LINE
  5
6A80
  8
0
 10
3844.297577810706116
 20
120.9371723849737066
 30
0.0
 11
3844.7452848709058344
 21
121.0721594383737028
 31
0.0
  0
LINE
  5
6A81
  8
0
 10
3844.2691246830067939
 20
120.8285935525736932
 30
0.0
 11
3844.2691246830067939
 21
120.8988752605737034
 31
0.0
  0
LINE
  5
6A82
  8
0
 10
3844.6641246830058662
 20
123.5788694483736947
 30
0.0
 11
3844.6641246830058662
 21
121.4702648123736992
 31
0.0
  0
LINE
  5
6A83
  8
0
 10
3844.7666246830058299
 20
121.4405148123737064
 30
0.0
 11
3844.7666246830058299
 21
121.1008822714736937
 31
0.0
  0
LINE
  5
6A84
  8
0
 10
3845.761624683007085
 20
121.1008822714736937
 30
0.0
 11
3845.761624683007085
 21
121.4405148123737064
 31
0.0
  0
LINE
  5
6A85
  8
0
 10
3845.8641246830061391
 20
121.4702648123736992
 30
0.0
 11
3845.8641246830061391
 21
123.5788694483736947
 31
0.0
  0
LINE
  5
6A86
  8
0
 10
3846.2591246830070304
 20
120.8988752605737034
 30
0.0
 11
3846.2591246830070304
 21
120.8285935525736932
 31
0.0
  0
LINE
  5
6A87
  8
0
 10
3844.2691246830067939
 20
120.8285935525736932
 30
0.0
 11
3846.2591246830070304
 21
120.8285935525736932
 31
0.0
  0
LINE
  5
6A88
  8
0
 10
3844.297577810706116
 20
120.9371723849737066
 30
0.0
 11
3846.2306715553090726
 21
120.9371723850092053
 31
0.0
  0
LINE
  5
6A89
  8
0
 10
3845.7829644950061265
 20
121.0721594383737028
 30
0.0
 11
3844.7452848709058344
 21
121.0721594383737028
 31
0.0
  0
LINE
  5
6A8A
  8
0
 10
3845.8343746830059899
 20
121.4405148123737064
 30
0.0
 11
3844.6938746830060154
 21
121.4405148123737064
 31
0.0
  0
LINE
  5
6A8B
  8
0
 10
3845.7829644950061265
 20
121.0721594383737028
 30
0.0
 11
3846.2306715553058893
 21
120.9371723849737066
 31
0.0
  0
LINE
  5
6A8C
  8
0
 10
3844.6300108139071199
 20
123.644401600673703
 30
0.0
 11
3844.5532385680057814
 21
123.6981581058737021
 31
0.0
  0
ARC
  5
6A8D
  8
0
 10
3845.2641246830057753
 20
122.2705148123737047
 30
0.0
 40
1.75
 50
77.626374883807344
 51
102.3736251161925992
  0
ARC
  5
6A8E
  8
0
 10
3845.9441246830060663
 20
123.5788694483736947
 30
0.0
 40
0.08
 50
125.0000140306082983
 51
180.0
  0
ARC
  5
6A8F
  8
0
 10
3844.584124683005939
 20
123.5788694483736947
 30
0.0
 40
0.08
 50
0.0
 51
54.9999859693921493
  0
ARC
  5
6A90
  8
0
 10
3844.5991246830058117
 20
123.7636902694736989
 30
0.0
 40
0.08
 50
180.0
 51
234.9999999998942997
  0
ARC
  5
6A91
  8
0
 10
3845.9291246830061937
 20
123.7636902694736989
 30
0.0
 40
0.08
 50
305.0000000001056719
 51
0.0
  0
ARC
  5
6A92
  8
0
 10
3846.2191246830061573
 20
120.8988752605737034
 30
0.0
 40
0.04
 50
0.0
 51
73.2215442200012916
  0
ARC
  5
6A93
  8
0
 10
3844.3091246830072123
 20
120.8988752605737034
 30
0.0
 40
0.04
 50
106.7784557799986942
 51
180.0
  0
ARC
  5
6A94
  8
0
 10
3844.736624683006994
 20
121.1008822714736937
 30
0.0
 40
0.03
 50
286.7785231195086908
 51
0.0
  0
ARC
  5
6A95
  8
0
 10
3845.7916246830068303
 20
121.1008822714736937
 30
0.0
 40
0.03
 50
180.0
 51
253.2214768804913092
  0
ARC
  5
6A96
  8
0
 10
3845.8343746830059899
 20
121.4702648123736992
 30
0.0
 40
0.02975
 50
270.0
 51
0.0
  0
ARC
  5
6A97
  8
0
 10
3844.6938746830060154
 20
121.4702648123736992
 30
0.0
 40
0.02975
 50
180.0
 51
270.0
  0
ARC
  5
6A98
  8
0
 10
3844.7398514505739513
 20
123.6892156172553001
 30
0.0
 40
0.2329523121669812
 50
106.4397528013080034
 51
161.355269297961712
  0
ARC
  5
6A99
  8
0
 10
3845.1180139422408502
 20
122.8690018870985057
 30
0.0
 40
1.1341980239022851
 50
101.6426555800069025
 51
113.0506711071649022
  0
ARC
  5
6A9A
  8
0
 10
3845.4101582483849597
 20
122.8687548150806066
 30
0.0
 40
1.134455587320754
 50
66.9506282002248412
 51
78.3560450937934831
  0
ARC
  5
6A9B
  8
0
 10
3845.8004061501637807
 20
123.7016951043670048
 30
0.0
 40
0.2177310874641165
 50
16.5428727376359106
 51
75.6621051948076939
  0
ARC
  5
6A9C
  8
0
 10
3845.2639256759771342
 20
123.5320656921942941
 30
0.0
 40
0.1382040747919379
 50
359.9360583639680158
 51
89.9139266124711583
  0
ARC
  5
6A9D
  8
0
 10
3845.2645135144957749
 20
123.531893370940594
 30
0.0
 40
0.1383767624644661
 50
90.1574325400407588
 51
179.9590548625436099
  0
ARC
  5
6A9E
  8
0
 10
3845.264136429248083
 20
123.0643193482697058
 30
0.0
 40
0.1400004426258283
 50
189.689766364178098
 51
350.2950099683494045
  0
ARC
  5
6A9F
  8
0
 10
3845.2641318109622262
 20
123.5307836475202947
 30
0.0
 40
0.1380809781520854
 50
182.0212429216389012
 51
358.0123383934858907
  0
LINE
  5
6AA0
  8
0
 10
3844.6300108139621443
 20
123.6444016006801974
 30
0.0
 11
3845.1839528651698856
 21
123.6444016006801974
 31
0.0
  0
LINE
  5
6AA1
  8
0
 10
3845.3444303440101066
 20
123.6444016006801974
 30
0.0
 11
3845.8982385520162097
 21
123.6444016006801974
 31
0.0
  0
ARC
  5
6AA3
  8
0
 10
3845.2672830864371463
 20
123.5402853735846946
 30
0.0
 40
0.1505563762986394
 50
242.1169903041445082
 51
268.8923592217083751
  0
ARC
  5
6AA4
  8
0
 10
3845.2647630384249169
 20
123.523254864297499
 30
0.0
 40
0.1344469536756484
 50
239.6713146382475088
 51
269.8336599648092147
  0
ARC
  5
6AA5
  8
0
 10
3845.2639823917620561
 20
123.523254864297499
 30
0.0
 40
0.1344469536756484
 50
270.1663400351907853
 51
300.3286853617524912
  0
ARC
  5
6AA6
  8
0
 10
3845.2614623437498267
 20
123.5402853735846946
 30
0.0
 40
0.1505563762986913
 50
271.1076407782655906
 51
297.8830096958294007
  0
ENDSEC
  0
EOF
