  0
SECTION
  2
HEADER
  9
$ACADVER
  1
AC1009
  9
$INSBASE
 10
4.7794989320863186
 20
60.105489872900002
 30
0.0
  9
$EXTMIN
 10
-28.216853376602081
 20
44.356293695843959
 30
-0.0015258207003583
  9
$EXTMAX
 10
37.775851434885787
 20
75.855824649627067
 30
0.0000000349246037
  9
$LIMMIN
 10
0.0
 20
0.0
  9
$LIMMAX
 10
11.692913385800001
 20
8.2677165353999982
  9
$ORTHOMODE
 70
     0
  9
$REGENMODE
 70
     1
  9
$FILLMODE
 70
     1
  9
$QTEXTMODE
 70
     0
  9
$MIRRTEXT
 70
     0
  9
$DRAGMODE
 70
     2
  9
$LTSCALE
 40
0.6431102362
  9
$OSMODE
 70
    39
  9
$ATTMODE
 70
     1
  9
$TEXTSIZE
 40
0.2
  9
$TRACEWID
 40
0.05
  9
$TEXTSTYLE
  7
STANDARD
  9
$CLAYER
  8
0
  9
$CELTYPE
  6
BYLAYER
  9
$CECOLOR
 62
   256
  9
$DIMSCALE
 40
1.0
  9
$DIMASZ
 40
0.1875
  9
$DIMEXO
 40
0.0625
  9
$DIMDLI
 40
0.4443307087
  9
$DIMRND
 40
0.0
  9
$DIMDLE
 40
0.0
  9
$DIMEXE
 40
0.125
  9
$DIMTP
 40
0.01
  9
$DIMTM
 40
0.01
  9
$DIMTXT
 40
0.15625
  9
$DIMCEN
 40
0.1052362205
  9
$DIMTSZ
 40
0.0
  9
$DIMTOL
 70
     1
  9
$DIMLIM
 70
     0
  9
$DIMTIH
 70
     1
  9
$DIMTOH
 70
     1
  9
$DIMSE1
 70
     0
  9
$DIMSE2
 70
     0
  9
$DIMTAD
 70
     0
  9
$DIMZIN
 70
     0
  9
$DIMBLK
  1

  9
$DIMASO
 70
     1
  9
$DIMSHO
 70
     1
  9
$DIMPOST
  1

  9
$DIMAPOST
  1

  9
$DIMALT
 70
     0
  9
$DIMALTD
 70
     2
  9
$DIMALTF
 40
25.399999999999999
  9
$DIMLFAC
 40
1.0
  9
$DIMTOFL
 70
     0
  9
$DIMTVP
 40
0.0
  9
$DIMTIX
 70
     0
  9
$DIMSOXD
 70
     0
  9
$DIMSAH
 70
     0
  9
$DIMBLK1
  1

  9
$DIMBLK2
  1

  9
$DIMSTYLE
  2
STANDARD
  9
$DIMCLRD
 70
     0
  9
$DIMCLRE
 70
     0
  9
$DIMCLRT
 70
     0
  9
$DIMTFAC
 40
1.0
  9
$DIMGAP
 40
0.09
  9
$LUNITS
 70
     2
  9
$LUPREC
 70
     4
  9
$SKETCHINC
 40
0.1
  9
$FILLETRAD
 40
0.0
  9
$AUNITS
 70
     0
  9
$AUPREC
 70
     0
  9
$MENU
  1
.
  9
$ELEVATION
 40
0.0
  9
$PELEVATION
 40
0.0
  9
$THICKNESS
 40
0.0
  9
$LIMCHECK
 70
     0
  9
$BLIPMODE
 70
     0
  9
$CHAMFERA
 40
0.0
  9
$CHAMFERB
 40
0.0
  9
$SKPOLY
 70
     0
  9
$TDCREATE
 40
2457595.4768300811
  9
$TDUPDATE
 40
2457597.6035076389
  9
$TDINDWG
 40
0.2204968866
  9
$TDUSRTIMER
 40
0.2204968866
  9
$USRTIMER
 70
     1
  9
$ANGBASE
 50
0.0
  9
$ANGDIR
 70
     0
  9
$PDMODE
 70
     0
  9
$PDSIZE
 40
0.3125
  9
$PLINEWID
 40
0.0
  9
$COORDS
 70
     1
  9
$SPLFRAME
 70
     0
  9
$SPLINETYPE
 70
     6
  9
$SPLINESEGS
 70
     8
  9
$ATTDIA
 70
     1
  9
$ATTREQ
 70
     1
  9
$HANDLING
 70
     1
  9
$HANDSEED
  5
1B2B
  9
$SURFTAB1
 70
     6
  9
$SURFTAB2
 70
     6
  9
$SURFTYPE
 70
     6
  9
$SURFU
 70
     6
  9
$SURFV
 70
     6
  9
$UCSNAME
  2

  9
$UCSORG
 10
0.0
 20
0.0
 30
0.0
  9
$UCSXDIR
 10
1.0
 20
0.0
 30
0.0
  9
$UCSYDIR
 10
0.0
 20
1.0
 30
0.0
  9
$PUCSNAME
  2

  9
$PUCSORG
 10
0.0
 20
0.0
 30
0.0
  9
$PUCSXDIR
 10
1.0
 20
0.0
 30
0.0
  9
$PUCSYDIR
 10
0.0
 20
1.0
 30
0.0
  9
$USERI1
 70
     0
  9
$USERI2
 70
     0
  9
$USERI3
 70
     0
  9
$USERI4
 70
     0
  9
$USERI5
 70
     0
  9
$USERR1
 40
0.0
  9
$USERR2
 40
0.0
  9
$USERR3
 40
0.0
  9
$USERR4
 40
0.0
  9
$USERR5
 40
0.0
  9
$WORLDVIEW
 70
     1
  9
$SHADEDGE
 70
     3
  9
$SHADEDIF
 70
    70
  9
$TILEMODE
 70
     1
  9
$MAXACTVP
 70
    64
  9
$PLIMCHECK
 70
     0
  9
$PEXTMIN
 10
1.0000000000000000E+020
 20
1.0000000000000000E+020
 30
1.0000000000000000E+020
  9
$PEXTMAX
 10
-1.0000000000000000E+020
 20
-1.0000000000000000E+020
 30
-1.0000000000000000E+020
  9
$PLIMMIN
 10
0.0
 20
0.0
  9
$PLIMMAX
 10
12.0
 20
9.0
  9
$UNITMODE
 70
     0
  9
$VISRETAIN
 70
     1
  9
$PLINEGEN
 70
     0
  9
$PSLTSCALE
 70
     1
  0
ENDSEC
  0
SECTION
  2
TABLES
  0
TABLE
  2
VPORT
 70
     1
  0
VPORT
  2
*ACTIVE
 70
     0
 10
0.0
 20
0.0
 11
1.0
 21
1.0
 12
38.108640645963149
 22
27.58075437842399
 13
0.0
 23
0.0
 14
1.0
 24
1.0
 15
0.0
 25
0.0
 16
-0.0000000000001066
 26
0.0
 36
469.02377380731298
 17
-33.329141616821289
 27
32.525304794311531
 37
0.0
 40
38.65071685133335
 41
1.7138492871690421
 42
50.0
 43
0.0
 44
0.0
 50
0.0
 51
0.0
 71
     0
 72
   100
 73
     1
 74
     1
 75
     0
 76
     1
 77
     0
 78
     0
  0
ENDTAB
  0
TABLE
  2
LTYPE
 70
     1
  0
LTYPE
  2
CONTINUOUS
 70
     0
  3
Solid line
 72
    65
 73
     0
 40
0.0
  0
ENDTAB
  0
TABLE
  2
LAYER
 70
     3
  0
LAYER
  2
0
 70
     0
 62
     7
  6
CONTINUOUS
  0
LAYER
  2
DEFPOINTS
 70
     0
 62
     7
  6
CONTINUOUS
  0
ENDTAB
  0
TABLE
  2
STYLE
 70
     1
  0
STYLE
  2
STANDARD
 70
     0
 40
0.0
 41
0.8
 50
0.0
 71
     0
 42
0.2
  3
txt
  4

  0
ENDTAB
  0
TABLE
  2
VIEW
 70
    14
  0
ENDTAB
  0
TABLE
  2
UCS
 70
     0
  0
ENDTAB
  0
TABLE
  2
APPID
 70
     6
  0
APPID
  2
ACAD
 70
     0
  0
APPID
  2
ACAD_MLEADERVER
 70
     0
  0
APPID
  2
ACAD_EXEMPT_FROM_CAD_STANDARDS
 70
     0
  0
APPID
  2
ACAD_NAV_VCDISPLAY
 70
     0
  0
APPID
  2
ACDBATTR
 70
     0
  0
APPID
  2
ACAD_DSTYLE_DIMRADIAL_EXTENSION
 70
     0
  0
ENDTAB
  0
TABLE
  2
DIMSTYLE
 70
     1
  0
DIMSTYLE
  2
STANDARD
 70
     0
  3

  4

  5

  6

  7

 40
1.0
 41
0.1875
 42
0.0625
 43
0.38
 44
0.125
 45
0.0
 46
0.0
 47
0.01
 48
0.01
140
0.15625
141
0.09
142
0.0
143
25.399999999999999
144
1.0
145
0.0
146
1.0
147
0.09
 71
     1
 72
     0
 73
     1
 74
     1
 75
     0
 76
     0
 77
     0
 78
     4
170
     0
171
     2
172
     0
173
     0
174
     0
175
     0
176
     0
177
     0
178
     0
  0
ENDTAB
  0
ENDSEC
  0
SECTION
  2
BLOCKS
  0
BLOCK
  8
0
  2
$MODEL_SPACE
 70
     0
 10
0.0
 20
0.0
 30
0.0
  3
$MODEL_SPACE
  1

  0
ENDBLK
  5
21
  8
0
  0
BLOCK
 67
     1
  8
0
  2
$PAPER_SPACE
 70
     0
 10
0.0
 20
0.0
 30
0.0
  3
$PAPER_SPACE
  1

  0
ENDBLK
  5
1D
 67
     1
  8
0
  0
ENDSEC
  0
SECTION
  2
ENTITIES
  0
ARC
  5
593
  8
0
 10
4.5186690059188237
 20
23.443929639899292
 30
0.0
 40
49.547070383863719
 50
89.698377328706144
 51
98.519761953812477
  0
ARC
  5
595
  8
0
 10
-0.6450229950520301
 20
57.913667428480622
 30
0.0
 40
14.692708557910819
 50
98.519761953812434
 51
117.851294710985
  0
ARC
  5
596
  8
0
 10
-2.675456855876702
 20
59.716730967690651
 30
0.0
 40
12.187240087121641
 50
113.3669392458511
 51
178.17202060811411
  0
ARC
  5
598
  8
0
 10
-12.468501143938401
 20
60.107170753134973
 30
0.0
 40
15.746338571691901
 50
90.000046815107126
 51
180.00602126063049
  0
ARC
  5
599
  8
0
 10
3.8988066874231362
 20
137.19371644817909
 30
0.0
 40
62.802484942909949
 50
262.97228662773369
 51
270.80349685918458
  0
ARC
  5
59A
  8
0
 10
14.77925715295248
 20
218.91458549744371
 30
0.0
 40
145.24281343539769
 50
261.32176019976851
 51
262.65661750912187
  0
ARC
  5
59B
  8
0
 10
-13.40652042132578
 20
38.551100524683072
 30
0.0
 40
37.314201589238053
 50
80.325371859689739
 51
88.559494069910698
  0
ARC
  5
5B2
  8
0
 10
4.5186690059188148
 20
96.767050105900722
 30
0.0
 40
49.547070383863719
 50
261.48023804618748
 51
270.30162267129379
  0
ARC
  5
5B3
  8
0
 10
-0.6450229950520321
 20
62.297312317319388
 30
0.0
 40
14.692708557910819
 50
242.14870528901511
 51
261.48023804618748
  0
ARC
  5
5B4
  8
0
 10
-2.6754568558767029
 20
60.494248778109359
 30
0.0
 40
12.187240087121641
 50
181.82797939188609
 51
246.633060754149
  0
ARC
  5
5B6
  8
0
 10
-12.468501143938401
 20
60.103808992665051
 30
0.0
 40
15.746338571691901
 50
179.9939787393696
 51
269.99995318489289
  0
ARC
  5
5B7
  8
0
 10
3.89880668742315
 20
-16.9827367023791
 30
0.0
 40
62.802484942909949
 50
89.196503140815381
 51
97.027713372266319
  0
ARC
  5
5B8
  8
0
 10
14.779257152952519
 20
-98.703605751643721
 30
0.0
 40
145.24281343539769
 50
97.343382490878184
 51
98.678239800231523
  0
ARC
  5
5B9
  8
0
 10
-13.406520421325791
 20
81.659879221116938
 30
0.0
 40
37.314201589238053
 50
271.44050593008927
 51
279.67462814031018
  0
ARC
  5
5C2
  8
0
 10
5.040328745081168
 20
23.443929639899292
 30
0.0
 40
49.547070383863719
 50
81.480238046187495
 51
90.301622671293885
  0
ARC
  5
5C3
  8
0
 10
10.20402074605202
 20
57.913667428480622
 30
0.0
 40
14.692708557910819
 50
62.148705289015027
 51
81.480238046187608
  0
ARC
  5
5C4
  8
0
 10
12.234454606876691
 20
59.716730967690651
 30
0.0
 40
12.187240087121641
 50
1.8279793918858289
 51
66.633060754148843
  0
ARC
  5
5C6
  8
0
 10
22.0274988949384
 20
60.107170753134973
 30
0.0
 40
15.746338571691901
 50
359.99397873936948
 51
89.999953184892917
  0
ARC
  5
5C7
  8
0
 10
5.660191063576856
 20
137.19371644817909
 30
0.0
 40
62.802484942909949
 50
269.19650314081542
 51
277.02771337226619
  0
ARC
  5
5C8
  8
0
 10
-5.2202594019524931
 20
218.91458549744371
 30
0.0
 40
145.24281343539769
 50
277.34338249087813
 51
278.67823980023138
  0
ARC
  5
5C9
  8
0
 10
22.96551817232578
 20
38.551100524683072
 30
0.0
 40
37.314201589238053
 50
91.440505930089245
 51
99.674628140310304
  0
ARC
  5
5CA
  8
0
 10
5.8073682729929974
 20
60.178942546154673
 30
0.0
 40
27.114575743870471
 50
359.84478704890591
 51
5.677575740264551
  0
ARC
  5
5CB
  8
0
 10
33.073883758737843
 20
62.889725216075199
 30
0.0
 40
0.2863587186237817
 50
160.80788933758359
 51
185.67757574026501
  0
ARC
  5
5CC
  8
0
 10
32.919932486509261
 20
62.943312953385451
 30
0.0
 40
0.1233475539422422
 50
123.4741088507012
 51
160.80788933758541
  0
ARC
  5
5CD
  8
0
 10
32.892289735063038
 20
62.985117627583541
 30
0.0
 40
0.0732301668163557
 50
85.791245597292985
 51
123.4741088507005
  0
ARC
  5
5CE
  8
0
 10
32.889641090625119
 20
62.949125245378227
 30
0.0
 40
0.1093198730242431
 50
39.094263454933852
 51
85.791245597292075
  0
ARC
  5
5CF
  8
0
 10
32.767042093255057
 20
62.837719308202033
 30
0.0
 40
0.2748749163090767
 50
4.9412955929854476
 51
41.002394964200647
  0
ARC
  5
5D0
  8
0
 10
6.6160616466011781
 20
60.17007063503992
 30
0.0
 40
26.561533669306069
 50
359.8606935635438
 51
5.8154264614455169
  0
ARC
  5
5D2
  8
0
 10
5.040328745081176
 20
96.767050105900722
 30
0.0
 40
49.547070383863719
 50
269.6983773287061
 51
278.51976195381252
  0
ARC
  5
5D3
  8
0
 10
10.20402074605202
 20
62.297312317319388
 30
0.0
 40
14.692708557910819
 50
278.51976195381252
 51
297.8512947109848
  0
ARC
  5
5D4
  8
0
 10
12.234454606876691
 20
60.494248778109359
 30
0.0
 40
12.187240087121641
 50
293.36693924585092
 51
358.17202060811388
  0
ARC
  5
5D6
  8
0
 10
22.0274988949384
 20
60.103808992665051
 30
0.0
 40
15.746338571691901
 50
270.00004681510711
 51
0.0060212606303988
  0
ARC
  5
5D7
  8
0
 10
5.6601910635768409
 20
-16.9827367023791
 30
0.0
 40
62.802484942909949
 50
82.972286627733695
 51
90.803496859184605
  0
ARC
  5
5D8
  8
0
 10
-5.220259401952525
 20
-98.703605751643721
 30
0.0
 40
145.24281343539769
 50
81.321760199768462
 51
82.656617509121844
  0
ARC
  5
5D9
  8
0
 10
22.96551817232579
 20
81.659879221116938
 30
0.0
 40
37.314201589238053
 50
260.32537185968982
 51
268.55949406991073
  0
ARC
  5
5DA
  8
0
 10
5.8073682729929992
 20
60.032037199645352
 30
0.0
 40
27.114575743870471
 50
354.3224242597355
 51
0.1552129510944934
  0
ARC
  5
5DB
  8
0
 10
33.073883758737843
 20
57.321254529724811
 30
0.0
 40
0.2863587186237817
 50
174.3224242597347
 51
199.1921106624167
  0
ARC
  5
5DC
  8
0
 10
32.919932486509261
 20
57.267666792414559
 30
0.0
 40
0.1233475539422422
 50
199.19211066241499
 51
236.52589114929901
  0
ARC
  5
5DD
  8
0
 10
32.892289735063038
 20
57.225862118216469
 30
0.0
 40
0.0732301668163557
 50
236.5258911492993
 51
274.20875440270697
  0
ARC
  5
5DE
  8
0
 10
32.889641090625119
 20
57.261854500421769
 30
0.0
 40
0.1093198730242431
 50
274.20875440270783
 51
320.90573654506608
  0
ARC
  5
5DF
  8
0
 10
32.767042093255057
 20
57.37326043759797
 30
0.0
 40
0.2748749163090767
 50
318.99760503579949
 51
355.05870440701449
  0
ARC
  5
5E0
  8
0
 10
6.616061646601179
 20
60.04090911076009
 30
0.0
 40
26.561533669306069
 50
354.18457353855467
 51
0.1393064364566055
  0
ARC
  5
790
  8
0
 10
-12.43577542285518
 20
60.120931555624793
 30
0.0
 40
15.033425420021279
 50
114.01433980621729
 51
180.05883247261829
  0
ARC
  5
791
  8
0
 10
-12.4804406109296
 20
60.221183699181942
 30
0.0
 40
14.92367355756088
 50
89.892596153720959
 51
114.0143398407693
  0
ARC
  5
792
  8
0
 10
-13.08259034292476
 20
43.707288769836623
 30
0.0
 40
31.443856651881049
 50
80.955301030303687
 51
88.851733914920416
  0
ARC
  5
795
  8
0
 10
8.2673768318368293
 20
176.13110018950249
 30
0.0
 40
102.690064222136
 50
260.80642783204621
 51
264.35645356557148
  0
ARC
  5
796
  8
0
 10
4.3353897936268124
 20
149.52695189803379
 30
0.0
 40
75.839285135538731
 50
265.33614136265771
 51
270.3355216388257
  0
ARC
  5
797
  8
0
 10
5.3533177274080881
 20
144.58339949505671
 30
0.0
 40
70.896754591071328
 50
269.53625863683862
 51
275.75097182334582
  0
ARC
  5
798
  8
0
 10
-13.660603300057049
 20
286.99785069580349
 30
0.0
 40
214.55004083662999
 50
276.99221177160268
 51
278.59676999524021
  0
ARC
  5
799
  8
0
 10
22.271263816063751
 20
49.104358567332334
 30
0.0
 40
26.04177352760918
 50
90.571616381391266
 51
98.526235447115795
  0
ARC
  5
79A
  8
0
 10
22.154925852896881
 20
60.765069058066523
 30
0.0
 40
14.38048270410286
 50
65.524021705014675
 51
90.571616381391266
  0
ARC
  5
79B
  8
0
 10
21.806070571555651
 20
59.99872472819559
 30
0.0
 40
15.2224943662816
 50
0.4018525334214474
 51
65.524021705014675
  0
ARC
  5
79D
  8
0
 10
-12.43577540212744
 20
60.09004871082243
 30
0.0
 40
15.03342545060522
 50
179.94113095573641
 51
245.98566015923069
  0
ARC
  5
79E
  8
0
 10
-12.4804406109296
 20
59.989796543018052
 30
0.0
 40
14.92367355756088
 50
245.98566015923069
 51
270.107403846279
  0
ARC
  5
79F
  8
0
 10
-13.08259034292476
 20
76.503691472363371
 30
0.0
 40
31.443856651881049
 50
271.14826608507963
 51
279.04469896969641
  0
ARC
  5
7A0
  8
0
 10
8.2673768318368293
 20
-55.920119947302553
 30
0.0
 40
102.690064222136
 50
95.643546434428515
 51
99.193572167953775
  0
ARC
  5
7A1
  8
0
 10
4.3353897936268124
 20
-29.315971655833881
 30
0.0
 40
75.839285135538731
 50
89.664478361174304
 51
94.663858637342329
  0
ARC
  5
7A2
  8
0
 10
5.3533177274080881
 20
-24.37241925285678
 30
0.0
 40
70.896754591071328
 50
84.249028176654292
 51
90.463741363161418
  0
ARC
  5
7A3
  8
0
 10
-13.660603300057049
 20
-166.78687045360351
 30
0.0
 40
214.55004083662999
 50
81.403230004759834
 51
83.007788228397274
  0
ARC
  5
7A4
  8
0
 10
22.271263816063751
 20
71.106621674867668
 30
0.0
 40
26.04177352760918
 50
261.47376455288418
 51
269.42838361860868
  0
ARC
  5
7A5
  8
0
 10
22.154925852896881
 20
59.445911184133458
 30
0.0
 40
14.38048270410286
 50
269.42838361860868
 51
294.47597829498551
  0
ARC
  5
7A6
  8
0
 10
21.80607054049576
 20
60.212255550042137
 30
0.0
 40
15.222494411949279
 50
294.47597834518763
 51
359.59813962790213
  0
ATTDEF
  5
915
  8
DEFPOINTS
 10
4.7746441148062848
 20
60.114249440892877
 30
0.0
 40
0.001
  1
LITHOCAST
  3

  2
MATERIAL
 70
     0
1001
ACDBATTR
1070
     0
1070
     1
  0
ATTDEF
  5
916
  8
DEFPOINTS
 10
4.7746441148062848
 20
60.115916107559549
 30
0.0
 40
0.001
  1
BATH
  3

  2
PRODUCT
 70
     0
1001
ACDBATTR
1070
     0
1070
     1
  0
ATTDEF
  5
917
  8
DEFPOINTS
 10
4.7746441148062848
 20
60.117582774226221
 30
0.0
 40
0.001
  1
ABRAZO
  3

  2
TRADENAME
 70
     0
1001
ACDBATTR
1070
     0
1070
     1
  0
ATTDEF
  5
918
  8
DEFPOINTS
 10
4.7746441148062848
 20
60.119249440892879
 30
0.0
 40
0.001
  1
K-1800
  3

  2
MODELNUMBER
 70
     0
1001
ACDBATTR
1070
     0
1070
     1
  0
CIRCLE
  5
BF7
  8
0
 10
4.7794988754000007
 20
60.1054901503
 30
0.0
 40
1.2047244094
  0
CIRCLE
  5
BF9
  8
0
 10
4.7794988754000007
 20
60.1054901503
 30
0.0
 40
1.0625984252
  0
LINE
  5
D6F
  8
0
 10
-12.433052526799999
 20
44.35745865709999
 30
0.0
 11
22.027504215600011
 21
44.357470692999989
 31
0.0
  0
LINE
  5
DEC
  8
0
 10
-12.43305259229999
 20
75.853521643500002
 30
0.0
 11
21.992050281600001
 21
75.853521643500002
 31
0.0
  0
ENDSEC
  0
EOF
