  0
SECTION
  2
HEADER
  9
$ACADVER
  1
AC1009
  9
$INSBASE
 10
277.6829864240093
 20
29.47718973110463
 30
0.0
  9
$EXTMIN
 10
276.74661342205928
 20
29.470382600936102
 30
0.0
  9
$EXTMAX
 10
279.43584059685929
 20
33.97661706243143
 30
0.0
  9
$LIMMIN
 10
0.0
 20
0.0
  9
$LIMMAX
 10
11.692913385800001
 20
8.2677165353999982
  9
$ORTHOMODE
 70
     1
  9
$REGENMODE
 70
     1
  9
$FILLMODE
 70
     1
  9
$QTEXTMODE
 70
     0
  9
$MIRRTEXT
 70
     0
  9
$DRAGMODE
 70
     2
  9
$LTSCALE
 40
0.6431102362
  9
$OSMODE
 70
  3071
  9
$ATTMODE
 70
     1
  9
$TEXTSIZE
 40
0.2
  9
$TRACEWID
 40
0.05
  9
$TEXTSTYLE
  7
STANDARD
  9
$CLAYER
  8
0
  9
$CELTYPE
  6
BYLAYER
  9
$CECOLOR
 62
   256
  9
$DIMSCALE
 40
1.0
  9
$DIMASZ
 40
0.1875
  9
$DIMEXO
 40
0.0625
  9
$DIMDLI
 40
0.4443307087
  9
$DIMRND
 40
0.0
  9
$DIMDLE
 40
0.0
  9
$DIMEXE
 40
0.125
  9
$DIMTP
 40
0.01
  9
$DIMTM
 40
0.01
  9
$DIMTXT
 40
1.0
  9
$DIMCEN
 40
0.1052362205
  9
$DIMTSZ
 40
0.0
  9
$DIMTOL
 70
     1
  9
$DIMLIM
 70
     0
  9
$DIMTIH
 70
     0
  9
$DIMTOH
 70
     1
  9
$DIMSE1
 70
     0
  9
$DIMSE2
 70
     0
  9
$DIMTAD
 70
     0
  9
$DIMZIN
 70
     0
  9
$DIMBLK
  1

  9
$DIMASO
 70
     1
  9
$DIMSHO
 70
     1
  9
$DIMPOST
  1
\X
  9
$DIMAPOST
  1

  9
$DIMALT
 70
     1
  9
$DIMALTD
 70
     2
  9
$DIMALTF
 40
25.399999999999999
  9
$DIMLFAC
 40
1.0
  9
$DIMTOFL
 70
     0
  9
$DIMTVP
 40
0.0
  9
$DIMTIX
 70
     0
  9
$DIMSOXD
 70
     0
  9
$DIMSAH
 70
     0
  9
$DIMBLK1
  1

  9
$DIMBLK2
  1

  9
$DIMSTYLE
  2
STANDARD
  9
$DIMCLRD
 70
     0
  9
$DIMCLRE
 70
     0
  9
$DIMCLRT
 70
     0
  9
$DIMTFAC
 40
1.0
  9
$DIMGAP
 40
0.09
  9
$LUNITS
 70
     2
  9
$LUPREC
 70
     4
  9
$SKETCHINC
 40
0.1
  9
$FILLETRAD
 40
0.0
  9
$AUNITS
 70
     0
  9
$AUPREC
 70
     0
  9
$MENU
  1
.
  9
$ELEVATION
 40
0.0
  9
$PELEVATION
 40
0.0
  9
$THICKNESS
 40
0.0
  9
$LIMCHECK
 70
     0
  9
$BLIPMODE
 70
     0
  9
$CHAMFERA
 40
0.0
  9
$CHAMFERB
 40
0.0
  9
$SKPOLY
 70
     0
  9
$TDCREATE
 40
2458172.5207663891
  9
$TDUPDATE
 40
2458423.699253195
  9
$TDINDWG
 40
0.0832449306
  9
$TDUSRTIMER
 40
0.0832449306
  9
$USRTIMER
 70
     1
  9
$ANGBASE
 50
0.0
  9
$ANGDIR
 70
     0
  9
$PDMODE
 70
     0
  9
$PDSIZE
 40
0.3125
  9
$PLINEWID
 40
0.0
  9
$COORDS
 70
     1
  9
$SPLFRAME
 70
     0
  9
$SPLINETYPE
 70
     6
  9
$SPLINESEGS
 70
     8
  9
$ATTDIA
 70
     1
  9
$ATTREQ
 70
     1
  9
$HANDLING
 70
     1
  9
$HANDSEED
  5
2EA1
  9
$SURFTAB1
 70
     6
  9
$SURFTAB2
 70
     6
  9
$SURFTYPE
 70
     6
  9
$SURFU
 70
     6
  9
$SURFV
 70
     6
  9
$UCSNAME
  2

  9
$UCSORG
 10
0.0
 20
0.0
 30
0.0
  9
$UCSXDIR
 10
1.0
 20
0.0
 30
0.0
  9
$UCSYDIR
 10
0.0
 20
1.0
 30
0.0
  9
$PUCSNAME
  2

  9
$PUCSORG
 10
0.0
 20
0.0
 30
0.0
  9
$PUCSXDIR
 10
1.0
 20
0.0
 30
0.0
  9
$PUCSYDIR
 10
0.0
 20
1.0
 30
0.0
  9
$USERI1
 70
     0
  9
$USERI2
 70
     0
  9
$USERI3
 70
     0
  9
$USERI4
 70
     0
  9
$USERI5
 70
     0
  9
$USERR1
 40
0.0
  9
$USERR2
 40
0.0
  9
$USERR3
 40
0.0
  9
$USERR4
 40
0.0
  9
$USERR5
 40
0.0
  9
$WORLDVIEW
 70
     1
  9
$SHADEDGE
 70
     3
  9
$SHADEDIF
 70
    70
  9
$TILEMODE
 70
     1
  9
$MAXACTVP
 70
    64
  9
$PLIMCHECK
 70
     0
  9
$PEXTMIN
 10
1.0000000000000000E+020
 20
1.0000000000000000E+020
 30
1.0000000000000000E+020
  9
$PEXTMAX
 10
-1.0000000000000000E+020
 20
-1.0000000000000000E+020
 30
-1.0000000000000000E+020
  9
$PLIMMIN
 10
0.0
 20
0.0
  9
$PLIMMAX
 10
12.0
 20
9.0
  9
$UNITMODE
 70
     0
  9
$VISRETAIN
 70
     1
  9
$PLINEGEN
 70
     0
  9
$PSLTSCALE
 70
     1
  0
ENDSEC
  0
SECTION
  2
TABLES
  0
TABLE
  2
VPORT
 70
     1
  0
VPORT
  2
*ACTIVE
 70
     0
 10
0.0
 20
0.0
 11
1.0
 21
1.0
 12
0.0
 22
0.0
 13
0.0
 23
0.0
 14
1.0
 24
1.0
 15
0.0
 25
0.0
 16
0.0
 26
0.0
 36
15.02749761372038
 17
278.09122700945932
 27
31.723499831683771
 37
0.0
 40
5.247964994183647
 41
2.1470588235294108
 42
50.0
 43
0.0
 44
0.0
 50
0.0
 51
0.0
 71
     0
 72
   100
 73
     1
 74
     1
 75
     0
 76
     0
 77
     0
 78
     0
  0
ENDTAB
  0
TABLE
  2
LTYPE
 70
     2
  0
LTYPE
  2
CONTINUOUS
 70
     0
  3
Solid line
 72
    65
 73
     0
 40
0.0
  0
LTYPE
  2
PHANTOM2
 70
     0
  3
___ _ _ ___ _ _ ___ _ _ ___ _ _
 72
    65
 73
     6
 40
1.25
 49
0.625
 49
-0.125
 49
0.125
 49
-0.125
 49
0.125
 49
-0.125
  0
ENDTAB
  0
TABLE
  2
LAYER
 70
     2
  0
LAYER
  2
0
 70
     0
 62
   255
  6
CONTINUOUS
  0
LAYER
  2
DEFPOINTS
 70
     0
 62
     7
  6
CONTINUOUS
  0
ENDTAB
  0
TABLE
  2
STYLE
 70
     1
  0
STYLE
  2
STANDARD
 70
     0
 40
0.0
 41
0.8
 50
0.0
 71
     0
 42
0.2
  3
txt
  4

  0
ENDTAB
  0
TABLE
  2
VIEW
 70
     0
  0
ENDTAB
  0
TABLE
  2
UCS
 70
     0
  0
ENDTAB
  0
TABLE
  2
APPID
 70
    10
  0
APPID
  2
ACAD
 70
     0
  0
APPID
  2
ACAD_MLEADERVER
 70
     0
  0
APPID
  2
ACAD_EXEMPT_FROM_CAD_STANDARDS
 70
     0
  0
APPID
  2
ACAD_DSTYLE_DIMJAG
 70
     0
  0
APPID
  2
ACAD_DSTYLE_DIMTALN
 70
     0
  0
APPID
  2
ACAD_NAV_VCDISPLAY
 70
     0
  0
APPID
  2
ACAECLAYERSTANDARD
 70
     0
  0
APPID
  2
ACCMTRANSPARENCY
 70
     0
  0
APPID
  2
DCO15
 70
     0
  0
APPID
  2
ACDBATTR
 70
     0
  0
ENDTAB
  0
TABLE
  2
DIMSTYLE
 70
     1
  0
DIMSTYLE
  2
STANDARD
 70
     0
  3

  4

  5

  6

  7

 40
1.0
 41
0.1875
 42
0.0625
 43
0.38
 44
0.125
 45
0.0
 46
0.0
 47
0.01
 48
0.01
140
0.15625
141
0.09
142
0.0
143
25.399999999999999
144
1.0
145
0.0
146
1.0
147
0.09
 71
     1
 72
     0
 73
     1
 74
     1
 75
     0
 76
     0
 77
     0
 78
     4
170
     0
171
     2
172
     0
173
     0
174
     0
175
     0
176
     0
177
     0
178
     0
  0
ENDTAB
  0
ENDSEC
  0
SECTION
  2
BLOCKS
  0
BLOCK
  8
0
  2
$MODEL_SPACE
 70
     0
 10
0.0
 20
0.0
 30
0.0
  3
$MODEL_SPACE
  1

  0
ENDBLK
  5
21
  8
0
  0
BLOCK
 67
     1
  8
0
  2
$PAPER_SPACE
 70
     0
 10
0.0
 20
0.0
 30
0.0
  3
$PAPER_SPACE
  1

  0
ENDBLK
  5
1D
 67
     1
  8
0
  0
ENDSEC
  0
SECTION
  2
ENTITIES
  0
ATTDEF
  5
829
  8
DEFPOINTS
 10
277.6780982973138
 20
29.475382600936101
 30
0.0
 40
0.001
  1
K-16027-4
  3

  2
MODELNUMBER
 70
     0
1001
ACDBATTR
1070
     0
1070
     1
  0
ATTDEF
  5
82A
  8
DEFPOINTS
 10
277.6780982973138
 20
29.473715934269428
 30
0.0
 40
0.001
  1
JULY
  3

  2
TRADENAME
 70
     0
1001
ACDBATTR
1070
     0
1070
     1
  0
ATTDEF
  5
82B
  8
DEFPOINTS
 10
277.6780982973138
 20
29.47204926760277
 30
0.0
 40
0.001
  1
BATHROOM SINK FAUCET
  3

  2
PRODUCT
 70
     0
1001
ACDBATTR
1070
     0
1070
     1
  0
ATTDEF
  5
82C
  8
DEFPOINTS
 10
277.6780982973138
 20
29.470382600936102
 30
0.0
 40
0.001
  1
METAL
  3

  2
MATERIAL
 70
     0
1001
ACDBATTR
1070
     0
1070
     1
  0
LINE
  5
2AE5
  8
0
 10
277.46285586422528
 20
31.487707605904621
 30
0.0
 11
277.45171344182
 21
31.48047798266974
 31
0.0
  0
LINE
  5
2AE6
  8
0
 10
277.4926533916593
 20
31.47234996550463
 30
0.0
 11
277.50518043448039
 21
31.480477982590308
 31
0.0
  0
LINE
  5
2AE7
  8
0
 10
276.74661342205928
 20
33.882770637204622
 30
0.0
 11
276.74661342205928
 21
32.583145907904623
 31
0.0
  0
LINE
  5
2AE8
  8
0
 10
276.74661342205928
 20
32.400669760604622
 30
0.0
 11
276.74661342205928
 21
29.47718973110463
 31
0.0
  0
LINE
  5
2AE9
  8
0
 10
278.70245271525931
 20
30.514863892904621
 30
0.0
 11
278.61935942595932
 21
30.351784130247928
 31
0.0
  0
LINE
  5
2AEA
  8
0
 10
277.21151986815931
 20
31.645281491404621
 30
0.0
 11
277.21151986815931
 21
31.447894130304618
 31
0.0
  0
LINE
  5
2AEB
  8
0
 10
277.31490963195932
 20
31.42545920130463
 30
0.0
 11
277.31490963195932
 21
31.474251498304628
 31
0.0
  0
LINE
  5
2AEC
  8
0
 10
277.4964099809593
 20
31.725069583204618
 30
0.0
 11
277.4964099809593
 21
31.610098785304629
 31
0.0
  0
LINE
  5
2AED
  8
0
 10
276.74661342205928
 20
29.47718973110463
 30
0.0
 11
278.61935942595932
 21
29.47718973110463
 31
0.0
  0
LINE
  5
2AEE
  8
0
 10
277.45171344182
 20
31.48047798266974
 30
0.0
 11
277.46424048465929
 21
31.47234996550463
 31
0.0
  0
LINE
  5
2AEF
  8
0
 10
277.50518043448039
 20
31.480477982590308
 30
0.0
 11
277.49403801199207
 21
31.487707605904621
 31
0.0
  0
LINE
  5
2AF0
  8
0
 10
277.49371706421039
 20
31.487915848911779
 30
0.0
 11
277.49370891225931
 21
31.48792113820463
 31
0.0
  0
LINE
  5
2AF1
  8
0
 10
277.59680357045931
 20
31.257873959704622
 30
0.0
 11
277.76916927755929
 21
31.257873959704622
 31
0.0
  0
LINE
  5
2AF2
  8
0
 10
277.46424048465929
 20
31.47234996550463
 30
0.0
 11
277.4926533916593
 21
31.47234996550463
 31
0.0
  0
LINE
  5
2AF3
  8
0
 10
277.49403801199219
 20
31.487707605904621
 30
0.0
 11
277.46285586422528
 21
31.487707605904621
 31
0.0
  0
LINE
  5
2AF4
  8
0
 10
277.76916927741689
 20
31.58228326960462
 30
0.0
 11
277.59680357045931
 21
31.58228326960462
 31
0.0
  0
LINE
  5
2AF5
  8
0
 10
277.8695628670593
 20
31.725069583204618
 30
0.0
 11
277.4964099809593
 21
31.725069583204618
 31
0.0
  0
LINE
  5
2AF6
  8
0
 10
276.78597758265931
 20
32.439711266204618
 30
0.0
 11
276.91670616096832
 21
32.439710660304627
 31
0.0
  0
LINE
  5
2AF7
  8
0
 10
276.7887870878593
 20
32.542884368904623
 30
0.0
 11
278.57718576015873
 21
32.542884368904623
 31
0.0
  0
ARC
  5
2AF8
  8
0
 10
277.68522090246148
 20
26.490900363655928
 30
0.0
 40
7.4857170322702062
 50
90.017102728579715
 51
96.935715974852272
  0
ARC
  5
2AF9
  8
0
 10
277.01374282579758
 20
32.403895454172492
 30
0.0
 40
0.0392335755704503
 50
95.840145865616066
 51
179.83666811692731
  0
ARC
  5
2AFA
  8
0
 10
277.04018589526771
 20
33.882180449938957
 30
0.0
 40
0.0399211905804179
 50
96.577554673716946
 51
194.3744273851232
  0
ARC
  5
2AFB
  8
0
 10
277.73813797325931
 20
32.439805675804621
 30
0.0
 40
0.8661417323
 50
173.16508527268661
 51
180.00627162281231
  0
CIRCLE
  5
2AFC
  8
0
 10
277.68301986815931
 20
33.164931613004633
 30
0.0
 40
0.1377952756
  0
ARC
  5
2AFD
  8
0
 10
278.98308469135929
 20
30.371874759104621
 30
0.0
 40
0.4527559055
 50
0.0
 51
143.45201455559561
  0
ARC
  5
2AFE
  8
0
 10
278.98308469135929
 20
30.371874759104621
 30
0.0
 40
0.3149606299
 50
0.0
 51
152.99999999999969
  0
ARC
  5
2AFF
  8
0
 10
279.36694295905932
 20
30.371874759104621
 30
0.0
 40
0.0688976378
 50
180.0
 51
0.0
  0
ARC
  5
2B00
  8
0
 10
276.7858729800414
 20
32.400451239424839
 30
0.0
 40
0.0392601661287482
 50
89.847344109497314
 51
179.68109136515889
  0
ARC
  5
2B01
  8
0
 10
276.93901470842923
 20
33.142139065264303
 30
0.0
 40
0.7027825662208845
 50
268.18094467400709
 51
275.77667564743109
  0
ARC
  5
2B02
  8
0
 10
277.9009889112379
 20
21.52594937638899
 30
0.0
 40
10.95329498181669
 50
93.70707461441107
 51
94.667153032086802
  0
ARC
  5
2B03
  8
0
 10
277.69722964956429
 20
27.17592353055073
 30
0.0
 40
5.3044418408037277
 50
92.101076993576811
 51
95.456851540752652
  0
ARC
  5
2B04
  8
0
 10
277.68354168620988
 20
27.44436935944022
 30
0.0
 40
5.0356761136174741
 50
90.006317757529118
 51
92.057421218569687
  0
ARC
  5
2B05
  8
0
 10
277.39818952642742
 20
31.429474898913949
 30
0.0
 40
0.0833766553542644
 50
182.7606236932464
 51
228.0782807639965
  0
ARC
  5
2B06
  8
0
 10
277.54367200337708
 20
31.609993019236239
 30
0.0
 40
0.3151340986160696
 50
230.3259600051947
 51
258.13901751619193
  0
ARC
  5
2B07
  8
0
 10
277.65813700140279
 20
32.007538552844963
 30
0.0
 40
0.7283495533087137
 50
255.7539507353292
 51
263.6119288638584
  0
ARC
  5
2B08
  8
0
 10
277.68238693732468
 20
32.204891384013429
 30
0.0
 40
0.9271776116958088
 50
263.47959317871988
 51
270.0370458247296
  0
ARC
  5
2B09
  8
0
 10
277.3657781860914
 20
31.414522966764672
 30
0.0
 40
0.078454491773315
 50
130.4197932393941
 51
175.93927880950309
  0
ARC
  5
2B0A
  8
0
 10
277.37005367958909
 20
31.426424032870429
 30
0.0
 40
0.0827765994143976
 50
184.39644415084081
 51
237.79083334576501
  0
ARC
  5
2B0B
  8
0
 10
277.53515858891211
 20
31.65421077358706
 30
0.0
 40
0.363971115930274
 50
234.9114478658723
 51
256.59335071046229
  0
ARC
  5
2B0C
  8
0
 10
277.66070232850137
 20
32.098643397890633
 30
0.0
 40
0.8256215737649929
 50
255.2694099970341
 51
265.4002259700145
  0
ARC
  5
2B0D
  8
0
 10
277.68259884002498
 20
32.306276693058606
 30
0.0
 40
1.034355057945469
 50
265.11357631062589
 51
270.02146934639052
  0
ARC
  5
2B0E
  8
0
 10
277.51408320171282
 20
31.23230923916535
 30
0.0
 40
0.313378633039575
 50
104.3346433210943
 51
129.46215755488171
  0
ARC
  5
2B0F
  8
0
 10
277.64909456833328
 20
30.802964036640041
 30
0.0
 40
0.7631770979018532
 50
96.226400223085875
 51
106.1749491925566
  0
ARC
  5
2B10
  8
0
 10
277.68046368134162
 20
30.568572066412951
 30
0.0
 40
0.9996052353627991
 50
92.117150486392859
 51
96.556700589841554
  0
ARC
  5
2B11
  8
0
 10
277.6829882143029
 20
30.516969138400579
 30
0.0
 40
1.051266382356395
 50
90.000097573999795
 51
92.150748102515763
  0
ARC
  5
2B12
  8
0
 10
277.39060770303769
 20
31.419433993126461
 30
0.0
 40
0.0759374815656952
 50
126.2120504474447
 51
175.44912148620989
  0
ARC
  5
2B13
  8
0
 10
277.52018034680088
 20
31.25680158317142
 30
0.0
 40
0.2838297534844938
 50
106.1816808397533
 51
127.9210371077105
  0
ARC
  5
2B14
  8
0
 10
277.65612449120903
 20
30.835537985183521
 30
0.0
 40
0.7264087470639496
 50
94.670260827157307
 51
107.219656977254
  0
ARC
  5
2B15
  8
0
 10
277.68278741270228
 20
30.597913619726832
 30
0.0
 40
0.9654421228358158
 50
89.988189340637732
 51
95.099147501785353
  0
ARC
  5
2B16
  8
0
 10
277.68064802660359
 20
32.134391888316152
 30
0.0
 40
0.8525848667226456
 50
260.02349404179279
 51
270.15714619784762
  0
ARC
  5
2B17
  8
0
 10
277.59331744977987
 20
31.704336922190489
 30
0.0
 40
0.4140631673649063
 50
239.03403289517311
 51
261.61575970298532
  0
ARC
  5
2B18
  8
0
 10
277.41428130828911
 20
31.415811268412899
 30
0.0
 40
0.0747127386836986
 50
175.06166657086371
 51
242.92042199489521
  0
ARC
  5
2B19
  8
0
 10
277.42537640751738
 20
31.394308977536411
 30
0.0
 40
0.0899764679749171
 50
122.0229258469154
 51
161.91322584765601
  0
ARC
  5
2B1A
  8
0
 10
277.56377612645463
 20
31.184364100755449
 30
0.0
 40
0.3414159183786679
 50
102.6418521939908
 51
123.0324370572424
  0
ARC
  5
2B1B
  8
0
 10
277.66406144876549
 20
30.813912000199799
 30
0.0
 40
0.7250294233864977
 50
94.985097241205054
 51
103.9678942207602
  0
ARC
  5
2B1C
  8
0
 10
277.6827767268241
 20
30.637244908897369
 30
0.0
 40
0.9026605421626973
 50
89.986689610065625
 51
95.194100289694305
  0
ARC
  5
2B1D
  8
0
 10
277.4450109678898
 20
31.463292278496411
 30
0.0
 40
0.1128926441521958
 50
201.3223815234993
 51
247.4398311937193
  0
ARC
  5
2B1E
  8
0
 10
277.61606025893201
 20
31.753037807453509
 30
0.0
 40
0.4485376977428072
 50
241.45096830326409
 51
258.34560431149401
  0
ARC
  5
2B1F
  8
0
 10
277.6760558473394
 20
32.008686412890292
 30
0.0
 40
0.7110710105556498
 50
257.77223523816008
 51
270.55845207342122
  0
ARC
  5
2B20
  8
0
 10
277.67878221820467
 20
32.05281995913198
 30
0.0
 40
0.7479109746508198
 50
257.2244748423866
 51
270.32207645773991
  0
ARC
  5
2B21
  8
0
 10
277.57149764431159
 20
31.619545466082609
 30
0.0
 40
0.301767480230342
 50
233.9111051676885
 51
258.89892579127269
  0
ARC
  5
2B22
  8
0
 10
277.44902214967033
 20
31.443326172650139
 30
0.0
 40
0.0873544972655148
 50
200.55452716890909
 51
230.74331895811039
  0
ARC
  5
2B23
  8
0
 10
277.42779305445418
 20
31.413302604508061
 30
0.0
 40
0.0605677322142941
 50
128.22778677183999
 51
180.61156453165981
  0
ARC
  5
2B24
  8
0
 10
277.55442824923563
 20
31.254239585265289
 30
0.0
 40
0.263883403831668
 50
103.5333360318122
 51
128.4563407548608
  0
ARC
  5
2B25
  8
0
 10
277.66306182755108
 20
30.886009198946152
 30
0.0
 40
0.6476030029520117
 50
94.019258611567736
 51
105.2541644609629
  0
ARC
  5
2B26
  8
0
 10
277.68164132476733
 20
30.767061429026189
 30
0.0
 40
0.76762822060981
 50
89.899601725203297
 51
94.780350952720283
  0
ARC
  5
2B27
  8
0
 10
277.33747304847083
 20
31.455362320592538
 30
0.0
 40
0.1261743931895559
 50
183.3932877782745
 51
242.49580340738709
  0
ARC
  5
2B28
  8
0
 10
277.52352530435428
 20
31.725162067629469
 30
0.0
 40
0.4532086947569097
 50
237.3781328342312
 51
256.9413360749125
  0
ARC
  5
2B29
  8
0
 10
277.62070950992501
 20
32.031694391486162
 30
0.0
 40
0.7741896115192378
 50
255.0604395360981
 51
268.23050170459192
  0
ARC
  5
2B2A
  8
0
 10
277.68057544106631
 20
30.556636855330961
 30
0.0
 40
1.182857538447764
 50
89.883215655075588
 51
98.957128531703418
  0
ARC
  5
2B2B
  8
0
 10
277.52637949383819
 20
31.620648407435379
 30
0.0
 40
0.0317720982829561
 50
199.39266999074459
 51
267.5227320472336
  0
ARC
  5
2B2C
  8
0
 10
277.58710972517088
 20
31.869682538540602
 30
0.0
 40
0.2875627069426261
 50
257.52784454675123
 51
271.93182783901727
  0
ARC
  5
2B2D
  8
0
 10
277.25840059763038
 20
31.605245730644121
 30
0.0
 40
0.061649533132192
 50
139.50294328715469
 51
220.4970567127948
  0
ARC
  5
2B2E
  8
0
 10
277.39675930177788
 20
31.464972859259561
 30
0.0
 40
0.2585050301123498
 50
100.18913137240691
 51
135.7728039296023
  0
ARC
  5
2B2F
  8
0
 10
277.60675673050622
 20
30.577847742963829
 30
0.0
 40
1.1698461371391491
 50
94.015416366115247
 51
102.62672203879271
  0
ARC
  5
2B30
  8
0
 10
277.68441768037837
 20
29.7495045076808
 30
0.0
 40
2.0016888419720131
 50
90.040967884028788
 51
94.572605132607777
  0
ARC
  5
2B31
  8
0
 10
286.6300875449578
 20
32.312605559764421
 30
0.0
 40
9.6560107396724852
 50
179.45764228136551
 51
182.01200543793539
  0
ARC
  5
2B32
  8
0
 10
277.75720242976968
 20
31.96405954310007
 30
0.0
 40
0.7772310989163939
 50
179.29715118029659
 51
202.51277201321889
  0
ARC
  5
2B33
  8
0
 10
277.27831736585802
 20
31.80387668086189
 30
0.0
 40
0.2757868751443087
 50
209.88425276935871
 51
255.9831670132412
  0
ARC
  5
2B34
  8
0
 10
276.78601240761373
 20
33.882725324614157
 30
0.0
 40
0.039399011611287
 50
96.901389190175351
 51
179.93410441891439
  0
ARC
  5
2B35
  8
0
 10
276.78929187402088
 20
32.585632200469419
 30
0.0
 40
0.0427508118351012
 50
183.33407697662699
 51
269.32345638656722
  0
ARC
  5
2B36
  8
0
 10
277.14877563993502
 20
33.915937157013488
 30
0.0
 40
0.1535991418874685
 50
196.51670275324639
 51
252.94980917586679
  0
ARC
  5
2B37
  8
0
 10
277.35609574975769
 20
34.552502660656387
 30
0.0
 40
0.8230558795565602
 50
252.14497434246999
 51
267.71120172116929
  0
ARC
  5
2B38
  8
0
 10
277.5797822223887
 20
37.329256555069733
 30
0.0
 40
3.6082855541503411
 50
265.92271387950188
 51
269.91839084494922
  0
ARC
  5
2B39
  8
0
 10
277.59588866962349
 20
19.967790336555439
 30
0.0
 40
13.753200734862221
 50
89.63714867651646
 51
90.088510376079498
  0
LINE
  5
2B3A
  8
0
 10
276.7812781865594
 20
33.921838867881881
 30
0.0
 11
278.5846946614592
 21
33.921838867881881
 31
0.0
  0
ARC
  5
2B3B
  8
0
 10
277.33444402269203
 20
31.427332411641821
 30
0.0
 40
0.124631986431853
 50
116.3925249043636
 51
170.50395834665159
  0
ARC
  5
2B3C
  8
0
 10
277.52133714475099
 20
31.125022962470439
 30
0.0
 40
0.4796477674905816
 50
105.3014624468255
 51
120.34134523239339
  0
ARC
  5
2B3D
  8
0
 10
277.63106786607898
 20
30.758336012585801
 30
0.0
 40
0.8623413286374082
 50
98.983719650497846
 51
105.9043035596324
  0
LINE
  5
2B3E
  8
0
 10
277.46146083929187
 20
31.465585169304632
 30
0.0
 11
277.4503184168866
 21
31.45835554606974
 31
0.0
  0
LINE
  5
2B3F
  8
0
 10
277.4912583667259
 20
31.45022752890462
 30
0.0
 11
277.50378540954699
 21
31.458355545990312
 31
0.0
  0
LINE
  5
2B40
  8
0
 10
277.4503184168866
 20
31.45835554606974
 30
0.0
 11
277.46284545972588
 21
31.45022752890462
 31
0.0
  0
LINE
  5
2B41
  8
0
 10
277.50378540954699
 20
31.458355545990312
 30
0.0
 11
277.49264298705879
 21
31.465585169304632
 31
0.0
  0
LINE
  5
2B42
  8
0
 10
277.46284545972588
 20
31.45022752890462
 30
0.0
 11
277.4912583667259
 21
31.45022752890462
 31
0.0
  0
LINE
  5
2B43
  8
0
 10
277.49264298705879
 20
31.465585169304632
 30
0.0
 11
277.46146083929187
 21
31.465585169304632
 31
0.0
  0
LINE
  5
2B44
  8
0
 10
277.46285586422528
 20
31.443462732704631
 30
0.0
 11
277.45171344182
 21
31.43623310946975
 31
0.0
  0
LINE
  5
2B45
  8
0
 10
277.4926533916593
 20
31.42810509230463
 30
0.0
 11
277.50518043448039
 21
31.436233109390312
 31
0.0
  0
LINE
  5
2B46
  8
0
 10
277.45171344182
 20
31.43623310946975
 30
0.0
 11
277.46424048465929
 21
31.42810509230463
 31
0.0
  0
LINE
  5
2B47
  8
0
 10
277.50518043448039
 20
31.436233109390312
 30
0.0
 11
277.49403801199207
 21
31.443462732704631
 31
0.0
  0
LINE
  5
2B48
  8
0
 10
277.46424048465929
 20
31.42810509230463
 30
0.0
 11
277.4926533916593
 21
31.42810509230463
 31
0.0
  0
LINE
  5
2B49
  8
0
 10
277.49403801199219
 20
31.443462732704631
 30
0.0
 11
277.46285586422528
 21
31.443462732704631
 31
0.0
  0
LINE
  5
2B4A
  8
0
 10
277.46285586422528
 20
31.421340296104621
 30
0.0
 11
277.45171344182
 21
31.414110672869739
 31
0.0
  0
LINE
  5
2B4B
  8
0
 10
277.4926533916593
 20
31.405982655704619
 30
0.0
 11
277.50518043448039
 21
31.414110672790311
 31
0.0
  0
LINE
  5
2B4C
  8
0
 10
277.45171344182
 20
31.414110672869739
 30
0.0
 11
277.46424048465929
 21
31.405982655704619
 31
0.0
  0
LINE
  5
2B4D
  8
0
 10
277.50518043448039
 20
31.414110672790311
 30
0.0
 11
277.49403801199207
 21
31.421340296104621
 31
0.0
  0
LINE
  5
2B4E
  8
0
 10
277.46424048465929
 20
31.405982655704619
 30
0.0
 11
277.4926533916593
 21
31.405982655704619
 31
0.0
  0
LINE
  5
2B4F
  8
0
 10
277.49403801199219
 20
31.421340296104621
 30
0.0
 11
277.46285586422528
 21
31.421340296104621
 31
0.0
  0
LINE
  5
2B50
  8
0
 10
277.46285586422528
 20
31.399217859504631
 30
0.0
 11
277.45171344182
 21
31.391988236269739
 31
0.0
  0
LINE
  5
2B51
  8
0
 10
277.4926533916593
 20
31.383860219104619
 30
0.0
 11
277.50518043448039
 21
31.391988236190311
 31
0.0
  0
LINE
  5
2B52
  8
0
 10
277.45171344182
 20
31.391988236269739
 30
0.0
 11
277.46424048465929
 21
31.383860219104619
 31
0.0
  0
LINE
  5
2B53
  8
0
 10
277.50518043448039
 20
31.391988236190311
 30
0.0
 11
277.49403801199207
 21
31.399217859504631
 31
0.0
  0
LINE
  5
2B54
  8
0
 10
277.46424048465929
 20
31.383860219104619
 30
0.0
 11
277.4926533916593
 21
31.383860219104619
 31
0.0
  0
LINE
  5
2B55
  8
0
 10
277.49403801199219
 20
31.399217859504631
 30
0.0
 11
277.46285586422528
 21
31.399217859504631
 31
0.0
  0
LINE
  5
2B56
  8
0
 10
277.46285586422528
 20
31.377095422804619
 30
0.0
 11
277.45171344182
 21
31.369865799569752
 31
0.0
  0
LINE
  5
2B57
  8
0
 10
277.4926533916593
 20
31.361737782404632
 30
0.0
 11
277.50518043448039
 21
31.369865799490309
 31
0.0
  0
LINE
  5
2B58
  8
0
 10
277.45171344182
 20
31.369865799569752
 30
0.0
 11
277.46424048465929
 21
31.361737782404632
 31
0.0
  0
LINE
  5
2B59
  8
0
 10
277.50518043448039
 20
31.369865799490309
 30
0.0
 11
277.49403801199207
 21
31.377095422804619
 31
0.0
  0
LINE
  5
2B5A
  8
0
 10
277.46424048465929
 20
31.361737782404632
 30
0.0
 11
277.4926533916593
 21
31.361737782404632
 31
0.0
  0
LINE
  5
2B5B
  8
0
 10
277.49403801199219
 20
31.377095422804619
 30
0.0
 11
277.46285586422528
 21
31.377095422804619
 31
0.0
  0
LINE
  5
2B5C
  8
0
 10
277.46285586422528
 20
31.354972986204629
 30
0.0
 11
277.45171344182
 21
31.347743362969741
 31
0.0
  0
LINE
  5
2B5D
  8
0
 10
277.4926533916593
 20
31.339615345804631
 30
0.0
 11
277.50518043448039
 21
31.347743362890309
 31
0.0
  0
LINE
  5
2B5E
  8
0
 10
277.45171344182
 20
31.347743362969741
 30
0.0
 11
277.46424048465929
 21
31.339615345804631
 31
0.0
  0
LINE
  5
2B5F
  8
0
 10
277.50518043448039
 20
31.347743362890309
 30
0.0
 11
277.49403801199207
 21
31.354972986204629
 31
0.0
  0
LINE
  5
2B60
  8
0
 10
277.46424048465929
 20
31.339615345804631
 30
0.0
 11
277.4926533916593
 21
31.339615345804631
 31
0.0
  0
LINE
  5
2B61
  8
0
 10
277.49403801199219
 20
31.354972986204629
 30
0.0
 11
277.46285586422528
 21
31.354972986204629
 31
0.0
  0
LINE
  5
2B62
  8
0
 10
277.51260407179188
 20
31.498768824204632
 30
0.0
 11
277.50146164938661
 21
31.491539200969751
 31
0.0
  0
LINE
  5
2B63
  8
0
 10
277.54240159922591
 20
31.48341118380463
 30
0.0
 11
277.554928642047
 21
31.491539200890308
 31
0.0
  0
LINE
  5
2B64
  8
0
 10
277.50146164938661
 20
31.491539200969751
 30
0.0
 11
277.51398869222589
 21
31.48341118380463
 31
0.0
  0
LINE
  5
2B65
  8
0
 10
277.554928642047
 20
31.491539200890308
 30
0.0
 11
277.5437862195588
 21
31.498768824204632
 31
0.0
  0
LINE
  5
2B66
  8
0
 10
277.51398869222589
 20
31.48341118380463
 30
0.0
 11
277.54240159922591
 21
31.48341118380463
 31
0.0
  0
LINE
  5
2B67
  8
0
 10
277.5437862195588
 20
31.498768824204632
 30
0.0
 11
277.51260407179188
 21
31.498768824204632
 31
0.0
  0
LINE
  5
2B68
  8
0
 10
277.51260407174192
 20
31.476646387604621
 30
0.0
 11
277.5014616493367
 21
31.46941676436974
 31
0.0
  0
LINE
  5
2B69
  8
0
 10
277.542401599176
 20
31.46128874720462
 30
0.0
 11
277.55492864199698
 21
31.469416764290301
 31
0.0
  0
LINE
  5
2B6A
  8
0
 10
277.5014616493367
 20
31.46941676436974
 30
0.0
 11
277.51398869217587
 21
31.46128874720462
 31
0.0
  0
LINE
  5
2B6B
  8
0
 10
277.55492864199698
 20
31.469416764290301
 30
0.0
 11
277.54378621950877
 21
31.476646387604621
 31
0.0
  0
LINE
  5
2B6C
  8
0
 10
277.51398869217587
 20
31.46128874720462
 30
0.0
 11
277.542401599176
 21
31.46128874720462
 31
0.0
  0
LINE
  5
2B6D
  8
0
 10
277.54378621950877
 20
31.476646387604621
 30
0.0
 11
277.51260407174192
 21
31.476646387604621
 31
0.0
  0
LINE
  5
2B6E
  8
0
 10
277.51260407174192
 20
31.454523951004631
 30
0.0
 11
277.5014616493367
 21
31.44729432776975
 31
0.0
  0
LINE
  5
2B6F
  8
0
 10
277.542401599176
 20
31.43916631060462
 30
0.0
 11
277.55492864199698
 21
31.447294327690312
 31
0.0
  0
LINE
  5
2B70
  8
0
 10
277.5014616493367
 20
31.44729432776975
 30
0.0
 11
277.51398869217587
 21
31.43916631060462
 31
0.0
  0
LINE
  5
2B71
  8
0
 10
277.55492864199698
 20
31.447294327690312
 30
0.0
 11
277.54378621950877
 21
31.454523951004631
 31
0.0
  0
LINE
  5
2B72
  8
0
 10
277.51398869217587
 20
31.43916631060462
 30
0.0
 11
277.542401599176
 21
31.43916631060462
 31
0.0
  0
LINE
  5
2B73
  8
0
 10
277.54378621950877
 20
31.454523951004631
 30
0.0
 11
277.51260407174192
 21
31.454523951004631
 31
0.0
  0
LINE
  5
2B74
  8
0
 10
277.51260407184191
 20
31.432401514404621
 30
0.0
 11
277.50146164943658
 21
31.42517189116974
 31
0.0
  0
LINE
  5
2B75
  8
0
 10
277.54240159927588
 20
31.41704387400463
 30
0.0
 11
277.55492864209702
 21
31.425171891090312
 31
0.0
  0
LINE
  5
2B76
  8
0
 10
277.50146164943658
 20
31.42517189116974
 30
0.0
 11
277.51398869227592
 21
31.41704387400463
 31
0.0
  0
LINE
  5
2B77
  8
0
 10
277.55492864209702
 20
31.425171891090312
 30
0.0
 11
277.54378621960882
 21
31.432401514404621
 31
0.0
  0
LINE
  5
2B78
  8
0
 10
277.51398869227592
 20
31.41704387400463
 30
0.0
 11
277.54240159927588
 21
31.41704387400463
 31
0.0
  0
LINE
  5
2B79
  8
0
 10
277.54378621960882
 20
31.432401514404621
 30
0.0
 11
277.51260407184191
 21
31.432401514404621
 31
0.0
  0
LINE
  5
2B7A
  8
0
 10
277.51260407184191
 20
31.410279077804631
 30
0.0
 11
277.50146164943658
 21
31.403049454569739
 31
0.0
  0
LINE
  5
2B7B
  8
0
 10
277.54240159927588
 20
31.394921437404619
 30
0.0
 11
277.55492864209702
 21
31.403049454490311
 31
0.0
  0
LINE
  5
2B7C
  8
0
 10
277.50146164943658
 20
31.403049454569739
 30
0.0
 11
277.51398869227592
 21
31.394921437404619
 31
0.0
  0
LINE
  5
2B7D
  8
0
 10
277.55492864209702
 20
31.403049454490311
 30
0.0
 11
277.54378621960882
 21
31.410279077804631
 31
0.0
  0
LINE
  5
2B7E
  8
0
 10
277.51398869227592
 20
31.394921437404619
 30
0.0
 11
277.54240159927588
 21
31.394921437404619
 31
0.0
  0
LINE
  5
2B7F
  8
0
 10
277.54378621960882
 20
31.410279077804631
 30
0.0
 11
277.51260407184191
 21
31.410279077804631
 31
0.0
  0
LINE
  5
2B80
  8
0
 10
277.51260407179188
 20
31.388156641204631
 30
0.0
 11
277.50146164938661
 21
31.38092701796975
 31
0.0
  0
LINE
  5
2B81
  8
0
 10
277.54240159922591
 20
31.372799000804619
 30
0.0
 11
277.554928642047
 21
31.380927017890311
 31
0.0
  0
LINE
  5
2B82
  8
0
 10
277.50146164938661
 20
31.38092701796975
 30
0.0
 11
277.51398869222589
 21
31.372799000804619
 31
0.0
  0
LINE
  5
2B83
  8
0
 10
277.554928642047
 20
31.380927017890311
 30
0.0
 11
277.5437862195588
 21
31.388156641204631
 31
0.0
  0
LINE
  5
2B84
  8
0
 10
277.51398869222589
 20
31.372799000804619
 30
0.0
 11
277.54240159922591
 21
31.372799000804619
 31
0.0
  0
LINE
  5
2B85
  8
0
 10
277.5437862195588
 20
31.388156641204631
 30
0.0
 11
277.51260407179188
 21
31.388156641204631
 31
0.0
  0
LINE
  5
2B86
  8
0
 10
277.51260407179188
 20
31.366034204504619
 30
0.0
 11
277.50146164938661
 21
31.358804581269752
 31
0.0
  0
LINE
  5
2B87
  8
0
 10
277.54240159922591
 20
31.350676564104631
 30
0.0
 11
277.554928642047
 21
31.358804581190309
 31
0.0
  0
LINE
  5
2B88
  8
0
 10
277.50146164938661
 20
31.358804581269752
 30
0.0
 11
277.51398869222589
 21
31.350676564104631
 31
0.0
  0
LINE
  5
2B89
  8
0
 10
277.554928642047
 20
31.358804581190309
 30
0.0
 11
277.5437862195588
 21
31.366034204504619
 31
0.0
  0
LINE
  5
2B8A
  8
0
 10
277.51398869222589
 20
31.350676564104631
 30
0.0
 11
277.54240159922591
 21
31.350676564104631
 31
0.0
  0
LINE
  5
2B8B
  8
0
 10
277.5437862195588
 20
31.366034204504619
 30
0.0
 11
277.51260407179188
 21
31.366034204504619
 31
0.0
  0
LINE
  5
2B8C
  8
0
 10
277.51260407179188
 20
31.343911767904618
 30
0.0
 11
277.50146164938661
 21
31.336682144669741
 31
0.0
  0
LINE
  5
2B8D
  8
0
 10
277.54240159922591
 20
31.328554127504621
 30
0.0
 11
277.554928642047
 21
31.336682144590309
 31
0.0
  0
LINE
  5
2B8E
  8
0
 10
277.50146164938661
 20
31.336682144669741
 30
0.0
 11
277.51398869222589
 21
31.328554127504621
 31
0.0
  0
LINE
  5
2B8F
  8
0
 10
277.554928642047
 20
31.336682144590309
 30
0.0
 11
277.5437862195588
 21
31.343911767904618
 31
0.0
  0
LINE
  5
2B90
  8
0
 10
277.51398869222589
 20
31.328554127504621
 30
0.0
 11
277.54240159922591
 21
31.328554127504621
 31
0.0
  0
LINE
  5
2B91
  8
0
 10
277.5437862195588
 20
31.343911767904618
 30
0.0
 11
277.51260407179188
 21
31.343911767904618
 31
0.0
  0
LINE
  5
2B92
  8
0
 10
277.56374730434192
 20
31.51018838970462
 30
0.0
 11
277.55260488193659
 21
31.502958766469739
 31
0.0
  0
LINE
  5
2B93
  8
0
 10
277.59354483177589
 20
31.494830749304619
 30
0.0
 11
277.60607187459698
 21
31.502958766390311
 31
0.0
  0
LINE
  5
2B94
  8
0
 10
277.55260488193659
 20
31.502958766469739
 30
0.0
 11
277.56513192477593
 21
31.494830749304619
 31
0.0
  0
LINE
  5
2B95
  8
0
 10
277.60607187459698
 20
31.502958766390311
 30
0.0
 11
277.59492945210877
 21
31.51018838970462
 31
0.0
  0
LINE
  5
2B96
  8
0
 10
277.56513192477593
 20
31.494830749304619
 30
0.0
 11
277.59354483177589
 21
31.494830749304619
 31
0.0
  0
LINE
  5
2B97
  8
0
 10
277.59492945210877
 20
31.51018838970462
 30
0.0
 11
277.56374730434192
 21
31.51018838970462
 31
0.0
  0
LINE
  5
2B98
  8
0
 10
277.56374730429189
 20
31.465585169304632
 30
0.0
 11
277.55260488188662
 21
31.45835554606974
 31
0.0
  0
LINE
  5
2B99
  8
0
 10
277.59354483172592
 20
31.45022752890462
 30
0.0
 11
277.60607187454701
 21
31.458355545990312
 31
0.0
  0
LINE
  5
2B9A
  8
0
 10
277.55260488188662
 20
31.45835554606974
 30
0.0
 11
277.56513192472602
 21
31.45022752890462
 31
0.0
  0
LINE
  5
2B9B
  8
0
 10
277.60607187454701
 20
31.458355545990312
 30
0.0
 11
277.59492945205881
 21
31.465585169304632
 31
0.0
  0
LINE
  5
2B9C
  8
0
 10
277.56513192472602
 20
31.45022752890462
 30
0.0
 11
277.59354483172592
 21
31.45022752890462
 31
0.0
  0
LINE
  5
2B9D
  8
0
 10
277.59492945205881
 20
31.465585169304632
 30
0.0
 11
277.56374730429189
 21
31.465585169304632
 31
0.0
  0
LINE
  5
2B9E
  8
0
 10
277.56374730434192
 20
31.487707605904621
 30
0.0
 11
277.55260488193659
 21
31.48047798266974
 31
0.0
  0
LINE
  5
2B9F
  8
0
 10
277.59354483177589
 20
31.47234996550463
 30
0.0
 11
277.60607187459698
 21
31.480477982590308
 31
0.0
  0
LINE
  5
2BA0
  8
0
 10
277.55260488193659
 20
31.48047798266974
 30
0.0
 11
277.56513192477593
 21
31.47234996550463
 31
0.0
  0
LINE
  5
2BA1
  8
0
 10
277.60607187459698
 20
31.480477982590308
 30
0.0
 11
277.59492945210877
 21
31.487707605904621
 31
0.0
  0
LINE
  5
2BA2
  8
0
 10
277.56513192477593
 20
31.47234996550463
 30
0.0
 11
277.59354483177589
 21
31.47234996550463
 31
0.0
  0
LINE
  5
2BA3
  8
0
 10
277.59492945210877
 20
31.487707605904621
 30
0.0
 11
277.56374730434192
 21
31.487707605904621
 31
0.0
  0
LINE
  5
2BA4
  8
0
 10
277.56374730434192
 20
31.443462732704631
 30
0.0
 11
277.55260488193659
 21
31.43623310946975
 31
0.0
  0
LINE
  5
2BA5
  8
0
 10
277.59354483177589
 20
31.42810509230463
 30
0.0
 11
277.60607187459698
 21
31.436233109390312
 31
0.0
  0
LINE
  5
2BA6
  8
0
 10
277.55260488193659
 20
31.43623310946975
 30
0.0
 11
277.56513192477593
 21
31.42810509230463
 31
0.0
  0
LINE
  5
2BA7
  8
0
 10
277.60607187459698
 20
31.436233109390312
 30
0.0
 11
277.59492945210877
 21
31.443462732704631
 31
0.0
  0
LINE
  5
2BA8
  8
0
 10
277.56513192477593
 20
31.42810509230463
 30
0.0
 11
277.59354483177589
 21
31.42810509230463
 31
0.0
  0
LINE
  5
2BA9
  8
0
 10
277.59492945210877
 20
31.443462732704631
 30
0.0
 11
277.56374730434192
 21
31.443462732704631
 31
0.0
  0
LINE
  5
2BAA
  8
0
 10
277.56374730424187
 20
31.421340296104621
 30
0.0
 11
277.55260488183671
 21
31.414110672869739
 31
0.0
  0
LINE
  5
2BAB
  8
0
 10
277.59354483167601
 20
31.405982655704619
 30
0.0
 11
277.60607187449699
 21
31.414110672790311
 31
0.0
  0
LINE
  5
2BAC
  8
0
 10
277.55260488183671
 20
31.414110672869739
 30
0.0
 11
277.565131924676
 21
31.405982655704619
 31
0.0
  0
LINE
  5
2BAD
  8
0
 10
277.60607187449699
 20
31.414110672790311
 30
0.0
 11
277.59492945200878
 21
31.421340296104621
 31
0.0
  0
LINE
  5
2BAE
  8
0
 10
277.565131924676
 20
31.405982655704619
 30
0.0
 11
277.59354483167601
 21
31.405982655704619
 31
0.0
  0
LINE
  5
2BAF
  8
0
 10
277.59492945200878
 20
31.421340296104621
 30
0.0
 11
277.56374730424187
 21
31.421340296104621
 31
0.0
  0
LINE
  5
2BB0
  8
0
 10
277.56374730434192
 20
31.399217859504631
 30
0.0
 11
277.55260488193659
 21
31.391988236269739
 31
0.0
  0
LINE
  5
2BB1
  8
0
 10
277.59354483177589
 20
31.383860219104619
 30
0.0
 11
277.60607187459698
 21
31.391988236190311
 31
0.0
  0
LINE
  5
2BB2
  8
0
 10
277.55260488193659
 20
31.391988236269739
 30
0.0
 11
277.56513192477593
 21
31.383860219104619
 31
0.0
  0
LINE
  5
2BB3
  8
0
 10
277.60607187459698
 20
31.391988236190311
 30
0.0
 11
277.59492945210877
 21
31.399217859504631
 31
0.0
  0
LINE
  5
2BB4
  8
0
 10
277.56513192477593
 20
31.383860219104619
 30
0.0
 11
277.59354483177589
 21
31.383860219104619
 31
0.0
  0
LINE
  5
2BB5
  8
0
 10
277.59492945210877
 20
31.399217859504631
 30
0.0
 11
277.56374730434192
 21
31.399217859504631
 31
0.0
  0
LINE
  5
2BB6
  8
0
 10
277.56374730434192
 20
31.377453770004621
 30
0.0
 11
277.55260488193659
 21
31.37022414676974
 31
0.0
  0
LINE
  5
2BB7
  8
0
 10
277.59354483177589
 20
31.36209612960462
 30
0.0
 11
277.60607187459698
 21
31.370224146690308
 31
0.0
  0
LINE
  5
2BB8
  8
0
 10
277.55260488193659
 20
31.37022414676974
 30
0.0
 11
277.56513192477593
 21
31.36209612960462
 31
0.0
  0
LINE
  5
2BB9
  8
0
 10
277.60607187459698
 20
31.370224146690308
 30
0.0
 11
277.59492945210877
 21
31.377453770004621
 31
0.0
  0
LINE
  5
2BBA
  8
0
 10
277.56513192477593
 20
31.36209612960462
 30
0.0
 11
277.59354483177589
 21
31.36209612960462
 31
0.0
  0
LINE
  5
2BBB
  8
0
 10
277.59492945210877
 20
31.377453770004621
 30
0.0
 11
277.56374730434192
 21
31.377453770004632
 31
0.0
  0
LINE
  5
2BBC
  8
0
 10
277.56374730434192
 20
31.354972986204629
 30
0.0
 11
277.55260488193659
 21
31.347743362969741
 31
0.0
  0
LINE
  5
2BBD
  8
0
 10
277.59354483177589
 20
31.339615345804631
 30
0.0
 11
277.60607187459698
 21
31.347743362890309
 31
0.0
  0
LINE
  5
2BBE
  8
0
 10
277.55260488193659
 20
31.347743362969741
 30
0.0
 11
277.56513192477593
 21
31.339615345804631
 31
0.0
  0
LINE
  5
2BBF
  8
0
 10
277.60607187459698
 20
31.347743362890309
 30
0.0
 11
277.59492945210877
 21
31.354972986204629
 31
0.0
  0
LINE
  5
2BC0
  8
0
 10
277.56513192477593
 20
31.339615345804631
 30
0.0
 11
277.59354483177589
 21
31.339615345804631
 31
0.0
  0
LINE
  5
2BC1
  8
0
 10
277.59492945210877
 20
31.354972986204629
 30
0.0
 11
277.56374730434192
 21
31.354972986204629
 31
0.0
  0
LINE
  5
2BC2
  8
0
 10
277.56374730429189
 20
31.332850549604618
 30
0.0
 11
277.55260488188662
 21
31.325620926369751
 31
0.0
  0
LINE
  5
2BC3
  8
0
 10
277.59354483172592
 20
31.317492909204621
 30
0.0
 11
277.60607187454701
 21
31.325620926290309
 31
0.0
  0
LINE
  5
2BC4
  8
0
 10
277.55260488188662
 20
31.325620926369751
 30
0.0
 11
277.56513192472602
 21
31.317492909204621
 31
0.0
  0
LINE
  5
2BC5
  8
0
 10
277.60607187454701
 20
31.325620926290309
 30
0.0
 11
277.59492945205881
 21
31.332850549604618
 31
0.0
  0
LINE
  5
2BC6
  8
0
 10
277.56513192472602
 20
31.317492909204621
 30
0.0
 11
277.59354483172592
 21
31.317492909204621
 31
0.0
  0
LINE
  5
2BC7
  8
0
 10
277.59492945205881
 20
31.332850549604618
 30
0.0
 11
277.56374730429189
 21
31.332850549604618
 31
0.0
  0
LINE
  5
2BC8
  8
0
 10
277.61489053684193
 20
31.52089126090463
 30
0.0
 11
277.60374811443671
 21
31.513661637669738
 31
0.0
  0
LINE
  5
2BC9
  8
0
 10
277.64468806427601
 20
31.505533620504622
 30
0.0
 11
277.65721510709699
 21
31.51366163759031
 31
0.0
  0
LINE
  5
2BCA
  8
0
 10
277.60374811443671
 20
31.513661637669738
 30
0.0
 11
277.61627515727588
 21
31.505533620504622
 31
0.0
  0
LINE
  5
2BCB
  8
0
 10
277.65721510709699
 20
31.51366163759031
 30
0.0
 11
277.64607268460878
 21
31.52089126090463
 31
0.0
  0
LINE
  5
2BCC
  8
0
 10
277.61627515727588
 20
31.505533620504622
 30
0.0
 11
277.64468806427601
 21
31.505533620504622
 31
0.0
  0
LINE
  5
2BCD
  8
0
 10
277.64607268460878
 20
31.52089126090463
 30
0.0
 11
277.61489053684193
 21
31.52089126090463
 31
0.0
  0
LINE
  5
2BCE
  8
0
 10
277.61489053684193
 20
31.498768824204632
 30
0.0
 11
277.60374811443671
 21
31.491539200969751
 31
0.0
  0
LINE
  5
2BCF
  8
0
 10
277.64468806427601
 20
31.48341118380463
 30
0.0
 11
277.65721510709699
 21
31.491539200890308
 31
0.0
  0
LINE
  5
2BD0
  8
0
 10
277.60374811443671
 20
31.491539200969751
 30
0.0
 11
277.61627515727588
 21
31.48341118380463
 31
0.0
  0
LINE
  5
2BD1
  8
0
 10
277.65721510709699
 20
31.491539200890308
 30
0.0
 11
277.64607268460878
 21
31.498768824204632
 31
0.0
  0
LINE
  5
2BD2
  8
0
 10
277.61627515727588
 20
31.48341118380463
 30
0.0
 11
277.64468806427601
 21
31.48341118380463
 31
0.0
  0
LINE
  5
2BD3
  8
0
 10
277.64607268460878
 20
31.498768824204632
 30
0.0
 11
277.61489053684193
 21
31.498768824204632
 31
0.0
  0
LINE
  5
2BD4
  8
0
 10
277.61489053684193
 20
31.476646387604621
 30
0.0
 11
277.60374811443671
 21
31.46941676436974
 31
0.0
  0
LINE
  5
2BD5
  8
0
 10
277.64468806427601
 20
31.46128874720462
 30
0.0
 11
277.65721510709699
 21
31.469416764290301
 31
0.0
  0
LINE
  5
2BD6
  8
0
 10
277.60374811443671
 20
31.46941676436974
 30
0.0
 11
277.61627515727588
 21
31.46128874720462
 31
0.0
  0
LINE
  5
2BD7
  8
0
 10
277.65721510709699
 20
31.469416764290301
 30
0.0
 11
277.64607268460878
 21
31.476646387604621
 31
0.0
  0
LINE
  5
2BD8
  8
0
 10
277.61627515727588
 20
31.46128874720462
 30
0.0
 11
277.64468806427601
 21
31.46128874720462
 31
0.0
  0
LINE
  5
2BD9
  8
0
 10
277.64607268460878
 20
31.476646387604621
 30
0.0
 11
277.61489053684193
 21
31.476646387604621
 31
0.0
  0
LINE
  5
2BDA
  8
0
 10
277.6148905367919
 20
31.454523951004631
 30
0.0
 11
277.60374811438658
 21
31.44729432776975
 31
0.0
  0
LINE
  5
2BDB
  8
0
 10
277.64468806422587
 20
31.43916631060462
 30
0.0
 11
277.65721510704702
 21
31.447294327690312
 31
0.0
  0
LINE
  5
2BDC
  8
0
 10
277.60374811438658
 20
31.44729432776975
 30
0.0
 11
277.61627515722591
 21
31.43916631060462
 31
0.0
  0
LINE
  5
2BDD
  8
0
 10
277.65721510704702
 20
31.447294327690312
 30
0.0
 11
277.64607268455882
 21
31.454523951004631
 31
0.0
  0
LINE
  5
2BDE
  8
0
 10
277.61627515722591
 20
31.43916631060462
 30
0.0
 11
277.64468806422587
 21
31.43916631060462
 31
0.0
  0
LINE
  5
2BDF
  8
0
 10
277.64607268455882
 20
31.454523951004631
 30
0.0
 11
277.6148905367919
 21
31.454523951004631
 31
0.0
  0
LINE
  5
2BE0
  8
0
 10
277.6148905367919
 20
31.432401514404621
 30
0.0
 11
277.60374811438658
 21
31.42517189116974
 31
0.0
  0
LINE
  5
2BE1
  8
0
 10
277.64468806422587
 20
31.41704387400463
 30
0.0
 11
277.65721510704702
 21
31.425171891090312
 31
0.0
  0
LINE
  5
2BE2
  8
0
 10
277.60374811438658
 20
31.42517189116974
 30
0.0
 11
277.61627515722591
 21
31.41704387400463
 31
0.0
  0
LINE
  5
2BE3
  8
0
 10
277.65721510704702
 20
31.425171891090312
 30
0.0
 11
277.64607268455882
 21
31.432401514404621
 31
0.0
  0
LINE
  5
2BE4
  8
0
 10
277.61627515722591
 20
31.41704387400463
 30
0.0
 11
277.64468806422587
 21
31.41704387400463
 31
0.0
  0
LINE
  5
2BE5
  8
0
 10
277.64607268455882
 20
31.432401514404621
 30
0.0
 11
277.6148905367919
 21
31.432401514404621
 31
0.0
  0
LINE
  5
2BE6
  8
0
 10
277.6148905367919
 20
31.410279077804631
 30
0.0
 11
277.60374811438658
 21
31.403049454569739
 31
0.0
  0
LINE
  5
2BE7
  8
0
 10
277.64468806422587
 20
31.394921437404619
 30
0.0
 11
277.65721510704702
 21
31.403049454490311
 31
0.0
  0
LINE
  5
2BE8
  8
0
 10
277.60374811438658
 20
31.403049454569739
 30
0.0
 11
277.61627515722591
 21
31.394921437404619
 31
0.0
  0
LINE
  5
2BE9
  8
0
 10
277.65721510704702
 20
31.403049454490311
 30
0.0
 11
277.64607268455882
 21
31.410279077804631
 31
0.0
  0
LINE
  5
2BEA
  8
0
 10
277.61627515722591
 20
31.394921437404619
 30
0.0
 11
277.64468806422587
 21
31.394921437404619
 31
0.0
  0
LINE
  5
2BEB
  8
0
 10
277.64607268455882
 20
31.410279077804631
 30
0.0
 11
277.6148905367919
 21
31.410279077804631
 31
0.0
  0
LINE
  5
2BEC
  8
0
 10
277.6148905367919
 20
31.388156641204631
 30
0.0
 11
277.60374811438658
 21
31.38092701796975
 31
0.0
  0
LINE
  5
2BED
  8
0
 10
277.64468806422587
 20
31.372799000804619
 30
0.0
 11
277.65721510704702
 21
31.380927017890311
 31
0.0
  0
LINE
  5
2BEE
  8
0
 10
277.60374811438658
 20
31.38092701796975
 30
0.0
 11
277.61627515722591
 21
31.372799000804619
 31
0.0
  0
LINE
  5
2BEF
  8
0
 10
277.65721510704702
 20
31.380927017890311
 30
0.0
 11
277.64607268455882
 21
31.388156641204631
 31
0.0
  0
LINE
  5
2BF0
  8
0
 10
277.61627515722591
 20
31.372799000804619
 30
0.0
 11
277.64468806422587
 21
31.372799000804619
 31
0.0
  0
LINE
  5
2BF1
  8
0
 10
277.64607268455882
 20
31.388156641204631
 30
0.0
 11
277.6148905367919
 21
31.388156641204631
 31
0.0
  0
LINE
  5
2BF2
  8
0
 10
277.61489053684193
 20
31.366034204504619
 30
0.0
 11
277.60374811443671
 21
31.358804581269752
 31
0.0
  0
LINE
  5
2BF3
  8
0
 10
277.64468806427601
 20
31.350676564104631
 30
0.0
 11
277.65721510709699
 21
31.358804581190309
 31
0.0
  0
LINE
  5
2BF4
  8
0
 10
277.60374811443671
 20
31.358804581269752
 30
0.0
 11
277.61627515727588
 21
31.350676564104631
 31
0.0
  0
LINE
  5
2BF5
  8
0
 10
277.65721510709699
 20
31.358804581190309
 30
0.0
 11
277.64607268460878
 21
31.366034204504619
 31
0.0
  0
LINE
  5
2BF6
  8
0
 10
277.61627515727588
 20
31.350676564104631
 30
0.0
 11
277.64468806427601
 21
31.350676564104631
 31
0.0
  0
LINE
  5
2BF7
  8
0
 10
277.64607268460878
 20
31.366034204504619
 30
0.0
 11
277.61489053684193
 21
31.366034204504619
 31
0.0
  0
LINE
  5
2BF8
  8
0
 10
277.61489053684193
 20
31.343911767904618
 30
0.0
 11
277.60374811443671
 21
31.336682144669741
 31
0.0
  0
LINE
  5
2BF9
  8
0
 10
277.64468806427601
 20
31.328554127504621
 30
0.0
 11
277.65721510709699
 21
31.336682144590309
 31
0.0
  0
LINE
  5
2BFA
  8
0
 10
277.60374811443671
 20
31.336682144669741
 30
0.0
 11
277.61627515727588
 21
31.328554127504621
 31
0.0
  0
LINE
  5
2BFB
  8
0
 10
277.65721510709699
 20
31.336682144590309
 30
0.0
 11
277.64607268460878
 21
31.343911767904618
 31
0.0
  0
LINE
  5
2BFC
  8
0
 10
277.61627515727588
 20
31.328554127504621
 30
0.0
 11
277.64468806427601
 21
31.328554127504621
 31
0.0
  0
LINE
  5
2BFD
  8
0
 10
277.64607268460878
 20
31.343911767904618
 30
0.0
 11
277.61489053684193
 21
31.343911767904618
 31
0.0
  0
LINE
  5
2BFE
  8
0
 10
277.6148905367919
 20
31.321789331304618
 30
0.0
 11
277.60374811438658
 21
31.314559708069751
 31
0.0
  0
LINE
  5
2BFF
  8
0
 10
277.64468806422587
 20
31.306431690904631
 30
0.0
 11
277.65721510704702
 21
31.314559707990309
 31
0.0
  0
LINE
  5
2C00
  8
0
 10
277.60374811438658
 20
31.314559708069751
 30
0.0
 11
277.61433443654511
 21
31.307690903570261
 31
0.0
  0
LINE
  5
2C01
  8
0
 10
277.65721510704702
 20
31.314559707990309
 30
0.0
 11
277.64607268455882
 21
31.321789331304618
 31
0.0
  0
LINE
  5
2C02
  8
0
 10
277.63108128471589
 20
31.306431690904631
 30
0.0
 11
277.64468806422587
 21
31.306431690904631
 31
0.0
  0
LINE
  5
2C03
  8
0
 10
277.64607268455882
 20
31.321789331304618
 30
0.0
 11
277.6148905367919
 21
31.321789331304618
 31
0.0
  0
LINE
  5
2C04
  8
0
 10
277.66600032514191
 20
31.53195247920463
 30
0.0
 11
277.65485790273658
 21
31.524722855969738
 31
0.0
  0
LINE
  5
2C05
  8
0
 10
277.69579785257588
 20
31.516594838804622
 30
0.0
 11
277.70832489539703
 21
31.52472285589031
 31
0.0
  0
LINE
  5
2C06
  8
0
 10
277.65485790273658
 20
31.524722855969738
 30
0.0
 11
277.66738494557592
 21
31.516594838804622
 31
0.0
  0
LINE
  5
2C07
  8
0
 10
277.70832489539703
 20
31.52472285589031
 30
0.0
 11
277.69718247290882
 21
31.53195247920463
 31
0.0
  0
LINE
  5
2C08
  8
0
 10
277.66738494557592
 20
31.516594838804622
 30
0.0
 11
277.69579785257588
 21
31.516594838804622
 31
0.0
  0
LINE
  5
2C09
  8
0
 10
277.69718247290882
 20
31.53195247920463
 30
0.0
 11
277.66600032514191
 21
31.53195247920463
 31
0.0
  0
LINE
  5
2C0A
  8
0
 10
277.66600032514191
 20
31.509830042604619
 30
0.0
 11
277.65485790273658
 21
31.502600419369742
 31
0.0
  0
LINE
  5
2C0B
  8
0
 10
277.69579785257588
 20
31.494472402204622
 30
0.0
 11
277.70832489539703
 21
31.5026004192903
 31
0.0
  0
LINE
  5
2C0C
  8
0
 10
277.65485790273658
 20
31.502600419369742
 30
0.0
 11
277.66738494557592
 21
31.494472402204622
 31
0.0
  0
LINE
  5
2C0D
  8
0
 10
277.70832489539703
 20
31.5026004192903
 30
0.0
 11
277.69718247290882
 21
31.509830042604619
 31
0.0
  0
LINE
  5
2C0E
  8
0
 10
277.66738494557592
 20
31.494472402204622
 30
0.0
 11
277.69579785257588
 21
31.494472402204622
 31
0.0
  0
LINE
  5
2C0F
  8
0
 10
277.69718247290882
 20
31.509830042604619
 30
0.0
 11
277.66600032514191
 21
31.509830042604619
 31
0.0
  0
LINE
  5
2C10
  8
0
 10
277.66600032514191
 20
31.487707605904621
 30
0.0
 11
277.65485790273658
 21
31.48047798266974
 31
0.0
  0
LINE
  5
2C11
  8
0
 10
277.69579785257588
 20
31.47234996550463
 30
0.0
 11
277.70832489539703
 21
31.480477982590308
 31
0.0
  0
LINE
  5
2C12
  8
0
 10
277.65485790273658
 20
31.48047798266974
 30
0.0
 11
277.66738494557592
 21
31.47234996550463
 31
0.0
  0
LINE
  5
2C13
  8
0
 10
277.70832489539703
 20
31.480477982590308
 30
0.0
 11
277.69718247290882
 21
31.487707605904621
 31
0.0
  0
LINE
  5
2C14
  8
0
 10
277.66738494557592
 20
31.47234996550463
 30
0.0
 11
277.69579785257588
 21
31.47234996550463
 31
0.0
  0
LINE
  5
2C15
  8
0
 10
277.69718247290882
 20
31.487707605904621
 30
0.0
 11
277.66600032514191
 21
31.487707605904621
 31
0.0
  0
LINE
  5
2C16
  8
0
 10
277.66603376934188
 20
31.465585169304632
 30
0.0
 11
277.65489134693672
 21
31.45835554606974
 31
0.0
  0
LINE
  5
2C17
  8
0
 10
277.69583129677591
 20
31.45022752890462
 30
0.0
 11
277.708358339597
 21
31.458355545990312
 31
0.0
  0
LINE
  5
2C18
  8
0
 10
277.65489134693672
 20
31.45835554606974
 30
0.0
 11
277.66741838977589
 21
31.45022752890462
 31
0.0
  0
LINE
  5
2C19
  8
0
 10
277.708358339597
 20
31.458355545990312
 30
0.0
 11
277.69721591710879
 21
31.465585169304632
 31
0.0
  0
LINE
  5
2C1A
  8
0
 10
277.66741838977589
 20
31.45022752890462
 30
0.0
 11
277.69583129677591
 21
31.45022752890462
 31
0.0
  0
LINE
  5
2C1B
  8
0
 10
277.69721591710879
 20
31.465585169304632
 30
0.0
 11
277.66603376934188
 21
31.465585169304632
 31
0.0
  0
LINE
  5
2C1C
  8
0
 10
277.66603376934188
 20
31.44382107990463
 30
0.0
 11
277.65489134693672
 21
31.436591456669738
 31
0.0
  0
LINE
  5
2C1D
  8
0
 10
277.69583129677591
 20
31.428463439504618
 30
0.0
 11
277.708358339597
 21
31.43659145659031
 31
0.0
  0
LINE
  5
2C1E
  8
0
 10
277.65489134693672
 20
31.436591456669738
 30
0.0
 11
277.66741838977589
 21
31.428463439504618
 31
0.0
  0
LINE
  5
2C1F
  8
0
 10
277.708358339597
 20
31.43659145659031
 30
0.0
 11
277.69721591710879
 21
31.44382107990463
 31
0.0
  0
LINE
  5
2C20
  8
0
 10
277.66741838977589
 20
31.428463439504618
 30
0.0
 11
277.69583129677591
 21
31.428463439504618
 31
0.0
  0
LINE
  5
2C21
  8
0
 10
277.69721591710879
 20
31.44382107990463
 30
0.0
 11
277.66603376934188
 21
31.44382107990463
 31
0.0
  0
LINE
  5
2C22
  8
0
 10
277.66600032514191
 20
31.421698643304619
 30
0.0
 11
277.65485790273658
 21
31.414469020069749
 31
0.0
  0
LINE
  5
2C23
  8
0
 10
277.69579785257588
 20
31.406341002904622
 30
0.0
 11
277.70832489539703
 21
31.41446901999031
 31
0.0
  0
LINE
  5
2C24
  8
0
 10
277.65485790273658
 20
31.414469020069749
 30
0.0
 11
277.66738494557592
 21
31.406341002904622
 31
0.0
  0
LINE
  5
2C25
  8
0
 10
277.70832489539703
 20
31.41446901999031
 30
0.0
 11
277.69718247290882
 21
31.421698643304619
 31
0.0
  0
LINE
  5
2C26
  8
0
 10
277.66738494557592
 20
31.406341002904622
 30
0.0
 11
277.69579785257588
 21
31.406341002904622
 31
0.0
  0
LINE
  5
2C27
  8
0
 10
277.69718247290882
 20
31.421698643304619
 30
0.0
 11
277.66600032514191
 21
31.421698643304619
 31
0.0
  0
LINE
  5
2C28
  8
0
 10
277.66603376934188
 20
31.399217859504631
 30
0.0
 11
277.65489134693672
 21
31.391988236269739
 31
0.0
  0
LINE
  5
2C29
  8
0
 10
277.69583129677591
 20
31.383860219104619
 30
0.0
 11
277.708358339597
 21
31.391988236190311
 31
0.0
  0
LINE
  5
2C2A
  8
0
 10
277.65489134693672
 20
31.391988236269739
 30
0.0
 11
277.66741838977589
 21
31.383860219104619
 31
0.0
  0
LINE
  5
2C2B
  8
0
 10
277.708358339597
 20
31.391988236190311
 30
0.0
 11
277.69721591710879
 21
31.399217859504631
 31
0.0
  0
LINE
  5
2C2C
  8
0
 10
277.66741838977589
 20
31.383860219104619
 30
0.0
 11
277.69583129677591
 21
31.383860219104619
 31
0.0
  0
LINE
  5
2C2D
  8
0
 10
277.69721591710879
 20
31.399217859504631
 30
0.0
 11
277.66603376934188
 21
31.399217859504631
 31
0.0
  0
LINE
  5
2C2E
  8
0
 10
277.66603376934188
 20
31.377095422804619
 30
0.0
 11
277.65489134693672
 21
31.369865799569752
 31
0.0
  0
LINE
  5
2C2F
  8
0
 10
277.69583129677591
 20
31.361737782404632
 30
0.0
 11
277.708358339597
 21
31.369865799490309
 31
0.0
  0
LINE
  5
2C30
  8
0
 10
277.65489134693672
 20
31.369865799569752
 30
0.0
 11
277.66741838977589
 21
31.361737782404632
 31
0.0
  0
LINE
  5
2C31
  8
0
 10
277.708358339597
 20
31.369865799490309
 30
0.0
 11
277.69721591710879
 21
31.377095422804619
 31
0.0
  0
LINE
  5
2C32
  8
0
 10
277.66741838977589
 20
31.361737782404632
 30
0.0
 11
277.69583129677591
 21
31.361737782404632
 31
0.0
  0
LINE
  5
2C33
  8
0
 10
277.69721591710879
 20
31.377095422804619
 30
0.0
 11
277.66603376934188
 21
31.377095422804619
 31
0.0
  0
LINE
  5
2C34
  8
0
 10
277.66600032514191
 20
31.354972986204629
 30
0.0
 11
277.65485790273658
 21
31.347743362969741
 31
0.0
  0
LINE
  5
2C35
  8
0
 10
277.69579785257588
 20
31.339615345804631
 30
0.0
 11
277.70832489539703
 21
31.347743362890309
 31
0.0
  0
LINE
  5
2C36
  8
0
 10
277.65485790273658
 20
31.347743362969741
 30
0.0
 11
277.66738494557592
 21
31.339615345804631
 31
0.0
  0
LINE
  5
2C37
  8
0
 10
277.70832489539703
 20
31.347743362890309
 30
0.0
 11
277.69718247290882
 21
31.354972986204629
 31
0.0
  0
LINE
  5
2C38
  8
0
 10
277.66738494557592
 20
31.339615345804631
 30
0.0
 11
277.69579785257588
 21
31.339615345804631
 31
0.0
  0
LINE
  5
2C39
  8
0
 10
277.69718247290882
 20
31.354972986204629
 30
0.0
 11
277.66600032514191
 21
31.354972986204629
 31
0.0
  0
LINE
  5
2C3A
  8
0
 10
277.66603376934188
 20
31.332850549604618
 30
0.0
 11
277.65489134693672
 21
31.325620926369751
 31
0.0
  0
LINE
  5
2C3B
  8
0
 10
277.69583129677591
 20
31.317492909204621
 30
0.0
 11
277.708358339597
 21
31.325620926290309
 31
0.0
  0
LINE
  5
2C3C
  8
0
 10
277.65489134693672
 20
31.325620926369751
 30
0.0
 11
277.66741838977589
 21
31.317492909204621
 31
0.0
  0
LINE
  5
2C3D
  8
0
 10
277.708358339597
 20
31.325620926290309
 30
0.0
 11
277.69721591710879
 21
31.332850549604618
 31
0.0
  0
LINE
  5
2C3E
  8
0
 10
277.66741838977589
 20
31.317492909204621
 30
0.0
 11
277.69583129677591
 21
31.317492909204621
 31
0.0
  0
LINE
  5
2C3F
  8
0
 10
277.69721591710879
 20
31.332850549604618
 30
0.0
 11
277.66603376934188
 21
31.332850549604618
 31
0.0
  0
LINE
  5
2C40
  8
0
 10
277.44011513427591
 20
31.46128874720462
 30
0.0
 11
277.452642177097
 21
31.469416764290301
 31
0.0
  0
LINE
  5
2C41
  8
0
 10
277.40048546736608
 20
31.4685666034596
 30
0.0
 11
277.41170222727601
 21
31.46128874720462
 31
0.0
  0
LINE
  5
2C42
  8
0
 10
277.452642177097
 20
31.469416764290301
 30
0.0
 11
277.4414997546088
 21
31.476646387604621
 31
0.0
  0
LINE
  5
2C43
  8
0
 10
277.41170222727601
 20
31.46128874720462
 30
0.0
 11
277.44011513427591
 21
31.46128874720462
 31
0.0
  0
LINE
  5
2C44
  8
0
 10
277.4414997546088
 20
31.476646387604621
 30
0.0
 11
277.41240830313302
 21
31.476646387604621
 31
0.0
  0
LINE
  5
2C45
  8
0
 10
277.4103176067419
 20
31.454523951004631
 30
0.0
 11
277.39917518433663
 21
31.44729432776975
 31
0.0
  0
LINE
  5
2C46
  8
0
 10
277.44011513417593
 20
31.43916631060462
 30
0.0
 11
277.4526421769969
 21
31.447294327690312
 31
0.0
  0
LINE
  5
2C47
  8
0
 10
277.39917518433663
 20
31.44729432776975
 30
0.0
 11
277.41170222717591
 21
31.43916631060462
 31
0.0
  0
LINE
  5
2C48
  8
0
 10
277.4526421769969
 20
31.447294327690312
 30
0.0
 11
277.44149975450881
 21
31.454523951004631
 31
0.0
  0
LINE
  5
2C49
  8
0
 10
277.41170222717591
 20
31.43916631060462
 30
0.0
 11
277.44011513417593
 21
31.43916631060462
 31
0.0
  0
LINE
  5
2C4A
  8
0
 10
277.44149975450881
 20
31.454523951004631
 30
0.0
 11
277.4103176067419
 21
31.454523951004631
 31
0.0
  0
LINE
  5
2C4B
  8
0
 10
277.4103176067419
 20
31.432401514404621
 30
0.0
 11
277.39917518433663
 21
31.42517189116974
 31
0.0
  0
LINE
  5
2C4C
  8
0
 10
277.44011513417593
 20
31.41704387400463
 30
0.0
 11
277.4526421769969
 21
31.425171891090312
 31
0.0
  0
LINE
  5
2C4D
  8
0
 10
277.39917518433663
 20
31.42517189116974
 30
0.0
 11
277.41170222717591
 21
31.41704387400463
 31
0.0
  0
LINE
  5
2C4E
  8
0
 10
277.4526421769969
 20
31.425171891090312
 30
0.0
 11
277.44149975450881
 21
31.432401514404621
 31
0.0
  0
LINE
  5
2C4F
  8
0
 10
277.41170222717591
 20
31.41704387400463
 30
0.0
 11
277.44011513417593
 21
31.41704387400463
 31
0.0
  0
LINE
  5
2C50
  8
0
 10
277.44149975450881
 20
31.432401514404621
 30
0.0
 11
277.4103176067419
 21
31.432401514404621
 31
0.0
  0
LINE
  5
2C51
  8
0
 10
277.41031760679192
 20
31.410279077804631
 30
0.0
 11
277.39917518438659
 21
31.403049454569739
 31
0.0
  0
LINE
  5
2C52
  8
0
 10
277.44011513422601
 20
31.394921437404619
 30
0.0
 11
277.45264217704698
 21
31.403049454490311
 31
0.0
  0
LINE
  5
2C53
  8
0
 10
277.39917518438659
 20
31.403049454569739
 30
0.0
 11
277.41170222722587
 21
31.394921437404619
 31
0.0
  0
LINE
  5
2C54
  8
0
 10
277.45264217704698
 20
31.403049454490311
 30
0.0
 11
277.44149975455878
 21
31.410279077804631
 31
0.0
  0
LINE
  5
2C55
  8
0
 10
277.41170222722587
 20
31.394921437404619
 30
0.0
 11
277.44011513422601
 21
31.394921437404619
 31
0.0
  0
LINE
  5
2C56
  8
0
 10
277.44149975455878
 20
31.410279077804631
 30
0.0
 11
277.41031760679192
 21
31.410279077804631
 31
0.0
  0
LINE
  5
2C57
  8
0
 10
277.4103176067419
 20
31.388156641204631
 30
0.0
 11
277.39917518433663
 21
31.38092701796975
 31
0.0
  0
LINE
  5
2C58
  8
0
 10
277.44011513417593
 20
31.372799000804619
 30
0.0
 11
277.4526421769969
 21
31.380927017890311
 31
0.0
  0
LINE
  5
2C59
  8
0
 10
277.39917518433663
 20
31.38092701796975
 30
0.0
 11
277.41170222717591
 21
31.372799000804619
 31
0.0
  0
LINE
  5
2C5A
  8
0
 10
277.4526421769969
 20
31.380927017890311
 30
0.0
 11
277.44149975450881
 21
31.388156641204631
 31
0.0
  0
LINE
  5
2C5B
  8
0
 10
277.41170222717591
 20
31.372799000804619
 30
0.0
 11
277.44011513417593
 21
31.372799000804619
 31
0.0
  0
LINE
  5
2C5C
  8
0
 10
277.44149975450881
 20
31.388156641204631
 30
0.0
 11
277.4103176067419
 21
31.388156641204631
 31
0.0
  0
LINE
  5
2C5D
  8
0
 10
277.41280476079191
 20
31.366034204504619
 30
0.0
 11
277.41032398642483
 21
31.364424584679391
 31
0.0
  0
LINE
  5
2C5E
  8
0
 10
277.44260228822588
 20
31.350676564104631
 30
0.0
 11
277.45512933104698
 21
31.358804581190309
 31
0.0
  0
LINE
  5
2C5F
  8
0
 10
277.45512933104698
 20
31.358804581190309
 30
0.0
 11
277.44398690855883
 21
31.366034204504619
 31
0.0
  0
LINE
  5
2C60
  8
0
 10
277.43448258793569
 20
31.350676564104631
 30
0.0
 11
277.44260228822588
 21
31.350676564104631
 31
0.0
  0
LINE
  5
2C61
  8
0
 10
277.44398690855883
 20
31.366034204504619
 30
0.0
 11
277.41280476079191
 21
31.366034204504619
 31
0.0
  0
LINE
  5
2C62
  8
0
 10
277.388578770126
 20
31.42810509230463
 30
0.0
 11
277.40110581294698
 21
31.436233109390312
 31
0.0
  0
LINE
  5
2C63
  8
0
 10
277.40110581294698
 20
31.436233109390312
 30
0.0
 11
277.38996339045877
 21
31.443462732704631
 31
0.0
  0
LINE
  5
2C64
  8
0
 10
277.36906200184478
 20
31.42810509230463
 30
0.0
 11
277.388578770126
 21
31.42810509230463
 31
0.0
  0
LINE
  5
2C65
  8
0
 10
277.38996339045877
 20
31.443462732704631
 30
0.0
 11
277.37526861392649
 21
31.443462732704631
 31
0.0
  0
LINE
  5
2C66
  8
0
 10
277.38504021287628
 20
31.405982655704619
 30
0.0
 11
277.39756725569742
 21
31.414110672790311
 31
0.0
  0
LINE
  5
2C67
  8
0
 10
277.39756725569742
 20
31.414110672790311
 30
0.0
 11
277.38642483320922
 21
31.421340296104621
 31
0.0
  0
LINE
  5
2C68
  8
0
 10
277.37005209246729
 20
31.405982655704619
 30
0.0
 11
277.38504021287628
 21
31.405982655704619
 31
0.0
  0
LINE
  5
2C69
  8
0
 10
277.38642483320922
 20
31.421340296104621
 30
0.0
 11
277.36776101551351
 21
31.421340296104621
 31
0.0
  0
LINE
  5
2C6A
  8
0
 10
277.38759497102592
 20
31.383860219104619
 30
0.0
 11
277.4001220138469
 21
31.391988236190311
 31
0.0
  0
LINE
  5
2C6B
  8
0
 10
277.4001220138469
 20
31.391988236190311
 30
0.0
 11
277.3889795913588
 21
31.399217859504631
 31
0.0
  0
LINE
  5
2C6C
  8
0
 10
277.38503302120751
 20
31.383860219104619
 30
0.0
 11
277.38759497102592
 21
31.383860219104619
 31
0.0
  0
LINE
  5
2C6D
  8
0
 10
277.3889795913588
 20
31.399217859504631
 30
0.0
 11
277.37362145402392
 21
31.399217859504631
 31
0.0
  0
LINE
  5
2C6E
  8
0
 10
277.38826507168949
 20
31.453621763451451
 30
0.0
 11
277.40079211451058
 21
31.461749780537129
 31
0.0
  0
LINE
  5
2C6F
  8
0
 10
277.40079211451058
 20
31.461749780537129
 30
0.0
 11
277.395704758769
 21
31.465050648523121
 31
0.0
  0
LINE
  5
2C70
  8
0
 10
277.38259553673828
 20
31.453621763451451
 30
0.0
 11
277.38826507168949
 21
31.453621763451451
 31
0.0
  0
LINE
  5
2C71
  8
0
 10
277.4926533916593
 20
31.494472402204622
 30
0.0
 11
277.50518043448039
 21
31.5026004192903
 31
0.0
  0
LINE
  5
2C72
  8
0
 10
277.45670546324573
 20
31.499361407868189
 30
0.0
 11
277.46424048465929
 21
31.494472402204622
 31
0.0
  0
LINE
  5
2C73
  8
0
 10
277.50518043448039
 20
31.5026004192903
 30
0.0
 11
277.49403801199207
 21
31.509830042604619
 31
0.0
  0
LINE
  5
2C74
  8
0
 10
277.46424048465929
 20
31.494472402204622
 30
0.0
 11
277.4926533916593
 21
31.494472402204622
 31
0.0
  0
LINE
  5
2C75
  8
0
 10
277.49403801199219
 20
31.509830042604619
 30
0.0
 11
277.48879312955978
 21
31.509830042604619
 31
0.0
  0
LINE
  5
2C76
  8
0
 10
277.54379662415931
 20
31.505533620504622
 30
0.0
 11
277.55632366698029
 21
31.51366163759031
 31
0.0
  0
LINE
  5
2C77
  8
0
 10
277.50305376731973
 20
31.513533756308998
 30
0.0
 11
277.5153837171593
 21
31.505533620504622
 31
0.0
  0
LINE
  5
2C78
  8
0
 10
277.55632366698029
 20
31.51366163759031
 30
0.0
 11
277.54518124449208
 21
31.52089126090463
 31
0.0
  0
LINE
  5
2C79
  8
0
 10
277.5153837171593
 20
31.505533620504622
 30
0.0
 11
277.54379662415931
 21
31.505533620504622
 31
0.0
  0
LINE
  5
2C7A
  8
0
 10
277.54518124449208
 20
31.52089126090463
 30
0.0
 11
277.53533392599542
 21
31.52089126090463
 31
0.0
  0
LINE
  5
2C7B
  8
0
 10
277.59493985665932
 20
31.516594838804622
 30
0.0
 11
277.6074668994803
 21
31.52472285589031
 31
0.0
  0
LINE
  5
2C7C
  8
0
 10
277.55443952287789
 20
31.524437616515371
 30
0.0
 11
277.56652694965931
 21
31.516594838804622
 31
0.0
  0
LINE
  5
2C7D
  8
0
 10
277.6074668994803
 20
31.52472285589031
 30
0.0
 11
277.59870691285153
 21
31.530406665100749
 31
0.0
  0
LINE
  5
2C7E
  8
0
 10
277.56652694965931
 20
31.516594838804622
 30
0.0
 11
277.59493985665932
 21
31.516594838804622
 31
0.0
  0
LINE
  5
2C7F
  8
0
 10
277.6460830892093
 20
31.527656057104618
 30
0.0
 11
277.65627738175311
 21
31.534270497971121
 31
0.0
  0
LINE
  5
2C80
  8
0
 10
277.61164168085821
 20
31.531567575815782
 30
0.0
 11
277.61767018220928
 21
31.527656057104618
 31
0.0
  0
LINE
  5
2C81
  8
0
 10
277.61767018220928
 20
31.527656057104618
 30
0.0
 11
277.6460830892093
 21
31.527656057104618
 31
0.0
  0
LINE
  5
2C82
  8
0
 10
277.90311698379332
 20
31.487707605904621
 30
0.0
 11
277.9142594061986
 21
31.48047798266974
 31
0.0
  0
LINE
  5
2C83
  8
0
 10
277.8733194563593
 20
31.47234996550463
 30
0.0
 11
277.86079241353821
 21
31.480477982590308
 31
0.0
  0
LINE
  5
2C84
  8
0
 10
278.61935942595932
 20
33.882770637204622
 30
0.0
 11
278.61935942595932
 21
32.583145907904623
 31
0.0
  0
LINE
  5
2C85
  8
0
 10
278.61935942595932
 20
32.400669760604622
 30
0.0
 11
278.61935942595932
 21
29.47718973110463
 31
0.0
  0
LINE
  5
2C86
  8
0
 10
278.15445297985929
 20
31.645281491404621
 30
0.0
 11
278.15445297985929
 21
31.447894130304618
 31
0.0
  0
LINE
  5
2C87
  8
0
 10
278.05106321605928
 20
31.42545920130463
 30
0.0
 11
278.05106321605928
 21
31.474251498304628
 31
0.0
  0
LINE
  5
2C88
  8
0
 10
277.8695628670593
 20
31.725069583204618
 30
0.0
 11
277.8695628670593
 21
31.610098785304629
 31
0.0
  0
LINE
  5
2C89
  8
0
 10
277.9142594061986
 20
31.48047798266974
 30
0.0
 11
277.90173236335932
 21
31.47234996550463
 31
0.0
  0
LINE
  5
2C8A
  8
0
 10
277.86079241353821
 20
31.480477982590308
 30
0.0
 11
277.87193483602641
 21
31.487707605904621
 31
0.0
  0
LINE
  5
2C8B
  8
0
 10
277.87225578380821
 20
31.487915848911779
 30
0.0
 11
277.87226393575929
 21
31.48792113820463
 31
0.0
  0
LINE
  5
2C8C
  8
0
 10
277.90173236335932
 20
31.47234996550463
 30
0.0
 11
277.8733194563593
 21
31.47234996550463
 31
0.0
  0
LINE
  5
2C8D
  8
0
 10
277.87193483602641
 20
31.487707605904621
 30
0.0
 11
277.90311698379332
 21
31.487707605904621
 31
0.0
  0
LINE
  5
2C8E
  8
0
 10
278.57999526535929
 20
32.439711266204618
 30
0.0
 11
278.44926668705028
 21
32.439710660304627
 31
0.0
  0
ARC
  5
2C8F
  8
0
 10
277.68075194555712
 20
26.49090036365542
 30
0.0
 40
7.4857170322707187
 50
83.064284025147728
 51
89.982897271420285
  0
ARC
  5
2C90
  8
0
 10
278.35223002222091
 20
32.403895454172492
 30
0.0
 40
0.0392335755704503
 50
0.1633318830727298
 51
84.159854134383934
  0
ARC
  5
2C91
  8
0
 10
278.32578695275089
 20
33.882180449938957
 30
0.0
 40
0.0399211905804174
 50
345.62557261487677
 51
83.422445326283054
  0
ARC
  5
2C92
  8
0
 10
277.62783487475929
 20
32.439805675804621
 30
0.0
 40
0.8661417323
 50
359.99372837718749
 51
6.8349147273133939
  0
CIRCLE
  5
2C93
  8
0
 10
277.68295297985929
 20
33.164931613004633
 30
0.0
 40
0.1377952756
  0
ARC
  5
2C94
  8
0
 10
278.58009986871178
 20
32.400451240165587
 30
0.0
 40
0.0392601653899526
 50
0.3189075597772186
 51
90.152656965575886
  0
ARC
  5
2C95
  8
0
 10
278.42695813958937
 20
33.142139065264303
 30
0.0
 40
0.7027825662208845
 50
264.22332435256891
 51
271.81905532599302
  0
ARC
  5
2C96
  8
0
 10
277.4649839367807
 20
21.52594937638899
 30
0.0
 40
10.95329498181669
 50
85.332846967913184
 51
86.292925385588916
  0
ARC
  5
2C97
  8
0
 10
277.66874319845431
 20
27.17592353055073
 30
0.0
 40
5.3044418408037277
 50
84.543148459247334
 51
87.898923006423189
  0
ARC
  5
2C98
  8
0
 10
277.68243116180872
 20
27.44436935944022
 30
0.0
 40
5.0356761136174741
 50
87.942578781430299
 51
89.993682242470868
  0
ARC
  5
2C99
  8
0
 10
277.96778332159113
 20
31.429474898913949
 30
0.0
 40
0.0833766553542644
 50
311.9217192360033
 51
357.23937630675363
  0
ARC
  5
2C9A
  8
0
 10
277.82230084464152
 20
31.609993019236239
 30
0.0
 40
0.3151340986160696
 50
281.86098248380807
 51
309.6740399948053
  0
ARC
  5
2C9B
  8
0
 10
277.70783584661592
 20
32.007538552844963
 30
0.0
 40
0.7283495533087137
 50
276.38807113614172
 51
284.24604926467077
  0
ARC
  5
2C9C
  8
0
 10
277.68358591069392
 20
32.204891384013429
 30
0.0
 40
0.9271776116958088
 50
269.9629541752704
 51
276.52040682128012
  0
ARC
  5
2C9D
  8
0
 10
278.0001946619272
 20
31.414522966764672
 30
0.0
 40
0.078454491773315
 50
4.0607211904968539
 51
49.580206760605847
  0
ARC
  5
2C9E
  8
0
 10
277.99591916842951
 20
31.426424032870429
 30
0.0
 40
0.0827765994143976
 50
302.20916665423488
 51
355.60355584915919
  0
ARC
  5
2C9F
  8
0
 10
277.83081425910649
 20
31.65421077358706
 30
0.0
 40
0.363971115930274
 50
283.40664928953771
 51
305.08855213412772
  0
ARC
  5
2CA0
  8
0
 10
277.70527051951711
 20
32.098643397890633
 30
0.0
 40
0.8256215737649929
 50
274.59977402998561
 51
284.73059000296593
  0
ARC
  5
2CA1
  8
0
 10
277.68337400799362
 20
32.306276693058606
 30
0.0
 40
1.034355057945469
 50
269.97853065360948
 51
274.88642368937411
  0
ARC
  5
2CA2
  8
0
 10
277.85188964630578
 20
31.23230923916535
 30
0.0
 40
0.313378633039575
 50
50.537842445118329
 51
75.665356678905724
  0
ARC
  5
2CA3
  8
0
 10
277.71687827968532
 20
30.802964036640041
 30
0.0
 40
0.7631770979018532
 50
73.825050807443375
 51
83.773599776914097
  0
ARC
  5
2CA4
  8
0
 10
277.68550916667692
 20
30.568572066412951
 30
0.0
 40
0.9996052353627991
 50
83.443299410158431
 51
87.882849513607127
  0
ARC
  5
2CA5
  8
0
 10
277.68298463371571
 20
30.516969138400579
 30
0.0
 40
1.051266382356395
 50
87.849251897484223
 51
89.999902426000205
  0
ARC
  5
2CA6
  8
0
 10
277.97536514498091
 20
31.419433993126461
 30
0.0
 40
0.0759374815656952
 50
4.5508785137901109
 51
53.787949552555283
  0
ARC
  5
2CA7
  8
0
 10
277.8457925012176
 20
31.25680158317142
 30
0.0
 40
0.2838297534844938
 50
52.078962892289461
 51
73.81831916024673
  0
ARC
  5
2CA8
  8
0
 10
277.70984835680957
 20
30.835537985183521
 30
0.0
 40
0.7264087470639496
 50
72.780343022745981
 51
85.329739172842665
  0
ARC
  5
2CA9
  8
0
 10
277.68318543531632
 20
30.597913619726832
 30
0.0
 40
0.9654421228358158
 50
84.900852498214633
 51
90.011810659365523
  0
ARC
  5
2CAA
  8
0
 10
277.68532482141501
 20
32.134391888316152
 30
0.0
 40
0.8525848667226456
 50
269.84285380215238
 51
279.97650595820721
  0
ARC
  5
2CAB
  8
0
 10
277.77265539823861
 20
31.704336922190489
 30
0.0
 40
0.4140631673649063
 50
278.38424029701468
 51
300.96596710482692
  0
ARC
  5
2CAC
  8
0
 10
277.9516915397295
 20
31.415811268412899
 30
0.0
 40
0.0747127386836986
 50
297.07957800510479
 51
4.9383334291362964
  0
ARC
  5
2CAD
  8
0
 10
277.94059644050111
 20
31.394308977536411
 30
0.0
 40
0.0899764679749171
 50
18.08677415234396
 51
57.97707415308458
  0
ARC
  5
2CAE
  8
0
 10
277.80219672156397
 20
31.184364100755449
 30
0.0
 40
0.3414159183786679
 50
56.967562942757517
 51
77.3581478060092
  0
ARC
  5
2CAF
  8
0
 10
277.70191139925311
 20
30.813912000199799
 30
0.0
 40
0.7250294233864977
 50
76.032105779239714
 51
85.014902758794946
  0
ARC
  5
2CB0
  8
0
 10
277.6831961211945
 20
30.637244908897369
 30
0.0
 40
0.9026605421626973
 50
84.805899710305695
 51
90.013310389934361
  0
ARC
  5
2CB1
  8
0
 10
277.92096188012869
 20
31.463292278496411
 30
0.0
 40
0.1128926441521958
 50
292.56016880628073
 51
338.6776184765007
  0
ARC
  5
2CB2
  8
0
 10
277.74991258908659
 20
31.753037807453509
 30
0.0
 40
0.4485376977428072
 50
281.65439568850599
 51
298.54903169673588
  0
ARC
  5
2CB3
  8
0
 10
277.6899170006792
 20
32.008686412890292
 30
0.0
 40
0.7110710105556498
 50
269.44154792657878
 51
282.22776476183992
  0
ARC
  5
2CB4
  8
0
 10
277.68719062981393
 20
32.05281995913198
 30
0.0
 40
0.7479109746508198
 50
269.67792354225679
 51
282.7755251576134
  0
ARC
  5
2CB5
  8
0
 10
277.79447520370701
 20
31.619545466082609
 30
0.0
 40
0.301767480230342
 50
281.10107420872743
 51
306.08889483231138
  0
ARC
  5
2CB6
  8
0
 10
277.91695069834827
 20
31.443326172650139
 30
0.0
 40
0.0873544972655148
 50
309.25668104188969
 51
339.4454728310908
  0
ARC
  5
2CB7
  8
0
 10
277.9381797935643
 20
31.413302604508061
 30
0.0
 40
0.0605677322142941
 50
359.38843546834022
 51
51.772213228160027
  0
ARC
  5
2CB8
  8
0
 10
277.81154459878297
 20
31.254239585265289
 30
0.0
 40
0.263883403831668
 50
51.543659245139153
 51
76.466663968187731
  0
ARC
  5
2CB9
  8
0
 10
277.70291102046752
 20
30.886009198946152
 30
0.0
 40
0.6476030029520117
 50
74.745835539037074
 51
85.98074138843225
  0
ARC
  5
2CBA
  8
0
 10
277.68433152325127
 20
30.767061429026189
 30
0.0
 40
0.76762822060981
 50
85.219649047279717
 51
90.100398274796703
  0
ARC
  5
2CBB
  8
0
 10
278.02849979954777
 20
31.455362320592538
 30
0.0
 40
0.1261743931895559
 50
297.50419659261303
 51
356.6067122217255
  0
ARC
  5
2CBC
  8
0
 10
277.84244754366432
 20
31.725162067629469
 30
0.0
 40
0.4532086947569097
 50
283.0586639250875
 51
302.62186716576878
  0
ARC
  5
2CBD
  8
0
 10
277.74526333809359
 20
32.031694391486162
 30
0.0
 40
0.7741896115192378
 50
271.76949829540808
 51
284.93956046390201
  0
ARC
  5
2CBE
  8
0
 10
277.6853974069524
 20
30.556636855330961
 30
0.0
 40
1.182857538447764
 50
81.042871468296582
 51
90.116784344924412
  0
ARC
  5
2CBF
  8
0
 10
277.83959335418041
 20
31.620648407435379
 30
0.0
 40
0.0317720982829561
 50
272.4772679527664
 51
340.60733000925541
  0
ARC
  5
2CC0
  8
0
 10
277.77886312284772
 20
31.869682538540602
 30
0.0
 40
0.2875627069426261
 50
268.06817216098273
 51
282.47215545324872
  0
ARC
  5
2CC1
  8
0
 10
278.10757225038822
 20
31.605245730644121
 30
0.0
 40
0.061649533132192
 50
319.50294328720531
 51
40.4970567128453
  0
ARC
  5
2CC2
  8
0
 10
277.96921354624061
 20
31.464972859259561
 30
0.0
 40
0.2585050301123498
 50
44.227196070397653
 51
79.810868627593081
  0
ARC
  5
2CC3
  8
0
 10
277.75921611751249
 20
30.577847742963829
 30
0.0
 40
1.1698461371391491
 50
77.373277961207236
 51
85.984583633884796
  0
ARC
  5
2CC4
  8
0
 10
277.68155516764023
 20
29.7495045076808
 30
0.0
 40
2.0016888419720131
 50
85.427394867392223
 51
89.959032115971226
  0
ARC
  5
2CC5
  8
0
 10
268.7358853030608
 20
32.312605559764421
 30
0.0
 40
9.6560107396724852
 50
357.98799456206461
 51
0.5423577186344295
  0
ARC
  5
2CC6
  8
0
 10
277.60877041824881
 20
31.96405954310007
 30
0.0
 40
0.7772310989163939
 50
337.48722798678091
 51
0.7028488197034072
  0
ARC
  5
2CC7
  8
0
 10
278.08765548216053
 20
31.80387668086189
 30
0.0
 40
0.2757868751443087
 50
284.01683298675567
 51
330.11574723064109
  0
ARC
  5
2CC8
  8
0
 10
278.57996044040073
 20
33.882725324610391
 30
0.0
 40
0.0393990116155503
 50
0.0658955865703788
 51
83.098610804339444
  0
ARC
  5
2CC9
  8
0
 10
278.57668097399772
 20
32.585632200469419
 30
0.0
 40
0.0427508118351103
 50
270.67654361343932
 51
356.6659230233663
  0
ARC
  5
2CCA
  8
0
 10
278.21719720808358
 20
33.915937157013488
 30
0.0
 40
0.1535991418874685
 50
287.05019082413332
 51
343.48329724675358
  0
ARC
  5
2CCB
  8
0
 10
278.00987709826092
 20
34.552502660656387
 30
0.0
 40
0.8230558795565602
 50
272.28879827883071
 51
287.85502565753012
  0
ARC
  5
2CCC
  8
0
 10
277.7861906256299
 20
37.329256555069733
 30
0.0
 40
3.6082855541503411
 50
270.0816091550509
 51
274.077286120498
  0
ARC
  5
2CCD
  8
0
 10
277.77008417839522
 20
19.967790336441251
 30
0.0
 40
13.75320073497641
 50
89.911489623920517
 51
90.362851323483525
  0
ARC
  5
2CCE
  8
0
 10
278.03152882532657
 20
31.427332411641821
 30
0.0
 40
0.124631986431853
 50
9.496041653348378
 51
63.607475095636381
  0
ARC
  5
2CCF
  8
0
 10
277.84463570326761
 20
31.125022962470439
 30
0.0
 40
0.4796477674905816
 50
59.658654767606542
 51
74.698537553174432
  0
ARC
  5
2CD0
  8
0
 10
277.73490498193962
 20
30.758336012585801
 30
0.0
 40
0.8623413286374082
 50
74.095696440367604
 51
81.016280349502139
  0
LINE
  5
2CD1
  8
0
 10
277.90451200872673
 20
31.465585169304632
 30
0.0
 11
277.91565443113188
 21
31.45835554606974
 31
0.0
  0
LINE
  5
2CD2
  8
0
 10
277.8747144812927
 20
31.45022752890462
 30
0.0
 11
277.86218743847161
 21
31.458355545990312
 31
0.0
  0
LINE
  5
2CD3
  8
0
 10
277.91565443113188
 20
31.45835554606974
 30
0.0
 11
277.90312738829272
 21
31.45022752890462
 31
0.0
  0
LINE
  5
2CD4
  8
0
 10
277.86218743847161
 20
31.458355545990312
 30
0.0
 11
277.87332986095981
 21
31.465585169304632
 31
0.0
  0
LINE
  5
2CD5
  8
0
 10
277.90312738829272
 20
31.45022752890462
 30
0.0
 11
277.8747144812927
 21
31.45022752890462
 31
0.0
  0
LINE
  5
2CD6
  8
0
 10
277.87332986095981
 20
31.465585169304632
 30
0.0
 11
277.90451200872673
 21
31.465585169304632
 31
0.0
  0
LINE
  5
2CD7
  8
0
 10
277.90311698379332
 20
31.443462732704631
 30
0.0
 11
277.9142594061986
 21
31.43623310946975
 31
0.0
  0
LINE
  5
2CD8
  8
0
 10
277.8733194563593
 20
31.42810509230463
 30
0.0
 11
277.86079241353821
 21
31.436233109390312
 31
0.0
  0
LINE
  5
2CD9
  8
0
 10
277.9142594061986
 20
31.43623310946975
 30
0.0
 11
277.90173236335932
 21
31.42810509230463
 31
0.0
  0
LINE
  5
2CDA
  8
0
 10
277.86079241353821
 20
31.436233109390312
 30
0.0
 11
277.87193483602641
 21
31.443462732704631
 31
0.0
  0
LINE
  5
2CDB
  8
0
 10
277.90173236335932
 20
31.42810509230463
 30
0.0
 11
277.8733194563593
 21
31.42810509230463
 31
0.0
  0
LINE
  5
2CDC
  8
0
 10
277.87193483602641
 20
31.443462732704631
 30
0.0
 11
277.90311698379332
 21
31.443462732704631
 31
0.0
  0
LINE
  5
2CDD
  8
0
 10
277.90311698379332
 20
31.421340296104621
 30
0.0
 11
277.9142594061986
 21
31.414110672869739
 31
0.0
  0
LINE
  5
2CDE
  8
0
 10
277.8733194563593
 20
31.405982655704619
 30
0.0
 11
277.86079241353821
 21
31.414110672790311
 31
0.0
  0
LINE
  5
2CDF
  8
0
 10
277.9142594061986
 20
31.414110672869739
 30
0.0
 11
277.90173236335932
 21
31.405982655704619
 31
0.0
  0
LINE
  5
2CE0
  8
0
 10
277.86079241353821
 20
31.414110672790311
 30
0.0
 11
277.87193483602641
 21
31.421340296104621
 31
0.0
  0
LINE
  5
2CE1
  8
0
 10
277.90173236335932
 20
31.405982655704619
 30
0.0
 11
277.8733194563593
 21
31.405982655704619
 31
0.0
  0
LINE
  5
2CE2
  8
0
 10
277.87193483602641
 20
31.421340296104621
 30
0.0
 11
277.90311698379332
 21
31.421340296104621
 31
0.0
  0
LINE
  5
2CE3
  8
0
 10
277.90311698379332
 20
31.399217859504631
 30
0.0
 11
277.9142594061986
 21
31.391988236269739
 31
0.0
  0
LINE
  5
2CE4
  8
0
 10
277.8733194563593
 20
31.383860219104619
 30
0.0
 11
277.86079241353821
 21
31.391988236190311
 31
0.0
  0
LINE
  5
2CE5
  8
0
 10
277.9142594061986
 20
31.391988236269739
 30
0.0
 11
277.90173236335932
 21
31.383860219104619
 31
0.0
  0
LINE
  5
2CE6
  8
0
 10
277.86079241353821
 20
31.391988236190311
 30
0.0
 11
277.87193483602641
 21
31.399217859504631
 31
0.0
  0
LINE
  5
2CE7
  8
0
 10
277.90173236335932
 20
31.383860219104619
 30
0.0
 11
277.8733194563593
 21
31.383860219104619
 31
0.0
  0
LINE
  5
2CE8
  8
0
 10
277.87193483602641
 20
31.399217859504631
 30
0.0
 11
277.90311698379332
 21
31.399217859504631
 31
0.0
  0
LINE
  5
2CE9
  8
0
 10
277.90311698379332
 20
31.377095422804619
 30
0.0
 11
277.9142594061986
 21
31.369865799569752
 31
0.0
  0
LINE
  5
2CEA
  8
0
 10
277.8733194563593
 20
31.361737782404632
 30
0.0
 11
277.86079241353821
 21
31.369865799490309
 31
0.0
  0
LINE
  5
2CEB
  8
0
 10
277.9142594061986
 20
31.369865799569752
 30
0.0
 11
277.90173236335932
 21
31.361737782404632
 31
0.0
  0
LINE
  5
2CEC
  8
0
 10
277.86079241353821
 20
31.369865799490309
 30
0.0
 11
277.87193483602641
 21
31.377095422804619
 31
0.0
  0
LINE
  5
2CED
  8
0
 10
277.90173236335932
 20
31.361737782404632
 30
0.0
 11
277.8733194563593
 21
31.361737782404632
 31
0.0
  0
LINE
  5
2CEE
  8
0
 10
277.87193483602641
 20
31.377095422804619
 30
0.0
 11
277.90311698379332
 21
31.377095422804619
 31
0.0
  0
LINE
  5
2CEF
  8
0
 10
277.90311698379332
 20
31.354972986204629
 30
0.0
 11
277.9142594061986
 21
31.347743362969741
 31
0.0
  0
LINE
  5
2CF0
  8
0
 10
277.8733194563593
 20
31.339615345804631
 30
0.0
 11
277.86079241353821
 21
31.347743362890309
 31
0.0
  0
LINE
  5
2CF1
  8
0
 10
277.9142594061986
 20
31.347743362969741
 30
0.0
 11
277.90173236335932
 21
31.339615345804631
 31
0.0
  0
LINE
  5
2CF2
  8
0
 10
277.86079241353821
 20
31.347743362890309
 30
0.0
 11
277.87193483602641
 21
31.354972986204629
 31
0.0
  0
LINE
  5
2CF3
  8
0
 10
277.90173236335932
 20
31.339615345804631
 30
0.0
 11
277.8733194563593
 21
31.339615345804631
 31
0.0
  0
LINE
  5
2CF4
  8
0
 10
277.87193483602641
 20
31.354972986204629
 30
0.0
 11
277.90311698379332
 21
31.354972986204629
 31
0.0
  0
LINE
  5
2CF5
  8
0
 10
277.85336877622672
 20
31.498768824204632
 30
0.0
 11
277.86451119863187
 21
31.491539200969751
 31
0.0
  0
LINE
  5
2CF6
  8
0
 10
277.82357124879258
 20
31.48341118380463
 30
0.0
 11
277.8110442059716
 21
31.491539200890308
 31
0.0
  0
LINE
  5
2CF7
  8
0
 10
277.86451119863187
 20
31.491539200969751
 30
0.0
 11
277.85198415579271
 21
31.48341118380463
 31
0.0
  0
LINE
  5
2CF8
  8
0
 10
277.8110442059716
 20
31.491539200890308
 30
0.0
 11
277.8221866284598
 21
31.498768824204632
 31
0.0
  0
LINE
  5
2CF9
  8
0
 10
277.85198415579271
 20
31.48341118380463
 30
0.0
 11
277.82357124879258
 21
31.48341118380463
 31
0.0
  0
LINE
  5
2CFA
  8
0
 10
277.8221866284598
 20
31.498768824204632
 30
0.0
 11
277.85336877622672
 21
31.498768824204632
 31
0.0
  0
LINE
  5
2CFB
  8
0
 10
277.85336877627668
 20
31.476646387604621
 30
0.0
 11
277.8645111986819
 21
31.46941676436974
 31
0.0
  0
LINE
  5
2CFC
  8
0
 10
277.8235712488426
 20
31.46128874720462
 30
0.0
 11
277.81104420602162
 21
31.469416764290301
 31
0.0
  0
LINE
  5
2CFD
  8
0
 10
277.8645111986819
 20
31.46941676436974
 30
0.0
 11
277.85198415584267
 21
31.46128874720462
 31
0.0
  0
LINE
  5
2CFE
  8
0
 10
277.81104420602162
 20
31.469416764290301
 30
0.0
 11
277.82218662850983
 21
31.476646387604621
 31
0.0
  0
LINE
  5
2CFF
  8
0
 10
277.85198415584267
 20
31.46128874720462
 30
0.0
 11
277.8235712488426
 21
31.46128874720462
 31
0.0
  0
LINE
  5
2D00
  8
0
 10
277.82218662850983
 20
31.476646387604621
 30
0.0
 11
277.85336877627668
 21
31.476646387604621
 31
0.0
  0
LINE
  5
2D01
  8
0
 10
277.85336877627668
 20
31.454523951004631
 30
0.0
 11
277.8645111986819
 21
31.44729432776975
 31
0.0
  0
LINE
  5
2D02
  8
0
 10
277.8235712488426
 20
31.43916631060462
 30
0.0
 11
277.81104420602162
 21
31.447294327690312
 31
0.0
  0
LINE
  5
2D03
  8
0
 10
277.8645111986819
 20
31.44729432776975
 30
0.0
 11
277.85198415584267
 21
31.43916631060462
 31
0.0
  0
LINE
  5
2D04
  8
0
 10
277.81104420602162
 20
31.447294327690312
 30
0.0
 11
277.82218662850983
 21
31.454523951004631
 31
0.0
  0
LINE
  5
2D05
  8
0
 10
277.85198415584267
 20
31.43916631060462
 30
0.0
 11
277.8235712488426
 21
31.43916631060462
 31
0.0
  0
LINE
  5
2D06
  8
0
 10
277.82218662850983
 20
31.454523951004631
 30
0.0
 11
277.85336877627668
 21
31.454523951004631
 31
0.0
  0
LINE
  5
2D07
  8
0
 10
277.85336877617669
 20
31.432401514404621
 30
0.0
 11
277.86451119858202
 21
31.42517189116974
 31
0.0
  0
LINE
  5
2D08
  8
0
 10
277.82357124874272
 20
31.41704387400463
 30
0.0
 11
277.81104420592158
 21
31.425171891090312
 31
0.0
  0
LINE
  5
2D09
  8
0
 10
277.86451119858202
 20
31.42517189116974
 30
0.0
 11
277.85198415574263
 21
31.41704387400463
 31
0.0
  0
LINE
  5
2D0A
  8
0
 10
277.81104420592158
 20
31.425171891090312
 30
0.0
 11
277.82218662840978
 21
31.432401514404621
 31
0.0
  0
LINE
  5
2D0B
  8
0
 10
277.85198415574263
 20
31.41704387400463
 30
0.0
 11
277.82357124874272
 21
31.41704387400463
 31
0.0
  0
LINE
  5
2D0C
  8
0
 10
277.82218662840978
 20
31.432401514404621
 30
0.0
 11
277.85336877617669
 21
31.432401514404621
 31
0.0
  0
LINE
  5
2D0D
  8
0
 10
277.85336877617669
 20
31.410279077804631
 30
0.0
 11
277.86451119858202
 21
31.403049454569739
 31
0.0
  0
LINE
  5
2D0E
  8
0
 10
277.82357124874272
 20
31.394921437404619
 30
0.0
 11
277.81104420592158
 21
31.403049454490311
 31
0.0
  0
LINE
  5
2D0F
  8
0
 10
277.86451119858202
 20
31.403049454569739
 30
0.0
 11
277.85198415574263
 21
31.394921437404619
 31
0.0
  0
LINE
  5
2D10
  8
0
 10
277.81104420592158
 20
31.403049454490311
 30
0.0
 11
277.82218662840978
 21
31.410279077804631
 31
0.0
  0
LINE
  5
2D11
  8
0
 10
277.85198415574263
 20
31.394921437404619
 30
0.0
 11
277.82357124874272
 21
31.394921437404619
 31
0.0
  0
LINE
  5
2D12
  8
0
 10
277.82218662840978
 20
31.410279077804631
 30
0.0
 11
277.85336877617669
 21
31.410279077804631
 31
0.0
  0
LINE
  5
2D13
  8
0
 10
277.85336877622672
 20
31.388156641204631
 30
0.0
 11
277.86451119863187
 21
31.38092701796975
 31
0.0
  0
LINE
  5
2D14
  8
0
 10
277.82357124879258
 20
31.372799000804619
 30
0.0
 11
277.8110442059716
 21
31.380927017890311
 31
0.0
  0
LINE
  5
2D15
  8
0
 10
277.86451119863187
 20
31.38092701796975
 30
0.0
 11
277.85198415579271
 21
31.372799000804619
 31
0.0
  0
LINE
  5
2D16
  8
0
 10
277.8110442059716
 20
31.380927017890311
 30
0.0
 11
277.8221866284598
 21
31.388156641204631
 31
0.0
  0
LINE
  5
2D17
  8
0
 10
277.85198415579271
 20
31.372799000804619
 30
0.0
 11
277.82357124879258
 21
31.372799000804619
 31
0.0
  0
LINE
  5
2D18
  8
0
 10
277.8221866284598
 20
31.388156641204631
 30
0.0
 11
277.85336877622672
 21
31.388156641204631
 31
0.0
  0
LINE
  5
2D19
  8
0
 10
277.85336877622672
 20
31.366034204504619
 30
0.0
 11
277.86451119863187
 21
31.358804581269752
 31
0.0
  0
LINE
  5
2D1A
  8
0
 10
277.82357124879258
 20
31.350676564104631
 30
0.0
 11
277.8110442059716
 21
31.358804581190309
 31
0.0
  0
LINE
  5
2D1B
  8
0
 10
277.86451119863187
 20
31.358804581269752
 30
0.0
 11
277.85198415579271
 21
31.350676564104631
 31
0.0
  0
LINE
  5
2D1C
  8
0
 10
277.8110442059716
 20
31.358804581190309
 30
0.0
 11
277.8221866284598
 21
31.366034204504619
 31
0.0
  0
LINE
  5
2D1D
  8
0
 10
277.85198415579271
 20
31.350676564104631
 30
0.0
 11
277.82357124879258
 21
31.350676564104631
 31
0.0
  0
LINE
  5
2D1E
  8
0
 10
277.8221866284598
 20
31.366034204504619
 30
0.0
 11
277.85336877622672
 21
31.366034204504619
 31
0.0
  0
LINE
  5
2D1F
  8
0
 10
277.85336877622672
 20
31.343911767904618
 30
0.0
 11
277.86451119863187
 21
31.336682144669741
 31
0.0
  0
LINE
  5
2D20
  8
0
 10
277.82357124879258
 20
31.328554127504621
 30
0.0
 11
277.8110442059716
 21
31.336682144590309
 31
0.0
  0
LINE
  5
2D21
  8
0
 10
277.86451119863187
 20
31.336682144669741
 30
0.0
 11
277.85198415579271
 21
31.328554127504621
 31
0.0
  0
LINE
  5
2D22
  8
0
 10
277.8110442059716
 20
31.336682144590309
 30
0.0
 11
277.8221866284598
 21
31.343911767904618
 31
0.0
  0
LINE
  5
2D23
  8
0
 10
277.85198415579271
 20
31.328554127504621
 30
0.0
 11
277.82357124879258
 21
31.328554127504621
 31
0.0
  0
LINE
  5
2D24
  8
0
 10
277.8221866284598
 20
31.343911767904618
 30
0.0
 11
277.85336877622672
 21
31.343911767904618
 31
0.0
  0
LINE
  5
2D25
  8
0
 10
277.80222554367668
 20
31.51018838970462
 30
0.0
 11
277.81336796608201
 21
31.502958766469739
 31
0.0
  0
LINE
  5
2D26
  8
0
 10
277.77242801624271
 20
31.494830749304619
 30
0.0
 11
277.75990097342162
 21
31.502958766390311
 31
0.0
  0
LINE
  5
2D27
  8
0
 10
277.81336796608201
 20
31.502958766469739
 30
0.0
 11
277.80084092324267
 21
31.494830749304619
 31
0.0
  0
LINE
  5
2D28
  8
0
 10
277.75990097342162
 20
31.502958766390311
 30
0.0
 11
277.77104339590983
 21
31.51018838970462
 31
0.0
  0
LINE
  5
2D29
  8
0
 10
277.80084092324267
 20
31.494830749304619
 30
0.0
 11
277.77242801624271
 21
31.494830749304619
 31
0.0
  0
LINE
  5
2D2A
  8
0
 10
277.77104339590983
 20
31.51018838970462
 30
0.0
 11
277.80222554367668
 21
31.51018838970462
 31
0.0
  0
LINE
  5
2D2B
  8
0
 10
277.80222554372671
 20
31.465585169304632
 30
0.0
 11
277.81336796613198
 21
31.45835554606974
 31
0.0
  0
LINE
  5
2D2C
  8
0
 10
277.77242801629268
 20
31.45022752890462
 30
0.0
 11
277.75990097347159
 21
31.458355545990312
 31
0.0
  0
LINE
  5
2D2D
  8
0
 10
277.81336796613198
 20
31.45835554606974
 30
0.0
 11
277.80084092329258
 21
31.45022752890462
 31
0.0
  0
LINE
  5
2D2E
  8
0
 10
277.75990097347159
 20
31.458355545990312
 30
0.0
 11
277.77104339595979
 21
31.465585169304632
 31
0.0
  0
LINE
  5
2D2F
  8
0
 10
277.80084092329258
 20
31.45022752890462
 30
0.0
 11
277.77242801629268
 21
31.45022752890462
 31
0.0
  0
LINE
  5
2D30
  8
0
 10
277.77104339595979
 20
31.465585169304632
 30
0.0
 11
277.80222554372671
 21
31.465585169304632
 31
0.0
  0
LINE
  5
2D31
  8
0
 10
277.80222554367668
 20
31.487707605904621
 30
0.0
 11
277.81336796608201
 21
31.48047798266974
 31
0.0
  0
LINE
  5
2D32
  8
0
 10
277.77242801624271
 20
31.47234996550463
 30
0.0
 11
277.75990097342162
 21
31.480477982590308
 31
0.0
  0
LINE
  5
2D33
  8
0
 10
277.81336796608201
 20
31.48047798266974
 30
0.0
 11
277.80084092324267
 21
31.47234996550463
 31
0.0
  0
LINE
  5
2D34
  8
0
 10
277.75990097342162
 20
31.480477982590308
 30
0.0
 11
277.77104339590983
 21
31.487707605904621
 31
0.0
  0
LINE
  5
2D35
  8
0
 10
277.80084092324267
 20
31.47234996550463
 30
0.0
 11
277.77242801624271
 21
31.47234996550463
 31
0.0
  0
LINE
  5
2D36
  8
0
 10
277.77104339590983
 20
31.487707605904621
 30
0.0
 11
277.80222554367668
 21
31.487707605904621
 31
0.0
  0
LINE
  5
2D37
  8
0
 10
277.80222554367668
 20
31.443462732704631
 30
0.0
 11
277.81336796608201
 21
31.43623310946975
 31
0.0
  0
LINE
  5
2D38
  8
0
 10
277.77242801624271
 20
31.42810509230463
 30
0.0
 11
277.75990097342162
 21
31.436233109390312
 31
0.0
  0
LINE
  5
2D39
  8
0
 10
277.81336796608201
 20
31.43623310946975
 30
0.0
 11
277.80084092324267
 21
31.42810509230463
 31
0.0
  0
LINE
  5
2D3A
  8
0
 10
277.75990097342162
 20
31.436233109390312
 30
0.0
 11
277.77104339590983
 21
31.443462732704631
 31
0.0
  0
LINE
  5
2D3B
  8
0
 10
277.80084092324267
 20
31.42810509230463
 30
0.0
 11
277.77242801624271
 21
31.42810509230463
 31
0.0
  0
LINE
  5
2D3C
  8
0
 10
277.77104339590983
 20
31.443462732704631
 30
0.0
 11
277.80222554367668
 21
31.443462732704631
 31
0.0
  0
LINE
  5
2D3D
  8
0
 10
277.80222554377667
 20
31.421340296104621
 30
0.0
 11
277.813367966182
 21
31.414110672869739
 31
0.0
  0
LINE
  5
2D3E
  8
0
 10
277.77242801634259
 20
31.405982655704619
 30
0.0
 11
277.75990097352161
 21
31.414110672790311
 31
0.0
  0
LINE
  5
2D3F
  8
0
 10
277.813367966182
 20
31.414110672869739
 30
0.0
 11
277.80084092334261
 21
31.405982655704619
 31
0.0
  0
LINE
  5
2D40
  8
0
 10
277.75990097352161
 20
31.414110672790311
 30
0.0
 11
277.77104339600982
 21
31.421340296104621
 31
0.0
  0
LINE
  5
2D41
  8
0
 10
277.80084092334261
 20
31.405982655704619
 30
0.0
 11
277.77242801634259
 21
31.405982655704619
 31
0.0
  0
LINE
  5
2D42
  8
0
 10
277.7710433960097
 20
31.421340296104621
 30
0.0
 11
277.80222554377667
 21
31.421340296104621
 31
0.0
  0
LINE
  5
2D43
  8
0
 10
277.80222554367668
 20
31.399217859504631
 30
0.0
 11
277.81336796608201
 21
31.391988236269739
 31
0.0
  0
LINE
  5
2D44
  8
0
 10
277.77242801624271
 20
31.383860219104619
 30
0.0
 11
277.75990097342162
 21
31.391988236190311
 31
0.0
  0
LINE
  5
2D45
  8
0
 10
277.81336796608201
 20
31.391988236269739
 30
0.0
 11
277.80084092324267
 21
31.383860219104619
 31
0.0
  0
LINE
  5
2D46
  8
0
 10
277.75990097342162
 20
31.391988236190311
 30
0.0
 11
277.77104339590983
 21
31.399217859504631
 31
0.0
  0
LINE
  5
2D47
  8
0
 10
277.80084092324267
 20
31.383860219104619
 30
0.0
 11
277.77242801624271
 21
31.383860219104619
 31
0.0
  0
LINE
  5
2D48
  8
0
 10
277.77104339590983
 20
31.399217859504631
 30
0.0
 11
277.80222554367668
 21
31.399217859504631
 31
0.0
  0
LINE
  5
2D49
  8
0
 10
277.80222554367668
 20
31.377453770004621
 30
0.0
 11
277.81336796608201
 21
31.37022414676974
 31
0.0
  0
LINE
  5
2D4A
  8
0
 10
277.77242801624271
 20
31.36209612960462
 30
0.0
 11
277.75990097342162
 21
31.370224146690308
 31
0.0
  0
LINE
  5
2D4B
  8
0
 10
277.81336796608201
 20
31.37022414676974
 30
0.0
 11
277.80084092324267
 21
31.36209612960462
 31
0.0
  0
LINE
  5
2D4C
  8
0
 10
277.75990097342162
 20
31.370224146690308
 30
0.0
 11
277.77104339590983
 21
31.377453770004621
 31
0.0
  0
LINE
  5
2D4D
  8
0
 10
277.80084092324267
 20
31.36209612960462
 30
0.0
 11
277.77242801624271
 21
31.36209612960462
 31
0.0
  0
LINE
  5
2D4E
  8
0
 10
277.77104339590983
 20
31.377453770004621
 30
0.0
 11
277.80222554367668
 21
31.377453770004632
 31
0.0
  0
LINE
  5
2D4F
  8
0
 10
277.80222554367668
 20
31.354972986204629
 30
0.0
 11
277.81336796608201
 21
31.347743362969741
 31
0.0
  0
LINE
  5
2D50
  8
0
 10
277.77242801624271
 20
31.339615345804631
 30
0.0
 11
277.75990097342162
 21
31.347743362890309
 31
0.0
  0
LINE
  5
2D51
  8
0
 10
277.81336796608201
 20
31.347743362969741
 30
0.0
 11
277.80084092324267
 21
31.339615345804631
 31
0.0
  0
LINE
  5
2D52
  8
0
 10
277.75990097342162
 20
31.347743362890309
 30
0.0
 11
277.77104339590983
 21
31.354972986204629
 31
0.0
  0
LINE
  5
2D53
  8
0
 10
277.80084092324267
 20
31.339615345804631
 30
0.0
 11
277.77242801624271
 21
31.339615345804631
 31
0.0
  0
LINE
  5
2D54
  8
0
 10
277.77104339590983
 20
31.354972986204629
 30
0.0
 11
277.80222554367668
 21
31.354972986204629
 31
0.0
  0
LINE
  5
2D55
  8
0
 10
277.80222554372671
 20
31.332850549604618
 30
0.0
 11
277.81336796613198
 21
31.325620926369751
 31
0.0
  0
LINE
  5
2D56
  8
0
 10
277.77242801629268
 20
31.317492909204621
 30
0.0
 11
277.75990097347159
 21
31.325620926290309
 31
0.0
  0
LINE
  5
2D57
  8
0
 10
277.81336796613198
 20
31.325620926369751
 30
0.0
 11
277.80084092329258
 21
31.317492909204621
 31
0.0
  0
LINE
  5
2D58
  8
0
 10
277.75990097347159
 20
31.325620926290309
 30
0.0
 11
277.77104339595979
 21
31.332850549604618
 31
0.0
  0
LINE
  5
2D59
  8
0
 10
277.80084092329258
 20
31.317492909204621
 30
0.0
 11
277.77242801629268
 21
31.317492909204621
 31
0.0
  0
LINE
  5
2D5A
  8
0
 10
277.77104339595979
 20
31.332850549604618
 30
0.0
 11
277.80222554372671
 21
31.332850549604618
 31
0.0
  0
LINE
  5
2D5B
  8
0
 10
277.75108231117667
 20
31.52089126090463
 30
0.0
 11
277.76222473358189
 21
31.513661637669738
 31
0.0
  0
LINE
  5
2D5C
  8
0
 10
277.72128478374259
 20
31.505533620504622
 30
0.0
 11
277.70875774092161
 21
31.51366163759031
 31
0.0
  0
LINE
  5
2D5D
  8
0
 10
277.76222473358189
 20
31.513661637669738
 30
0.0
 11
277.74969769074272
 21
31.505533620504622
 31
0.0
  0
LINE
  5
2D5E
  8
0
 10
277.70875774092161
 20
31.51366163759031
 30
0.0
 11
277.71990016340982
 21
31.52089126090463
 31
0.0
  0
LINE
  5
2D5F
  8
0
 10
277.74969769074272
 20
31.505533620504622
 30
0.0
 11
277.72128478374259
 21
31.505533620504622
 31
0.0
  0
LINE
  5
2D60
  8
0
 10
277.71990016340982
 20
31.52089126090463
 30
0.0
 11
277.75108231117667
 21
31.52089126090463
 31
0.0
  0
LINE
  5
2D61
  8
0
 10
277.75108231117667
 20
31.498768824204632
 30
0.0
 11
277.76222473358189
 21
31.491539200969751
 31
0.0
  0
LINE
  5
2D62
  8
0
 10
277.72128478374259
 20
31.48341118380463
 30
0.0
 11
277.70875774092161
 21
31.491539200890308
 31
0.0
  0
LINE
  5
2D63
  8
0
 10
277.76222473358189
 20
31.491539200969751
 30
0.0
 11
277.74969769074272
 21
31.48341118380463
 31
0.0
  0
LINE
  5
2D64
  8
0
 10
277.70875774092161
 20
31.491539200890308
 30
0.0
 11
277.71990016340982
 21
31.498768824204632
 31
0.0
  0
LINE
  5
2D65
  8
0
 10
277.74969769074272
 20
31.48341118380463
 30
0.0
 11
277.72128478374259
 21
31.48341118380463
 31
0.0
  0
LINE
  5
2D66
  8
0
 10
277.71990016340982
 20
31.498768824204632
 30
0.0
 11
277.75108231117667
 21
31.498768824204632
 31
0.0
  0
LINE
  5
2D67
  8
0
 10
277.75108231117667
 20
31.476646387604621
 30
0.0
 11
277.76222473358189
 21
31.46941676436974
 31
0.0
  0
LINE
  5
2D68
  8
0
 10
277.72128478374259
 20
31.46128874720462
 30
0.0
 11
277.70875774092161
 21
31.469416764290301
 31
0.0
  0
LINE
  5
2D69
  8
0
 10
277.76222473358189
 20
31.46941676436974
 30
0.0
 11
277.74969769074272
 21
31.46128874720462
 31
0.0
  0
LINE
  5
2D6A
  8
0
 10
277.70875774092161
 20
31.469416764290301
 30
0.0
 11
277.71990016340982
 21
31.476646387604621
 31
0.0
  0
LINE
  5
2D6B
  8
0
 10
277.74969769074272
 20
31.46128874720462
 30
0.0
 11
277.72128478374259
 21
31.46128874720462
 31
0.0
  0
LINE
  5
2D6C
  8
0
 10
277.71990016340982
 20
31.476646387604621
 30
0.0
 11
277.75108231117667
 21
31.476646387604621
 31
0.0
  0
LINE
  5
2D6D
  8
0
 10
277.7510823112267
 20
31.454523951004631
 30
0.0
 11
277.76222473363202
 21
31.44729432776975
 31
0.0
  0
LINE
  5
2D6E
  8
0
 10
277.72128478379261
 20
31.43916631060462
 30
0.0
 11
277.70875774097158
 21
31.447294327690312
 31
0.0
  0
LINE
  5
2D6F
  8
0
 10
277.76222473363202
 20
31.44729432776975
 30
0.0
 11
277.74969769079257
 21
31.43916631060462
 31
0.0
  0
LINE
  5
2D70
  8
0
 10
277.70875774097158
 20
31.447294327690312
 30
0.0
 11
277.71990016345978
 21
31.454523951004631
 31
0.0
  0
LINE
  5
2D71
  8
0
 10
277.74969769079257
 20
31.43916631060462
 30
0.0
 11
277.72128478379261
 21
31.43916631060462
 31
0.0
  0
LINE
  5
2D72
  8
0
 10
277.71990016345978
 20
31.454523951004631
 30
0.0
 11
277.7510823112267
 21
31.454523951004631
 31
0.0
  0
LINE
  5
2D73
  8
0
 10
277.7510823112267
 20
31.432401514404621
 30
0.0
 11
277.76222473363202
 21
31.42517189116974
 31
0.0
  0
LINE
  5
2D74
  8
0
 10
277.72128478379261
 20
31.41704387400463
 30
0.0
 11
277.70875774097158
 21
31.425171891090312
 31
0.0
  0
LINE
  5
2D75
  8
0
 10
277.76222473363202
 20
31.42517189116974
 30
0.0
 11
277.74969769079257
 21
31.41704387400463
 31
0.0
  0
LINE
  5
2D76
  8
0
 10
277.70875774097158
 20
31.425171891090312
 30
0.0
 11
277.71990016345978
 21
31.432401514404621
 31
0.0
  0
LINE
  5
2D77
  8
0
 10
277.74969769079257
 20
31.41704387400463
 30
0.0
 11
277.72128478379261
 21
31.41704387400463
 31
0.0
  0
LINE
  5
2D78
  8
0
 10
277.71990016345978
 20
31.432401514404621
 30
0.0
 11
277.7510823112267
 21
31.432401514404621
 31
0.0
  0
LINE
  5
2D79
  8
0
 10
277.7510823112267
 20
31.410279077804631
 30
0.0
 11
277.76222473363202
 21
31.403049454569739
 31
0.0
  0
LINE
  5
2D7A
  8
0
 10
277.72128478379261
 20
31.394921437404619
 30
0.0
 11
277.70875774097158
 21
31.403049454490311
 31
0.0
  0
LINE
  5
2D7B
  8
0
 10
277.76222473363202
 20
31.403049454569739
 30
0.0
 11
277.74969769079257
 21
31.394921437404619
 31
0.0
  0
LINE
  5
2D7C
  8
0
 10
277.70875774097158
 20
31.403049454490311
 30
0.0
 11
277.71990016345978
 21
31.410279077804631
 31
0.0
  0
LINE
  5
2D7D
  8
0
 10
277.74969769079257
 20
31.394921437404619
 30
0.0
 11
277.72128478379261
 21
31.394921437404619
 31
0.0
  0
LINE
  5
2D7E
  8
0
 10
277.71990016345978
 20
31.410279077804631
 30
0.0
 11
277.7510823112267
 21
31.410279077804631
 31
0.0
  0
LINE
  5
2D7F
  8
0
 10
277.7510823112267
 20
31.388156641204631
 30
0.0
 11
277.76222473363202
 21
31.38092701796975
 31
0.0
  0
LINE
  5
2D80
  8
0
 10
277.72128478379261
 20
31.372799000804619
 30
0.0
 11
277.70875774097158
 21
31.380927017890311
 31
0.0
  0
LINE
  5
2D81
  8
0
 10
277.76222473363202
 20
31.38092701796975
 30
0.0
 11
277.74969769079257
 21
31.372799000804619
 31
0.0
  0
LINE
  5
2D82
  8
0
 10
277.70875774097158
 20
31.380927017890311
 30
0.0
 11
277.71990016345978
 21
31.388156641204631
 31
0.0
  0
LINE
  5
2D83
  8
0
 10
277.74969769079257
 20
31.372799000804619
 30
0.0
 11
277.72128478379261
 21
31.372799000804619
 31
0.0
  0
LINE
  5
2D84
  8
0
 10
277.71990016345978
 20
31.388156641204631
 30
0.0
 11
277.7510823112267
 21
31.388156641204631
 31
0.0
  0
LINE
  5
2D85
  8
0
 10
277.75108231117667
 20
31.366034204504619
 30
0.0
 11
277.76222473358189
 21
31.358804581269752
 31
0.0
  0
LINE
  5
2D86
  8
0
 10
277.72128478374259
 20
31.350676564104631
 30
0.0
 11
277.70875774092161
 21
31.358804581190309
 31
0.0
  0
LINE
  5
2D87
  8
0
 10
277.76222473358189
 20
31.358804581269752
 30
0.0
 11
277.74969769074272
 21
31.350676564104631
 31
0.0
  0
LINE
  5
2D88
  8
0
 10
277.70875774092161
 20
31.358804581190309
 30
0.0
 11
277.71990016340982
 21
31.366034204504619
 31
0.0
  0
LINE
  5
2D89
  8
0
 10
277.74969769074272
 20
31.350676564104631
 30
0.0
 11
277.72128478374259
 21
31.350676564104631
 31
0.0
  0
LINE
  5
2D8A
  8
0
 10
277.71990016340982
 20
31.366034204504619
 30
0.0
 11
277.75108231117667
 21
31.366034204504619
 31
0.0
  0
LINE
  5
2D8B
  8
0
 10
277.75108231117667
 20
31.343911767904618
 30
0.0
 11
277.76222473358189
 21
31.336682144669741
 31
0.0
  0
LINE
  5
2D8C
  8
0
 10
277.72128478374259
 20
31.328554127504621
 30
0.0
 11
277.70875774092161
 21
31.336682144590309
 31
0.0
  0
LINE
  5
2D8D
  8
0
 10
277.76222473358189
 20
31.336682144669741
 30
0.0
 11
277.74969769074272
 21
31.328554127504621
 31
0.0
  0
LINE
  5
2D8E
  8
0
 10
277.70875774092161
 20
31.336682144590309
 30
0.0
 11
277.71990016340982
 21
31.343911767904618
 31
0.0
  0
LINE
  5
2D8F
  8
0
 10
277.74969769074272
 20
31.328554127504621
 30
0.0
 11
277.72128478374259
 21
31.328554127504621
 31
0.0
  0
LINE
  5
2D90
  8
0
 10
277.71990016340982
 20
31.343911767904618
 30
0.0
 11
277.75108231117667
 21
31.343911767904618
 31
0.0
  0
LINE
  5
2D91
  8
0
 10
277.7510823112267
 20
31.321789331304618
 30
0.0
 11
277.76222473363202
 21
31.314559708069751
 31
0.0
  0
LINE
  5
2D92
  8
0
 10
277.72128478379261
 20
31.306431690904631
 30
0.0
 11
277.70875774097158
 21
31.314559707990309
 31
0.0
  0
LINE
  5
2D93
  8
0
 10
277.76222473363202
 20
31.314559708069751
 30
0.0
 11
277.75163841147349
 21
31.307690903570261
 31
0.0
  0
LINE
  5
2D94
  8
0
 10
277.70875774097158
 20
31.314559707990309
 30
0.0
 11
277.71990016345978
 21
31.321789331304618
 31
0.0
  0
LINE
  5
2D95
  8
0
 10
277.73489156330271
 20
31.306431690904631
 30
0.0
 11
277.72128478379261
 21
31.306431690904631
 31
0.0
  0
LINE
  5
2D96
  8
0
 10
277.71990016345978
 20
31.321789331304618
 30
0.0
 11
277.7510823112267
 21
31.321789331304618
 31
0.0
  0
LINE
  5
2D97
  8
0
 10
277.92585771374257
 20
31.46128874720462
 30
0.0
 11
277.9133306709216
 21
31.469416764290301
 31
0.0
  0
LINE
  5
2D98
  8
0
 10
277.96548738065252
 20
31.4685666034596
 30
0.0
 11
277.95427062074259
 21
31.46128874720462
 31
0.0
  0
LINE
  5
2D99
  8
0
 10
277.9133306709216
 20
31.469416764290301
 30
0.0
 11
277.9244730934098
 21
31.476646387604621
 31
0.0
  0
LINE
  5
2D9A
  8
0
 10
277.95427062074259
 20
31.46128874720462
 30
0.0
 11
277.92585771374257
 21
31.46128874720462
 31
0.0
  0
LINE
  5
2D9B
  8
0
 10
277.9244730934098
 20
31.476646387604621
 30
0.0
 11
277.95356454488558
 21
31.476646387604621
 31
0.0
  0
LINE
  5
2D9C
  8
0
 10
277.9556552412767
 20
31.454523951004631
 30
0.0
 11
277.96679766368197
 21
31.44729432776975
 31
0.0
  0
LINE
  5
2D9D
  8
0
 10
277.92585771384267
 20
31.43916631060462
 30
0.0
 11
277.91333067102158
 21
31.447294327690312
 31
0.0
  0
LINE
  5
2D9E
  8
0
 10
277.96679766368197
 20
31.44729432776975
 30
0.0
 11
277.95427062084269
 21
31.43916631060462
 31
0.0
  0
LINE
  5
2D9F
  8
0
 10
277.9133306710217
 20
31.447294327690312
 30
0.0
 11
277.92447309350979
 21
31.454523951004631
 31
0.0
  0
LINE
  5
2DA0
  8
0
 10
277.95427062084269
 20
31.43916631060462
 30
0.0
 11
277.92585771384267
 21
31.43916631060462
 31
0.0
  0
LINE
  5
2DA1
  8
0
 10
277.92447309350979
 20
31.454523951004631
 30
0.0
 11
277.9556552412767
 21
31.454523951004631
 31
0.0
  0
LINE
  5
2DA2
  8
0
 10
277.9556552412767
 20
31.432401514404621
 30
0.0
 11
277.96679766368197
 21
31.42517189116974
 31
0.0
  0
LINE
  5
2DA3
  8
0
 10
277.92585771384267
 20
31.41704387400463
 30
0.0
 11
277.91333067102158
 21
31.425171891090312
 31
0.0
  0
LINE
  5
2DA4
  8
0
 10
277.96679766368197
 20
31.42517189116974
 30
0.0
 11
277.95427062084269
 21
31.41704387400463
 31
0.0
  0
LINE
  5
2DA5
  8
0
 10
277.9133306710217
 20
31.425171891090312
 30
0.0
 11
277.92447309350979
 21
31.432401514404621
 31
0.0
  0
LINE
  5
2DA6
  8
0
 10
277.95427062084269
 20
31.41704387400463
 30
0.0
 11
277.92585771384267
 21
31.41704387400463
 31
0.0
  0
LINE
  5
2DA7
  8
0
 10
277.92447309350979
 20
31.432401514404621
 30
0.0
 11
277.9556552412767
 21
31.432401514404621
 31
0.0
  0
LINE
  5
2DA8
  8
0
 10
277.95565524122668
 20
31.410279077804631
 30
0.0
 11
277.96679766363201
 21
31.403049454569739
 31
0.0
  0
LINE
  5
2DA9
  8
0
 10
277.92585771379271
 20
31.394921437404619
 30
0.0
 11
277.91333067097162
 21
31.403049454490311
 31
0.0
  0
LINE
  5
2DAA
  8
0
 10
277.96679766363201
 20
31.403049454569739
 30
0.0
 11
277.95427062079261
 21
31.394921437404619
 31
0.0
  0
LINE
  5
2DAB
  8
0
 10
277.91333067097162
 20
31.403049454490311
 30
0.0
 11
277.92447309345982
 21
31.410279077804631
 31
0.0
  0
LINE
  5
2DAC
  8
0
 10
277.95427062079261
 20
31.394921437404619
 30
0.0
 11
277.92585771379271
 21
31.394921437404619
 31
0.0
  0
LINE
  5
2DAD
  8
0
 10
277.92447309345982
 20
31.410279077804631
 30
0.0
 11
277.95565524122668
 21
31.410279077804631
 31
0.0
  0
LINE
  5
2DAE
  8
0
 10
277.9556552412767
 20
31.388156641204631
 30
0.0
 11
277.96679766368197
 21
31.38092701796975
 31
0.0
  0
LINE
  5
2DAF
  8
0
 10
277.92585771384267
 20
31.372799000804619
 30
0.0
 11
277.91333067102158
 21
31.380927017890311
 31
0.0
  0
LINE
  5
2DB0
  8
0
 10
277.96679766368197
 20
31.38092701796975
 30
0.0
 11
277.95427062084269
 21
31.372799000804619
 31
0.0
  0
LINE
  5
2DB1
  8
0
 10
277.9133306710217
 20
31.380927017890311
 30
0.0
 11
277.92447309350979
 21
31.388156641204631
 31
0.0
  0
LINE
  5
2DB2
  8
0
 10
277.95427062084269
 20
31.372799000804619
 30
0.0
 11
277.92585771384267
 21
31.372799000804619
 31
0.0
  0
LINE
  5
2DB3
  8
0
 10
277.92447309350979
 20
31.388156641204631
 30
0.0
 11
277.9556552412767
 21
31.388156641204631
 31
0.0
  0
LINE
  5
2DB4
  8
0
 10
277.95316808722669
 20
31.366034204504619
 30
0.0
 11
277.95564886159377
 21
31.364424584679391
 31
0.0
  0
LINE
  5
2DB5
  8
0
 10
277.92337055979272
 20
31.350676564104631
 30
0.0
 11
277.91084351697162
 21
31.358804581190309
 31
0.0
  0
LINE
  5
2DB6
  8
0
 10
277.91084351697162
 20
31.358804581190309
 30
0.0
 11
277.92198593945977
 21
31.366034204504619
 31
0.0
  0
LINE
  5
2DB7
  8
0
 10
277.93149026008302
 20
31.350676564104631
 30
0.0
 11
277.92337055979272
 21
31.350676564104631
 31
0.0
  0
LINE
  5
2DB8
  8
0
 10
277.92198593945977
 20
31.366034204504619
 30
0.0
 11
277.95316808722669
 21
31.366034204504619
 31
0.0
  0
LINE
  5
2DB9
  8
0
 10
277.97739407789271
 20
31.42810509230463
 30
0.0
 11
277.96486703507162
 21
31.436233109390312
 31
0.0
  0
LINE
  5
2DBA
  8
0
 10
277.96486703507162
 20
31.436233109390312
 30
0.0
 11
277.97600945755983
 21
31.443462732704631
 31
0.0
  0
LINE
  5
2DBB
  8
0
 10
277.99691084617382
 20
31.42810509230463
 30
0.0
 11
277.97739407789271
 21
31.42810509230463
 31
0.0
  0
LINE
  5
2DBC
  8
0
 10
277.97600945755983
 20
31.443462732704631
 30
0.0
 11
277.99070423409211
 21
31.443462732704631
 31
0.0
  0
LINE
  5
2DBD
  8
0
 10
277.98093263514221
 20
31.405982655704619
 30
0.0
 11
277.96840559232118
 21
31.414110672790311
 31
0.0
  0
LINE
  5
2DBE
  8
0
 10
277.96840559232118
 20
31.414110672790311
 30
0.0
 11
277.97954801480938
 21
31.421340296104621
 31
0.0
  0
LINE
  5
2DBF
  8
0
 10
277.99592075555131
 20
31.405982655704619
 30
0.0
 11
277.98093263514221
 21
31.405982655704619
 31
0.0
  0
LINE
  5
2DC0
  8
0
 10
277.97954801480938
 20
31.421340296104621
 30
0.0
 11
277.99821183250509
 21
31.421340296104621
 31
0.0
  0
LINE
  5
2DC1
  8
0
 10
277.97837787699268
 20
31.383860219104619
 30
0.0
 11
277.96585083417159
 21
31.391988236190311
 31
0.0
  0
LINE
  5
2DC2
  8
0
 10
277.96585083417159
 20
31.391988236190311
 30
0.0
 11
277.9769932566598
 21
31.399217859504631
 31
0.0
  0
LINE
  5
2DC3
  8
0
 10
277.9809398268111
 20
31.383860219104619
 30
0.0
 11
277.97837787699268
 21
31.383860219104619
 31
0.0
  0
LINE
  5
2DC4
  8
0
 10
277.9769932566598
 20
31.399217859504631
 30
0.0
 11
277.99235139399468
 21
31.399217859504631
 31
0.0
  0
LINE
  5
2DC5
  8
0
 10
277.977707776329
 20
31.453621763451451
 30
0.0
 11
277.96518073350791
 21
31.461749780537129
 31
0.0
  0
LINE
  5
2DC6
  8
0
 10
277.96518073350791
 20
31.461749780537129
 30
0.0
 11
277.9702680892496
 21
31.465050648523121
 31
0.0
  0
LINE
  5
2DC7
  8
0
 10
277.98337731128032
 20
31.453621763451451
 30
0.0
 11
277.977707776329
 21
31.453621763451451
 31
0.0
  0
LINE
  5
2DC8
  8
0
 10
277.8733194563593
 20
31.494472402204622
 30
0.0
 11
277.86079241353821
 21
31.5026004192903
 31
0.0
  0
LINE
  5
2DC9
  8
0
 10
277.90926738477287
 20
31.499361407868189
 30
0.0
 11
277.90173236335932
 21
31.494472402204622
 31
0.0
  0
LINE
  5
2DCA
  8
0
 10
277.86079241353821
 20
31.5026004192903
 30
0.0
 11
277.87193483602641
 21
31.509830042604619
 31
0.0
  0
LINE
  5
2DCB
  8
0
 10
277.90173236335932
 20
31.494472402204622
 30
0.0
 11
277.8733194563593
 21
31.494472402204622
 31
0.0
  0
LINE
  5
2DCC
  8
0
 10
277.87193483602641
 20
31.509830042604619
 30
0.0
 11
277.87717971845882
 21
31.509830042604619
 31
0.0
  0
LINE
  5
2DCD
  8
0
 10
277.82217622385929
 20
31.505533620504622
 30
0.0
 11
277.80964918103831
 21
31.51366163759031
 31
0.0
  0
LINE
  5
2DCE
  8
0
 10
277.86291908069887
 20
31.513533756308998
 30
0.0
 11
277.8505891308593
 21
31.505533620504622
 31
0.0
  0
LINE
  5
2DCF
  8
0
 10
277.80964918103831
 20
31.51366163759031
 30
0.0
 11
277.8207916035264
 21
31.52089126090463
 31
0.0
  0
LINE
  5
2DD0
  8
0
 10
277.8505891308593
 20
31.505533620504622
 30
0.0
 11
277.82217622385929
 21
31.505533620504622
 31
0.0
  0
LINE
  5
2DD1
  8
0
 10
277.8207916035264
 20
31.52089126090463
 30
0.0
 11
277.83063892202318
 21
31.52089126090463
 31
0.0
  0
LINE
  5
2DD2
  8
0
 10
277.77103299135928
 20
31.516594838804622
 30
0.0
 11
277.7585059485383
 21
31.52472285589031
 31
0.0
  0
LINE
  5
2DD3
  8
0
 10
277.81153332514072
 20
31.524437616515371
 30
0.0
 11
277.79944589835929
 21
31.516594838804622
 31
0.0
  0
LINE
  5
2DD4
  8
0
 10
277.7585059485383
 20
31.52472285589031
 30
0.0
 11
277.76726593516707
 21
31.530406665100749
 31
0.0
  0
LINE
  5
2DD5
  8
0
 10
277.79944589835929
 20
31.516594838804622
 30
0.0
 11
277.77103299135928
 21
31.516594838804622
 31
0.0
  0
LINE
  5
2DD6
  8
0
 10
277.7198897588093
 20
31.527656057104618
 30
0.0
 11
277.70969546626549
 21
31.534270497971121
 31
0.0
  0
LINE
  5
2DD7
  8
0
 10
277.75433116716027
 20
31.531567575815782
 30
0.0
 11
277.74830266580932
 21
31.527656057104618
 31
0.0
  0
LINE
  5
2DD8
  8
0
 10
277.74830266580932
 20
31.527656057104618
 30
0.0
 11
277.7198897588093
 21
31.527656057104618
 31
0.0
  0
ENDSEC
  0
EOF
