  0
SECTION
  2
HEADER
  9
$ACADVER
  1
AC1009
  9
$INSBASE
 10
214.34343874448371
 20
142.97408037917711
 30
0.0
  9
$EXTMIN
 10
204.48864777572831
 20
142.9645340037975
 30
0.0
  9
$EXTMAX
 10
215.59343847737551
 20
153.16751998361531
 30
0.0
  9
$LIMMIN
 10
0.0
 20
0.0
  9
$LIMMAX
 10
12.0
 20
9.0
  9
$ORTHOMODE
 70
     0
  9
$REGENMODE
 70
     1
  9
$FILLMODE
 70
     1
  9
$QTEXTMODE
 70
     0
  9
$MIRRTEXT
 70
     0
  9
$DRAGMODE
 70
     2
  9
$LTSCALE
 40
1.0
  9
$OSMODE
 70
    47
  9
$ATTMODE
 70
     1
  9
$TEXTSIZE
 40
0.2
  9
$TRACEWID
 40
0.05
  9
$TEXTSTYLE
  7
STANDARD
  9
$CLAYER
  8
0
  9
$CELTYPE
  6
BYLAYER
  9
$CECOLOR
 62
   256
  9
$DIMSCALE
 40
1.0
  9
$DIMASZ
 40
0.18
  9
$DIMEXO
 40
0.0625
  9
$DIMDLI
 40
0.38
  9
$DIMRND
 40
0.0
  9
$DIMDLE
 40
0.0
  9
$DIMEXE
 40
0.18
  9
$DIMTP
 40
0.0
  9
$DIMTM
 40
0.0
  9
$DIMTXT
 40
0.18
  9
$DIMCEN
 40
0.09
  9
$DIMTSZ
 40
0.0
  9
$DIMTOL
 70
     0
  9
$DIMLIM
 70
     0
  9
$DIMTIH
 70
     1
  9
$DIMTOH
 70
     1
  9
$DIMSE1
 70
     0
  9
$DIMSE2
 70
     0
  9
$DIMTAD
 70
     0
  9
$DIMZIN
 70
     0
  9
$DIMBLK
  1

  9
$DIMASO
 70
     1
  9
$DIMSHO
 70
     1
  9
$DIMPOST
  1

  9
$DIMAPOST
  1

  9
$DIMALT
 70
     0
  9
$DIMALTD
 70
     2
  9
$DIMALTF
 40
25.399999999999999
  9
$DIMLFAC
 40
1.0
  9
$DIMTOFL
 70
     0
  9
$DIMTVP
 40
0.0
  9
$DIMTIX
 70
     0
  9
$DIMSOXD
 70
     0
  9
$DIMSAH
 70
     0
  9
$DIMBLK1
  1

  9
$DIMBLK2
  1

  9
$DIMSTYLE
  2
STANDARD
  9
$DIMCLRD
 70
     0
  9
$DIMCLRE
 70
     0
  9
$DIMCLRT
 70
     0
  9
$DIMTFAC
 40
1.0
  9
$DIMGAP
 40
0.09
  9
$LUNITS
 70
     2
  9
$LUPREC
 70
     4
  9
$SKETCHINC
 40
0.1
  9
$FILLETRAD
 40
0.0
  9
$AUNITS
 70
     0
  9
$AUPREC
 70
     0
  9
$MENU
  1
.
  9
$ELEVATION
 40
0.0
  9
$PELEVATION
 40
0.0
  9
$THICKNESS
 40
0.0
  9
$LIMCHECK
 70
     0
  9
$BLIPMODE
 70
     0
  9
$CHAMFERA
 40
0.0
  9
$CHAMFERB
 40
0.0
  9
$SKPOLY
 70
     0
  9
$TDCREATE
 40
2457199.6333017359
  9
$TDUPDATE
 40
2457323.5142787038
  9
$TDINDWG
 40
0.1243410995
  9
$TDUSRTIMER
 40
0.1243410764
  9
$USRTIMER
 70
     1
  9
$ANGBASE
 50
0.0
  9
$ANGDIR
 70
     0
  9
$PDMODE
 70
     0
  9
$PDSIZE
 40
0.0
  9
$PLINEWID
 40
0.0
  9
$COORDS
 70
     1
  9
$SPLFRAME
 70
     0
  9
$SPLINETYPE
 70
     6
  9
$SPLINESEGS
 70
     8
  9
$ATTDIA
 70
     0
  9
$ATTREQ
 70
     1
  9
$HANDLING
 70
     1
  9
$HANDSEED
  5
5DD
  9
$SURFTAB1
 70
     6
  9
$SURFTAB2
 70
     6
  9
$SURFTYPE
 70
     6
  9
$SURFU
 70
     6
  9
$SURFV
 70
     6
  9
$UCSNAME
  2

  9
$UCSORG
 10
0.0
 20
0.0
 30
0.0
  9
$UCSXDIR
 10
1.0
 20
0.0
 30
0.0
  9
$UCSYDIR
 10
0.0
 20
1.0
 30
0.0
  9
$PUCSNAME
  2

  9
$PUCSORG
 10
0.0
 20
0.0
 30
0.0
  9
$PUCSXDIR
 10
1.0
 20
0.0
 30
0.0
  9
$PUCSYDIR
 10
0.0
 20
1.0
 30
0.0
  9
$USERI1
 70
     0
  9
$USERI2
 70
     0
  9
$USERI3
 70
     0
  9
$USERI4
 70
     0
  9
$USERI5
 70
     0
  9
$USERR1
 40
0.0
  9
$USERR2
 40
0.0
  9
$USERR3
 40
0.0
  9
$USERR4
 40
0.0
  9
$USERR5
 40
0.0
  9
$WORLDVIEW
 70
     1
  9
$SHADEDGE
 70
     3
  9
$SHADEDIF
 70
    70
  9
$TILEMODE
 70
     1
  9
$MAXACTVP
 70
    64
  9
$PLIMCHECK
 70
     0
  9
$PEXTMIN
 10
0.0
 20
0.0
 30
0.0
  9
$PEXTMAX
 10
0.0
 20
0.0
 30
0.0
  9
$PLIMMIN
 10
0.0
 20
0.0
  9
$PLIMMAX
 10
12.0
 20
9.0
  9
$UNITMODE
 70
     0
  9
$VISRETAIN
 70
     1
  9
$PLINEGEN
 70
     0
  9
$PSLTSCALE
 70
     1
  0
ENDSEC
  0
SECTION
  2
TABLES
  0
TABLE
  2
VPORT
 70
     1
  0
VPORT
  2
*ACTIVE
 70
     0
 10
0.0
 20
0.0
 11
1.0
 21
1.0
 12
211.7048448983235
 22
145.73426575478251
 13
0.0
 23
0.0
 14
0.5
 24
0.5
 15
0.5
 25
0.5
 16
0.0
 26
0.0
 36
1.0
 17
0.0
 27
0.0
 37
0.0
 40
21.564842057012932
 41
2.0329087048832268
 42
50.0
 43
0.0
 44
0.0
 50
0.0
 51
0.0
 71
     0
 72
  1000
 73
     1
 74
     3
 75
     0
 76
     1
 77
     0
 78
     0
  0
ENDTAB
  0
TABLE
  2
LTYPE
 70
     1
  0
LTYPE
  2
CONTINUOUS
 70
     0
  3
Solid line
 72
    65
 73
     0
 40
0.0
  0
ENDTAB
  0
TABLE
  2
LAYER
 70
     2
  0
LAYER
  2
0
 70
     0
 62
     7
  6
CONTINUOUS
  0
LAYER
  2
DEFPOINTS
 70
     0
 62
     7
  6
CONTINUOUS
  0
ENDTAB
  0
TABLE
  2
STYLE
 70
     1
  0
STYLE
  2
STANDARD
 70
     0
 40
0.0
 41
1.0
 50
0.0
 71
     0
 42
0.2
  3
txt
  4

  0
ENDTAB
  0
TABLE
  2
VIEW
 70
     0
  0
ENDTAB
  0
TABLE
  2
UCS
 70
     0
  0
ENDTAB
  0
TABLE
  2
APPID
 70
     9
  0
APPID
  2
ACAD
 70
     0
  0
APPID
  2
ACADANNOPO
 70
     0
  0
APPID
  2
ACADANNOTATIVE
 70
     0
  0
APPID
  2
ACAD_DSTYLE_DIMJAG
 70
     0
  0
APPID
  2
ACAD_DSTYLE_DIMTALN
 70
     0
  0
APPID
  2
ACAD_MLEADERVER
 70
     0
  0
APPID
  2
ACAD_NAV_VCDISPLAY
 70
     0
  0
APPID
  2
ACAD_EXEMPT_FROM_CAD_STANDARDS
 70
     0
  0
APPID
  2
ACDBATTR
 70
     0
  0
ENDTAB
  0
TABLE
  2
DIMSTYLE
 70
     1
  0
DIMSTYLE
  2
STANDARD
 70
     0
  3

  4

  5

  6

  7

 40
1.0
 41
0.18
 42
0.0625
 43
0.38
 44
0.18
 45
0.0
 46
0.0
 47
0.0
 48
0.0
140
0.18
141
0.09
142
0.0
143
25.399999999999999
144
1.0
145
0.0
146
1.0
147
0.09
 71
     0
 72
     0
 73
     1
 74
     1
 75
     0
 76
     0
 77
     0
 78
     0
170
     0
171
     2
172
     0
173
     0
174
     0
175
     0
176
     0
177
     0
178
     0
  0
ENDTAB
  0
ENDSEC
  0
SECTION
  2
BLOCKS
  0
BLOCK
  8
0
  2
$MODEL_SPACE
 70
     0
 10
0.0
 20
0.0
 30
0.0
  3
$MODEL_SPACE
  1

  0
ENDBLK
  5
21
  8
0
  0
BLOCK
 67
     1
  8
0
  2
$PAPER_SPACE
 70
     0
 10
0.0
 20
0.0
 30
0.0
  3
$PAPER_SPACE
  1

  0
ENDBLK
  5
5B
 67
     1
  8
0
  0
ENDSEC
  0
SECTION
  2
ENTITIES
  0
LINE
  5
3BD
  8
0
 10
215.59342836706679
 20
142.97351407700799
 30
0.0
 11
213.09344912190059
 21
142.9746466813462
 31
0.0
  0
LINE
  5
3BE
  8
0
 10
215.59343847737551
 20
142.97351407242519
 30
0.0
 11
215.58531591579089
 21
143.1211967614087
 31
0.0
  0
LINE
  5
3BF
  8
0
 10
213.09344912190059
 20
142.9746466813462
 30
0.0
 11
213.1014966965856
 21
143.1187731580836
 31
0.0
  0
ARC
  5
3C0
  8
0
 10
215.44909907322699
 20
143.11197968473169
 30
0.0
 40
0.1365283219723046
 50
3.8710031674230132
 51
62.296612178660602
  0
ARC
  5
3C1
  8
0
 10
215.6024518767278
 20
143.40225222110831
 30
0.0
 40
0.1917637964325715
 50
186.63398307928759
 51
242.04942704888879
  0
ARC
  5
3C2
  8
0
 10
-51729.063128547838
 20
-6210.5294730907008
 30
0.0
 40
52331.641100934146
 50
6.9738431762633297
 51
6.9741088094494037
  0
ARC
  5
3C3
  8
0
 10
215.3227336809619
 20
143.6135190336048
 30
0.0
 40
0.0602365796059652
 50
7.0531550814145119
 51
93.565427876419449
  0
LINE
  5
3C4
  8
0
 10
215.31899697552461
 20
143.67363960042769
 30
0.0
 11
214.3437673507315
 21
143.67408030209819
 31
0.0
  0
ARC
  5
3C5
  8
0
 10
215.3187779792332
 20
143.72363943169839
 30
0.0
 40
0.0500003108638274
 50
270.25095050671638
 51
359.9730699846221
  0
LINE
  5
3C6
  8
0
 10
215.36877810328599
 20
143.7236164812673
 30
0.0
 11
215.3704817354253
 21
147.48361554481841
 31
0.0
  0
LINE
  5
3C7
  8
0
 10
215.3704817354253
 20
147.48361554481841
 30
0.0
 11
215.37048064436181
 21
147.48361609577279
 31
0.0
  0
ARC
  5
3C8
  8
0
 10
215.32048160134599
 20
147.48363968247429
 30
0.0
 40
0.0499990486455127
 50
359.97297111561249
 51
89.7092431731852
  0
ARC
  5
3C9
  8
0
 10
215.35516019104739
 20
147.55362304149199
 30
0.0
 40
0.020000003292197
 50
269.94909890050411
 51
0.9740525506869484
  0
LINE
  5
3CA
  8
0
 10
215.37515841228321
 20
147.5539624815664
 30
0.0
 11
215.37205932338421
 21
147.73617440503361
 31
0.0
  0
ARC
  5
3CB
  8
0
 10
215.3220686034611
 20
147.73532593190151
 30
0.0
 40
0.0499979198268201
 50
0.9717344082824366
 51
87.974991769492391
  0
ARC
  5
3CC
  8
0
 10
215.3193920120676
 20
147.91092274351701
 30
0.0
 40
0.1257086666675392
 50
190.18463917397739
 51
272.02560069478437
  0
ARC
  5
3CD
  8
0
 10
214.6993670066542
 20
147.8005441608592
 30
0.0
 40
0.5040673899920609
 50
10.009906478616671
 51
26.91965420098029
  0
ARC
  5
3CE
  8
0
 10
213.33584658830591
 20
147.55362304149199
 30
0.0
 40
0.020000003292197
 50
179.02594744931301
 51
270.05090109949589
  0
LINE
  5
3CF
  8
0
 10
213.3158483670702
 20
147.5539624815664
 30
0.0
 11
213.31894745596921
 21
147.73617440503361
 31
0.0
  0
ARC
  5
3D0
  8
0
 10
213.3689381758922
 20
147.73532593190151
 30
0.0
 40
0.0499979198268201
 50
92.025008230507595
 51
179.0282655917176
  0
ARC
  5
3D1
  8
0
 10
213.37161476728579
 20
147.91092274351701
 30
0.0
 40
0.1257086666675392
 50
267.97439930521563
 51
349.81536082602412
  0
ARC
  5
3D2
  8
0
 10
213.9916397726991
 20
147.8005441608592
 30
0.0
 40
0.5040673899920609
 50
153.0803457990182
 51
169.9900935213833
  0
ARC
  5
3D3
  8
0
 10
213.3707086167671
 20
147.48363968247429
 30
0.0
 40
0.0499990486455127
 50
90.290756826814786
 51
180.02702888438751
  0
LINE
  5
3D4
  8
0
 10
215.3551424232092
 20
147.5336230460922
 30
0.0
 11
213.3358288204669
 21
147.5336230460922
 31
0.0
  0
LINE
  5
3D5
  8
0
 10
215.37206047549711
 20
147.73617385377119
 30
0.0
 11
213.31913204714749
 21
147.7371039236528
 31
0.0
  0
LINE
  5
3D6
  8
0
 10
215.30948043736271
 20
148.0642990953362
 30
0.0
 11
214.51751645430869
 21
147.8890033885221
 31
0.0
  0
LINE
  5
3D7
  8
0
 10
214.17425176805119
 20
147.8891590048076
 30
0.0
 11
213.41372976439209
 21
148.05812419804889
 31
0.0
  0
ARC
  5
3D8
  8
0
 10
214.3462170345579
 20
148.62335644457491
 30
0.0
 40
0.7540675893477342
 50
256.8176947894583
 51
283.13047089752632
  0
ARC
  5
3D9
  8
0
 10
215.29758438842541
 20
148.1099861010465
 30
0.0
 40
0.0472128444825068
 50
284.64329494302609
 51
0.4518059660749938
  0
ARC
  5
3DA
  8
0
 10
213.42349053728589
 20
148.10205474030789
 30
0.0
 40
0.0450018358586573
 50
164.7461569664533
 51
257.47314338488047
  0
LINE
  5
3DB
  8
0
 10
213.38007413054061
 20
148.1138945399675
 30
0.0
 11
213.44585699081179
 21
148.29022961461899
 31
0.0
  0
ARC
  5
3DC
  8
0
 10
215.1775017023013
 20
147.24012299537901
 30
0.0
 40
2.0251709356499519
 50
130.76486119274441
 51
148.7664758767238
  0
ARC
  5
3DD
  8
0
 10
211.83336751678249
 20
147.9819434706005
 30
0.0
 40
3.5137767889087579
 50
2.0943961935778401
 51
34.722617849041058
  0
ARC
  5
3DE
  8
0
 10
213.06698732222659
 20
149.59642250535961
 30
0.0
 40
1.1391313302669801
 50
313.78079967942432
 51
19.89892497229533
  0
ARC
  5
3DF
  8
0
 10
212.3908261171068
 20
149.1548638472419
 30
0.0
 40
1.9340829845150529
 50
25.388747245343801
 51
57.03570077562425
  0
ARC
  5
3E0
  8
0
 10
206.74203143055769
 20
140.82523603052189
 30
0.0
 40
11.99811130783044
 50
56.046632074268921
 51
61.986719851241162
  0
ARC
  5
3E1
  8
0
 10
215.4753754662577
 20
157.25381968424139
 30
0.0
 40
6.6075256214338109
 50
226.97353778176321
 51
242.03900863741779
  0
ARC
  5
3E2
  8
0
 10
211.4921809433703
 20
153.20458984409959
 30
0.0
 40
0.9413609822977818
 50
182.2568344263494
 51
236.07660260104049
  0
ARC
  5
3E3
  8
0
 10
210.4440678021877
 20
152.60551953056799
 30
0.0
 40
0.5721861238419296
 50
33.162060848569737
 51
79.172949770224406
  0
ARC
  5
3E4
  8
0
 10
214.63201403982069
 20
156.25314243031889
 30
0.0
 40
4.9875862980019523
 50
221.95787644984861
 51
239.88985995252341
  0
ARC
  5
3E5
  8
0
 10
203.8134443130111
 20
136.3593066129495
 30
0.0
 40
17.660046556898148
 50
56.056640235233353
 51
61.906084343605897
  0
ARC
  5
3E6
  8
0
 10
211.20039495656351
 20
147.43910838561899
 30
0.0
 40
4.3440740779183713
 50
35.852006466106431
 51
55.284734091177469
  0
LINE
  5
3E7
  8
0
 10
213.32070957368501
 20
147.4836160957727
 30
0.0
 11
213.32023956701499
 21
146.94954558610999
 31
0.0
  0
ARC
  5
3E8
  8
0
 10
213.03451600781099
 20
146.90192985275741
 30
0.0
 40
0.289663756225252
 50
319.68320953611499
 51
9.4611314582895272
  0
ARC
  5
3E9
  8
0
 10
213.08293952702891
 20
146.83912339156399
 30
0.0
 40
0.2127505523908728
 50
238.2350255721787
 51
324.14693513304798
  0
LINE
  5
3EA
  8
0
 10
212.9709399457771
 20
146.65823975122569
 30
0.0
 11
210.86241940821961
 21
148.03147280802179
 31
0.0
  0
LINE
  5
3EB
  8
0
 10
210.2095887578044
 20
146.98777869741139
 30
0.0
 11
212.1417972342575
 21
145.68106947976901
 31
0.0
  0
ARC
  5
3EC
  8
0
 10
210.8815477096548
 20
143.59066618634529
 30
0.0
 40
2.4409048486345601
 50
3.144131810603858
 51
58.915313848693131
  0
ARC
  5
3ED
  8
0
 10
213.08508248626299
 20
143.40225222110831
 30
0.0
 40
0.1917637964325715
 50
297.95057295111121
 51
353.36601692071241
  0
ARC
  5
3EE
  8
0
 10
52157.750662910839
 20
-6210.5294730907008
 30
0.0
 40
52331.641100934146
 50
173.0258911905506
 51
173.02615682373661
  0
ARC
  5
3EF
  8
0
 10
213.36480068202891
 20
143.6135190336048
 30
0.0
 40
0.0602365796059652
 50
86.434572123580566
 51
172.94684491858541
  0
LINE
  5
3F0
  8
0
 10
213.3685373874662
 20
143.67363960042769
 30
0.0
 11
214.34376701225929
 21
143.67408030209819
 31
0.0
  0
ARC
  5
3F1
  8
0
 10
213.23777841601449
 20
143.11197968473169
 30
0.0
 40
0.1365283219723046
 50
117.7033878213394
 51
176.128996832577
  0
ARC
  5
3F2
  8
0
 10
213.3676575775755
 20
143.7225529588483
 30
0.0
 40
0.0489196448167409
 50
177.66661396688411
 51
271.00663109895009
  0
LINE
  5
3F3
  8
0
 10
210.20958972882829
 20
146.98777939519471
 30
0.0
 11
210.86241940821961
 21
148.03147280802179
 31
0.0
  0
LINE
  5
3F4
  8
0
 10
210.84071642439349
 20
147.99677576226389
 30
0.0
 11
206.53291611578979
 21
150.69136037786501
 31
0.0
  0
LINE
  5
3F5
  8
0
 10
210.22026055466239
 20
147.00483994693991
 30
0.0
 11
206.97479335964701
 21
149.03487715114031
 31
0.0
  0
ARC
  5
3F6
  8
0
 10
210.7374802171156
 20
150.12337001419061
 30
0.0
 40
3.916964202646966
 50
183.26833089493249
 51
196.13442284674809
  0
ARC
  5
3F7
  8
0
 10
205.65502808946761
 20
149.91427957144541
 30
0.0
 40
1.1724060064313311
 50
358.76215042322468
 51
41.515154748909779
  0
ARC
  5
3F8
  8
0
 10
205.66260967661819
 20
149.68757731913459
 30
0.0
 40
1.328747180654086
 50
49.016481590889732
 51
64.09286734650378
  0
LINE
  5
3F9
  8
0
 10
206.24316242632861
 20
150.88278758302121
 30
0.0
 11
205.76814033904279
 21
151.04737487355229
 31
0.0
  0
ARC
  5
3FA
  8
0
 10
205.54119203979661
 20
150.1665398241737
 30
0.0
 40
0.9096029069150452
 50
75.550682190625324
 51
125.2761826152134
  0
ARC
  5
3FB
  8
0
 10
205.89920026272409
 20
149.8492811019492
 30
0.0
 40
1.3796783636634
 50
129.80946304324439
 51
174.54893717358081
  0
ARC
  5
3FC
  8
0
 10
206.1140566038828
 20
149.63498140828079
 30
0.0
 40
1.6254088281544039
 50
167.73233923755021
 51
191.02941262656009
  0
LINE
  5
3FD
  8
0
 10
204.51867053501761
 20
149.3240197548356
 30
0.0
 11
206.14961644538289
 21
148.76161341623649
 31
0.0
  0
LINE
  5
3FE
  8
0
 10
205.78476745306901
 20
148.88742591841989
 30
0.0
 11
205.7318051275621
 21
148.7338412717535
 31
0.0
  0
LINE
  5
3FF
  8
0
 10
205.7318051275621
 20
148.7338412717535
 30
0.0
 11
204.84032116849551
 21
149.0412556539554
 31
0.0
  0
LINE
  5
400
  8
0
 10
204.8932825572281
 20
149.1948406235918
 30
0.0
 11
204.84032116849551
 21
149.0412556539554
 31
0.0
  0
ARC
  5
401
  8
0
 10
206.15776491012701
 20
148.78524526480311
 30
0.0
 40
0.0249992795528036
 50
250.9735872795639
 51
314.40523663058542
  0
LINE
  5
402
  8
0
 10
206.175256219543
 20
148.7673838866481
 30
0.0
 11
206.334830235748
 21
148.94190093449771
 31
0.0
  0
ARC
  5
403
  8
0
 10
206.70964644840259
 20
148.61096845893979
 30
0.0
 40
0.5000034966354585
 50
57.974883411495547
 51
138.5580936437633
  0
ATTDEF
  5
404
  8
DEFPOINTS
 10
214.3385383391381
 20
142.96983004745371
 30
0.0
 40
0.001
  1
K-15160
  3

  2
MODELNUMBER
 70
     0
1001
ACDBATTR
1070
     0
1070
     1
  0
ATTDEF
  5
405
  8
DEFPOINTS
 10
214.3385383391381
 20
142.9681633807871
 30
0.0
 40
0.001
  1
CORALAIS
  3

  2
TRADENAME
 70
     0
1001
ACDBATTR
1070
     0
1070
     1
  0
ATTDEF
  5
406
  8
DEFPOINTS
 10
214.3385383391381
 20
142.96649671412041
 30
0.0
 40
0.001
  1
FAUCETS
  3

  2
PRODUCT
 70
     0
1001
ACDBATTR
1070
     0
1070
     1
  0
ATTDEF
  5
407
  8
DEFPOINTS
 10
214.3385383391381
 20
142.96483004745369
 30
0.0
 40
0.001
  1
PREMIUM METAL
  3

  2
MATERIAL
 70
     0
1001
ACDBATTR
1070
     0
1070
     1
  0
ENDSEC
  0
EOF
