  0
SECTION
  2
HEADER
  9
$ACADVER
  1
AC1009
  9
$INSBASE
 10
392.9972193620261
 20
40.622456147224867
 30
0.0
  9
$EXTMIN
 10
383.73718834621218
 20
39.083612215441292
 30
0.0
  9
$EXTMAX
 10
393.01194503874979
 20
42.240491472906641
 30
0.0
  9
$LIMMIN
 10
0.0
 20
0.0
  9
$LIMMAX
 10
11.692913385800001
 20
8.2677165353999982
  9
$ORTHOMODE
 70
     0
  9
$REGENMODE
 70
     1
  9
$FILLMODE
 70
     1
  9
$QTEXTMODE
 70
     0
  9
$MIRRTEXT
 70
     0
  9
$DRAGMODE
 70
     2
  9
$LTSCALE
 40
0.6431102362
  9
$OSMODE
 70
  3071
  9
$ATTMODE
 70
     1
  9
$TEXTSIZE
 40
0.2
  9
$TRACEWID
 40
0.05
  9
$TEXTSTYLE
  7
STANDARD
  9
$CLAYER
  8
0
  9
$CELTYPE
  6
BYLAYER
  9
$CECOLOR
 62
   256
  9
$DIMSCALE
 40
1.0
  9
$DIMASZ
 40
0.1875
  9
$DIMEXO
 40
0.0625
  9
$DIMDLI
 40
0.4443307087
  9
$DIMRND
 40
0.0
  9
$DIMDLE
 40
0.0
  9
$DIMEXE
 40
0.125
  9
$DIMTP
 40
0.01
  9
$DIMTM
 40
0.01
  9
$DIMTXT
 40
1.0
  9
$DIMCEN
 40
0.1052362205
  9
$DIMTSZ
 40
0.0
  9
$DIMTOL
 70
     1
  9
$DIMLIM
 70
     0
  9
$DIMTIH
 70
     0
  9
$DIMTOH
 70
     1
  9
$DIMSE1
 70
     0
  9
$DIMSE2
 70
     0
  9
$DIMTAD
 70
     0
  9
$DIMZIN
 70
     0
  9
$DIMBLK
  1

  9
$DIMASO
 70
     1
  9
$DIMSHO
 70
     1
  9
$DIMPOST
  1
\X
  9
$DIMAPOST
  1

  9
$DIMALT
 70
     1
  9
$DIMALTD
 70
     2
  9
$DIMALTF
 40
25.399999999999999
  9
$DIMLFAC
 40
1.0
  9
$DIMTOFL
 70
     0
  9
$DIMTVP
 40
0.0
  9
$DIMTIX
 70
     0
  9
$DIMSOXD
 70
     0
  9
$DIMSAH
 70
     0
  9
$DIMBLK1
  1

  9
$DIMBLK2
  1

  9
$DIMSTYLE
  2
STANDARD
  9
$DIMCLRD
 70
     0
  9
$DIMCLRE
 70
     0
  9
$DIMCLRT
 70
     0
  9
$DIMTFAC
 40
1.0
  9
$DIMGAP
 40
0.09
  9
$LUNITS
 70
     2
  9
$LUPREC
 70
     4
  9
$SKETCHINC
 40
0.1
  9
$FILLETRAD
 40
0.0
  9
$AUNITS
 70
     0
  9
$AUPREC
 70
     0
  9
$MENU
  1
.
  9
$ELEVATION
 40
0.0
  9
$PELEVATION
 40
0.0
  9
$THICKNESS
 40
0.0
  9
$LIMCHECK
 70
     0
  9
$BLIPMODE
 70
     0
  9
$CHAMFERA
 40
0.0
  9
$CHAMFERB
 40
0.0
  9
$SKPOLY
 70
     0
  9
$TDCREATE
 40
2458172.5207663891
  9
$TDUPDATE
 40
2458512.7846243521
  9
$TDINDWG
 40
0.1333229977
  9
$TDUSRTIMER
 40
0.1333229977
  9
$USRTIMER
 70
     1
  9
$ANGBASE
 50
0.0
  9
$ANGDIR
 70
     0
  9
$PDMODE
 70
     0
  9
$PDSIZE
 40
0.3125
  9
$PLINEWID
 40
0.0
  9
$COORDS
 70
     1
  9
$SPLFRAME
 70
     0
  9
$SPLINETYPE
 70
     6
  9
$SPLINESEGS
 70
     8
  9
$ATTDIA
 70
     1
  9
$ATTREQ
 70
     1
  9
$HANDLING
 70
     1
  9
$HANDSEED
  5
57E1
  9
$SURFTAB1
 70
     6
  9
$SURFTAB2
 70
     6
  9
$SURFTYPE
 70
     6
  9
$SURFU
 70
     6
  9
$SURFV
 70
     6
  9
$UCSNAME
  2

  9
$UCSORG
 10
0.0
 20
0.0
 30
0.0
  9
$UCSXDIR
 10
1.0
 20
0.0
 30
0.0
  9
$UCSYDIR
 10
0.0
 20
1.0
 30
0.0
  9
$PUCSNAME
  2

  9
$PUCSORG
 10
0.0
 20
0.0
 30
0.0
  9
$PUCSXDIR
 10
1.0
 20
0.0
 30
0.0
  9
$PUCSYDIR
 10
0.0
 20
1.0
 30
0.0
  9
$USERI1
 70
     0
  9
$USERI2
 70
     0
  9
$USERI3
 70
     0
  9
$USERI4
 70
     0
  9
$USERI5
 70
     0
  9
$USERR1
 40
0.0
  9
$USERR2
 40
0.0
  9
$USERR3
 40
0.0
  9
$USERR4
 40
0.0
  9
$USERR5
 40
0.0
  9
$WORLDVIEW
 70
     1
  9
$SHADEDGE
 70
     3
  9
$SHADEDIF
 70
    70
  9
$TILEMODE
 70
     1
  9
$MAXACTVP
 70
    64
  9
$PLIMCHECK
 70
     0
  9
$PEXTMIN
 10
1.0000000000000000E+020
 20
1.0000000000000000E+020
 30
1.0000000000000000E+020
  9
$PEXTMAX
 10
-1.0000000000000000E+020
 20
-1.0000000000000000E+020
 30
-1.0000000000000000E+020
  9
$PLIMMIN
 10
0.0
 20
0.0
  9
$PLIMMAX
 10
12.0
 20
9.0
  9
$UNITMODE
 70
     0
  9
$VISRETAIN
 70
     1
  9
$PLINEGEN
 70
     0
  9
$PSLTSCALE
 70
     1
  0
ENDSEC
  0
SECTION
  2
TABLES
  0
TABLE
  2
VPORT
 70
     1
  0
VPORT
  2
*ACTIVE
 70
     0
 10
0.0
 20
0.0
 11
1.0
 21
1.0
 12
0.0
 22
0.0
 13
0.0
 23
0.0
 14
1.0
 24
1.0
 15
0.0
 25
0.0
 16
0.0
 26
0.0
 36
28.230885932185291
 17
388.37456382812758
 27
40.662050247192383
 37
0.0
 40
9.7973009388615218
 41
2.1638418079096038
 42
50.0
 43
0.0
 44
0.0
 50
0.0
 51
0.0
 71
     0
 72
   100
 73
     1
 74
     1
 75
     0
 76
     0
 77
     0
 78
     0
  0
ENDTAB
  0
TABLE
  2
LTYPE
 70
     2
  0
LTYPE
  2
CONTINUOUS
 70
     0
  3
Solid line
 72
    65
 73
     0
 40
0.0
  0
LTYPE
  2
PHANTOM2
 70
     0
  3
___ _ _ ___ _ _ ___ _ _ ___ _ _
 72
    65
 73
     6
 40
1.25
 49
0.625
 49
-0.125
 49
0.125
 49
-0.125
 49
0.125
 49
-0.125
  0
ENDTAB
  0
TABLE
  2
LAYER
 70
     2
  0
LAYER
  2
0
 70
     0
 62
   255
  6
CONTINUOUS
  0
LAYER
  2
DEFPOINTS
 70
     0
 62
     7
  6
CONTINUOUS
  0
ENDTAB
  0
TABLE
  2
STYLE
 70
     1
  0
STYLE
  2
STANDARD
 70
     0
 40
0.0
 41
0.8
 50
0.0
 71
     0
 42
0.2
  3
txt
  4

  0
ENDTAB
  0
TABLE
  2
VIEW
 70
     0
  0
ENDTAB
  0
TABLE
  2
UCS
 70
     0
  0
ENDTAB
  0
TABLE
  2
APPID
 70
    10
  0
APPID
  2
ACAD
 70
     0
  0
APPID
  2
ACAD_MLEADERVER
 70
     0
  0
APPID
  2
ACAD_EXEMPT_FROM_CAD_STANDARDS
 70
     0
  0
APPID
  2
ACAD_DSTYLE_DIMJAG
 70
     0
  0
APPID
  2
ACAD_DSTYLE_DIMTALN
 70
     0
  0
APPID
  2
ACAD_NAV_VCDISPLAY
 70
     0
  0
APPID
  2
ACAECLAYERSTANDARD
 70
     0
  0
APPID
  2
ACCMTRANSPARENCY
 70
     0
  0
APPID
  2
DCO15
 70
     0
  0
APPID
  2
ACDBATTR
 70
     0
  0
ENDTAB
  0
TABLE
  2
DIMSTYLE
 70
     2
  0
DIMSTYLE
  2
STANDARD
 70
     0
  3

  4

  5

  6

  7

 40
1.0
 41
0.1875
 42
0.0625
 43
0.38
 44
0.125
 45
0.0
 46
0.0
 47
0.01
 48
0.01
140
0.15625
141
0.09
142
0.0
143
25.399999999999999
144
1.0
145
0.0
146
1.0
147
0.09
 71
     1
 72
     0
 73
     1
 74
     1
 75
     0
 76
     0
 77
     0
 78
     4
170
     0
171
     2
172
     0
173
     0
174
     0
175
     0
176
     0
177
     0
178
     0
  0
ENDTAB
  0
ENDSEC
  0
SECTION
  2
BLOCKS
  0
BLOCK
  8
0
  2
$MODEL_SPACE
 70
     0
 10
0.0
 20
0.0
 30
0.0
  3
$MODEL_SPACE
  1

  0
ENDBLK
  5
21
  8
0
  0
BLOCK
 67
     1
  8
0
  2
$PAPER_SPACE
 70
     0
 10
0.0
 20
0.0
 30
0.0
  3
$PAPER_SPACE
  1

  0
ENDBLK
  5
1D
 67
     1
  8
0
  0
ENDSEC
  0
SECTION
  2
ENTITIES
  0
ATTDEF
  5
829
  8
DEFPOINTS
 10
393.00127837208311
 20
40.622458546682793
 30
0.0
 40
0.001
  1
K-14795
  3

  2
MODELNUMBER
 70
     0
1001
ACDBATTR
1070
     0
1070
     1
  0
ATTDEF
  5
82A
  8
DEFPOINTS
 10
393.00127837208311
 20
40.620791880016128
 30
0.0
 40
0.001
  1
STANCE
  3

  2
TRADENAME
 70
     0
1001
ACDBATTR
1070
     0
1070
     1
  0
ATTDEF
  5
82B
  8
DEFPOINTS
 10
393.00127837208311
 20
40.619125213349463
 30
0.0
 40
0.001
  1
BATH SPOUT
  3

  2
PRODUCT
 70
     0
1001
ACDBATTR
1070
     0
1070
     1
  0
ATTDEF
  5
82C
  8
DEFPOINTS
 10
393.00127837208311
 20
40.617458546682798
 30
0.0
 40
0.001
  1
BRASS
  3

  2
MATERIAL
 70
     0
1001
ACDBATTR
1070
     0
1070
     1
  0
LINE
  5
56FE
  8
0
 10
392.99722048891221
 20
39.083612215441292
 30
0.0
 11
392.27358548170258
 21
39.083612215441292
 31
0.0
  0
ARC
  5
56FF
  8
0
 10
392.27430240508642
 20
39.124618559318982
 30
0.0
 40
0.0410126104674416
 50
191.64600909728219
 51
268.99838669343922
  0
LINE
  5
5700
  8
0
 10
392.23413410211219
 20
39.116339570641287
 30
0.0
 11
392.02038545201219
 21
40.272375684541281
 31
0.0
  0
ARC
  5
5701
  8
0
 10
390.7749509470051
 20
40.098389664346563
 30
0.0
 40
1.2575286245192761
 50
7.9526981360634812
 51
53.277897292238521
  0
ARC
  5
5702
  8
0
 10
390.99763670386221
 20
40.396905127610857
 30
0.0
 40
0.8851035607616793
 50
53.277897292238521
 51
86.472429486301166
  0
ARC
  5
5703
  8
0
 10
390.70374929916181
 20
35.629537169845449
 30
0.0
 40
5.6615213661227104
 50
86.472429486301166
 51
91.776190146045295
  0
LINE
  5
5704
  8
0
 10
390.52826817366218
 20
41.288338328541279
 30
0.0
 11
386.37070784651229
 21
41.287237779041291
 31
0.0
  0
ARC
  5
5705
  8
0
 10
386.36688698821729
 20
40.556755839937921
 30
0.0
 40
0.730491931724306
 50
89.700311470756276
 51
145.04449508652331
  0
ARC
  5
5706
  8
0
 10
385.7175759704582
 20
41.009386111253363
 30
0.0
 40
0.0610205158370754
 50
258.65203828372341
 51
326.02276690180503
  0
LINE
  5
5707
  8
0
 10
385.70556915039651
 20
40.949558528776471
 30
0.0
 11
384.50227856491222
 21
41.205325849541289
 31
0.0
  0
ARC
  5
5708
  8
0
 10
384.52004269336771
 20
41.269447661254901
 30
0.0
 40
0.0665369896916005
 50
197.018590635783
 51
254.5152879007872
  0
ARC
  5
5709
  8
0
 10
383.7030836255459
 20
41.097356451530182
 30
0.0
 40
0.7686395129668293
 50
11.45245788285224
 51
79.942351936435657
  0
ARC
  5
570A
  8
0
 10
383.82230946753191
 20
41.938583075641908
 30
0.0
 40
0.0851455189701114
 50
181.37164304240471
 51
262.40808251056683
  0
LINE
  5
570B
  8
0
 10
383.73718834621218
 20
41.936544913241278
 30
0.0
 11
383.73718834621218
 21
42.160431182441293
 31
0.0
  0
ARC
  5
570C
  8
0
 10
383.81729133244409
 20
42.160388512704351
 30
0.0
 40
0.0801029975967179
 50
90.055362635303965
 51
179.9694793449961
  0
LINE
  5
570D
  8
0
 10
383.81721393211222
 20
42.240491472906641
 30
0.0
 11
392.99721935074001
 21
42.161300079008448
 31
0.0
  0
LINE
  5
570E
  8
0
 10
392.99721935074001
 20
42.161300079008448
 30
0.0
 11
392.99721937331219
 21
39.083612215441292
 31
0.0
  0
LINE
  5
570F
  8
0
 10
392.99721937331219
 20
39.194106583241279
 30
0.0
 11
392.4368685515123
 21
39.194106583241279
 31
0.0
  0
ARC
  5
5710
  8
0
 10
392.4368685515123
 20
39.072445525186559
 30
0.0
 40
0.1216610580547286
 50
90.0
 51
107.8294720043543
  0
ARC
  5
5711
  8
0
 10
392.46692890217361
 20
38.978983694764047
 30
0.0
 40
0.2198381349505975
 50
107.8294720043543
 51
151.5797968488572
  0
LINE
  5
5712
  8
0
 10
392.4368685515123
 20
39.194106583241279
 30
0.0
 11
392.40838120321217
 21
40.902617397941277
 31
0.0
  0
LINE
  5
5713
  8
0
 10
383.8110603343203
 20
41.854183926341243
 30
0.0
 11
392.99721935299237
 21
41.854183926341243
 31
0.0
  0
ARC
  5
5714
  8
0
 10
383.96967749103442
 20
43.009815279834797
 30
0.0
 40
0.9909506528328556
 50
256.43123369118751
 51
269.8561098766599
  0
LINE
  5
5715
  8
0
 10
383.967188863373
 20
42.01886775191911
 30
0.0
 11
392.99721935183499
 21
42.011997731849839
 31
0.0
  0
ARC
  5
5716
  8
0
 10
390.6691975380914
 20
40.911708970535997
 30
0.0
 40
1.7392074280301839
 50
359.70048937071272
 51
17.14928158024215
  0
ARC
  5
5717
  8
0
 10
391.75617828199051
 20
41.198884093204647
 30
0.0
 40
0.6176001207668233
 50
21.430260825551301
 51
64.613636135832294
  0
ARC
  5
5718
  8
0
 10
391.4313454107658
 20
40.410046700501717
 30
0.0
 40
1.470208100572941
 50
66.356865729722244
 51
79.193877328300047
  0
ENDSEC
  0
EOF
