  0
SECTION
  2
HEADER
  9
$ACADVER
  1
AC1009
  9
$INSBASE
 10
28.119722583281849
 20
-0.1614697806
 30
0.0
  9
$EXTMIN
 10
27.617127593729339
 20
-0.6014697806
 30
0.0
  9
$EXTMAX
 10
28.619722583281849
 20
8.4125302194000078
 30
0.0
  9
$LIMMIN
 10
0.0
 20
0.0
  9
$LIMMAX
 10
11.692913385800001
 20
8.2677165353999982
  9
$ORTHOMODE
 70
     0
  9
$REGENMODE
 70
     1
  9
$FILLMODE
 70
     1
  9
$QTEXTMODE
 70
     0
  9
$MIRRTEXT
 70
     0
  9
$DRAGMODE
 70
     2
  9
$LTSCALE
 40
0.6431102362
  9
$OSMODE
 70
  3071
  9
$ATTMODE
 70
     1
  9
$TEXTSIZE
 40
0.2
  9
$TRACEWID
 40
0.05
  9
$TEXTSTYLE
  7
STANDARD
  9
$CLAYER
  8
0
  9
$CELTYPE
  6
BYLAYER
  9
$CECOLOR
 62
   256
  9
$DIMSCALE
 40
1.0
  9
$DIMASZ
 40
0.1875
  9
$DIMEXO
 40
0.0625
  9
$DIMDLI
 40
0.4443307087
  9
$DIMRND
 40
0.0
  9
$DIMDLE
 40
0.0
  9
$DIMEXE
 40
0.125
  9
$DIMTP
 40
0.01
  9
$DIMTM
 40
0.01
  9
$DIMTXT
 40
0.5
  9
$DIMCEN
 40
0.1052362205
  9
$DIMTSZ
 40
0.0
  9
$DIMTOL
 70
     1
  9
$DIMLIM
 70
     0
  9
$DIMTIH
 70
     1
  9
$DIMTOH
 70
     1
  9
$DIMSE1
 70
     0
  9
$DIMSE2
 70
     0
  9
$DIMTAD
 70
     0
  9
$DIMZIN
 70
     0
  9
$DIMBLK
  1

  9
$DIMASO
 70
     1
  9
$DIMSHO
 70
     1
  9
$DIMPOST
  1
\X
  9
$DIMAPOST
  1

  9
$DIMALT
 70
     1
  9
$DIMALTD
 70
     2
  9
$DIMALTF
 40
25.399999999999999
  9
$DIMLFAC
 40
1.0
  9
$DIMTOFL
 70
     0
  9
$DIMTVP
 40
0.0
  9
$DIMTIX
 70
     0
  9
$DIMSOXD
 70
     0
  9
$DIMSAH
 70
     0
  9
$DIMBLK1
  1

  9
$DIMBLK2
  1

  9
$DIMSTYLE
  2
STANDARD
  9
$DIMCLRD
 70
     0
  9
$DIMCLRE
 70
     0
  9
$DIMCLRT
 70
     0
  9
$DIMTFAC
 40
1.0
  9
$DIMGAP
 40
0.09
  9
$LUNITS
 70
     2
  9
$LUPREC
 70
     4
  9
$SKETCHINC
 40
0.1
  9
$FILLETRAD
 40
0.0
  9
$AUNITS
 70
     0
  9
$AUPREC
 70
     0
  9
$MENU
  1
.
  9
$ELEVATION
 40
0.0
  9
$PELEVATION
 40
0.0
  9
$THICKNESS
 40
0.0
  9
$LIMCHECK
 70
     0
  9
$BLIPMODE
 70
     0
  9
$CHAMFERA
 40
0.0
  9
$CHAMFERB
 40
0.0
  9
$SKPOLY
 70
     0
  9
$TDCREATE
 40
2458246.487747604
  9
$TDUPDATE
 40
2458246.7632959029
  9
$TDINDWG
 40
0.2473880903
  9
$TDUSRTIMER
 40
0.2473880903
  9
$USRTIMER
 70
     1
  9
$ANGBASE
 50
0.0
  9
$ANGDIR
 70
     0
  9
$PDMODE
 70
     0
  9
$PDSIZE
 40
0.3125
  9
$PLINEWID
 40
0.0
  9
$COORDS
 70
     1
  9
$SPLFRAME
 70
     0
  9
$SPLINETYPE
 70
     6
  9
$SPLINESEGS
 70
     8
  9
$ATTDIA
 70
     1
  9
$ATTREQ
 70
     1
  9
$HANDLING
 70
     1
  9
$HANDSEED
  5
2E26
  9
$SURFTAB1
 70
     6
  9
$SURFTAB2
 70
     6
  9
$SURFTYPE
 70
     6
  9
$SURFU
 70
     6
  9
$SURFV
 70
     6
  9
$UCSNAME
  2

  9
$UCSORG
 10
0.0
 20
0.0
 30
0.0
  9
$UCSXDIR
 10
1.0
 20
0.0
 30
0.0
  9
$UCSYDIR
 10
0.0
 20
1.0
 30
0.0
  9
$PUCSNAME
  2

  9
$PUCSORG
 10
0.0
 20
0.0
 30
0.0
  9
$PUCSXDIR
 10
1.0
 20
0.0
 30
0.0
  9
$PUCSYDIR
 10
0.0
 20
1.0
 30
0.0
  9
$USERI1
 70
     0
  9
$USERI2
 70
     0
  9
$USERI3
 70
     0
  9
$USERI4
 70
     0
  9
$USERI5
 70
     0
  9
$USERR1
 40
0.0
  9
$USERR2
 40
0.0
  9
$USERR3
 40
0.0
  9
$USERR4
 40
0.0
  9
$USERR5
 40
0.0
  9
$WORLDVIEW
 70
     1
  9
$SHADEDGE
 70
     3
  9
$SHADEDIF
 70
    70
  9
$TILEMODE
 70
     1
  9
$MAXACTVP
 70
    64
  9
$PLIMCHECK
 70
     0
  9
$PEXTMIN
 10
1.0000000000000000E+020
 20
1.0000000000000000E+020
 30
1.0000000000000000E+020
  9
$PEXTMAX
 10
-1.0000000000000000E+020
 20
-1.0000000000000000E+020
 30
-1.0000000000000000E+020
  9
$PLIMMIN
 10
0.0
 20
0.0
  9
$PLIMMAX
 10
12.0
 20
9.0
  9
$UNITMODE
 70
     0
  9
$VISRETAIN
 70
     1
  9
$PLINEGEN
 70
     0
  9
$PSLTSCALE
 70
     1
  0
ENDSEC
  0
SECTION
  2
TABLES
  0
TABLE
  2
VPORT
 70
     1
  0
VPORT
  2
*ACTIVE
 70
     0
 10
0.0
 20
0.0
 11
1.0
 21
1.0
 12
0.0
 22
0.0
 13
0.0
 23
0.0
 14
1.0
 24
1.0
 15
0.0
 25
0.0
 16
-0.0000000000000071
 26
0.0
 36
25.526061065468429
 17
28.118420621554542
 27
3.9055302194000028
 37
0.0
 40
9.0802675945917102
 41
2.1006711409395971
 42
50.0
 43
0.0
 44
0.0
 50
0.0
 51
0.0
 71
     0
 72
   100
 73
     1
 74
     1
 75
     0
 76
     0
 77
     0
 78
     0
  0
ENDTAB
  0
TABLE
  2
LTYPE
 70
     2
  0
LTYPE
  2
CONTINUOUS
 70
     0
  3
Solid line
 72
    65
 73
     0
 40
0.0
  0
LTYPE
  2
PHANTOM2
 70
     0
  3
___ _ _ ___ _ _ ___ _ _ ___ _ _
 72
    65
 73
     6
 40
1.25
 49
0.625
 49
-0.125
 49
0.125
 49
-0.125
 49
0.125
 49
-0.125
  0
ENDTAB
  0
TABLE
  2
LAYER
 70
     2
  0
LAYER
  2
0
 70
     0
 62
   255
  6
CONTINUOUS
  0
LAYER
  2
DEFPOINTS
 70
     0
 62
     7
  6
CONTINUOUS
  0
ENDTAB
  0
TABLE
  2
STYLE
 70
     1
  0
STYLE
  2
STANDARD
 70
     0
 40
0.0
 41
0.8
 50
0.0
 71
     0
 42
0.2
  3
txt
  4

  0
ENDTAB
  0
TABLE
  2
VIEW
 70
     0
  0
ENDTAB
  0
TABLE
  2
UCS
 70
     0
  0
ENDTAB
  0
TABLE
  2
APPID
 70
     9
  0
APPID
  2
ACAD
 70
     0
  0
APPID
  2
ACAD_MLEADERVER
 70
     0
  0
APPID
  2
ACAD_EXEMPT_FROM_CAD_STANDARDS
 70
     0
  0
APPID
  2
ACAD_NAV_VCDISPLAY
 70
     0
  0
APPID
  2
ACAD_DSTYLE_DIMJAG
 70
     0
  0
APPID
  2
ACAD_DSTYLE_DIMTALN
 70
     0
  0
APPID
  2
ACAECLAYERSTANDARD
 70
     0
  0
APPID
  2
ACCMTRANSPARENCY
 70
     0
  0
APPID
  2
ACDBATTR
 70
     0
  0
ENDTAB
  0
TABLE
  2
DIMSTYLE
 70
     1
  0
DIMSTYLE
  2
STANDARD
 70
     0
  3

  4

  5

  6

  7

 40
1.0
 41
0.1875
 42
0.0625
 43
0.38
 44
0.125
 45
0.0
 46
0.0
 47
0.01
 48
0.01
140
0.15625
141
0.09
142
0.0
143
25.399999999999999
144
1.0
145
0.0
146
1.0
147
0.09
 71
     1
 72
     0
 73
     1
 74
     1
 75
     0
 76
     0
 77
     0
 78
     4
170
     0
171
     2
172
     0
173
     0
174
     0
175
     0
176
     0
177
     0
178
     0
  0
ENDTAB
  0
ENDSEC
  0
SECTION
  2
BLOCKS
  0
BLOCK
  8
0
  2
$MODEL_SPACE
 70
     0
 10
0.0
 20
0.0
 30
0.0
  3
$MODEL_SPACE
  1

  0
ENDBLK
  5
21
  8
0
  0
BLOCK
 67
     1
  8
0
  2
$PAPER_SPACE
 70
     0
 10
0.0
 20
0.0
 30
0.0
  3
$PAPER_SPACE
  1

  0
ENDBLK
  5
1D
 67
     1
  8
0
  0
ENDSEC
  0
SECTION
  2
ENTITIES
  0
LINE
  5
21FE
  8
0
 10
27.759722583281849
 20
-0.6014697806
 30
0.0
 11
28.479722583281848
 21
-0.6014697806
 31
0.0
  0
LINE
  5
21FF
  8
0
 10
27.759722583281849
 20
-0.3264697806
 30
0.0
 11
28.479722583281848
 21
-0.3264697806
 31
0.0
  0
LINE
  5
2200
  8
0
 10
27.759722583281849
 20
-0.3264697806
 30
0.0
 11
28.479722583281848
 21
-0.3264697806
 31
0.0
  0
LINE
  5
2201
  8
0
 10
27.66972258328185
 20
-0.2514697806
 30
0.0
 11
28.569722583281841
 21
-0.2514697806
 31
0.0
  0
LINE
  5
2202
  8
0
 10
27.64972258328185
 20
-0.1614697806
 30
0.0
 11
28.589722583281851
 21
-0.1614697806
 31
0.0
  0
LINE
  5
2203
  8
0
 10
27.710022583281852
 20
-0.5502802711000001
 30
0.0
 11
27.75577159888185
 21
-0.5740955407000001
 31
0.0
  0
LINE
  5
2204
  8
0
 10
27.710022583281852
 20
-0.5502802711000001
 30
0.0
 11
27.75577159888185
 21
-0.5740955407000001
 31
0.0
  0
LINE
  5
2205
  8
0
 10
27.710022583281852
 20
-0.4788517132
 30
0.0
 11
27.75577101958185
 21
-0.5026671758
 31
0.0
  0
LINE
  5
2206
  8
0
 10
27.710022583281852
 20
-0.4788517132
 30
0.0
 11
27.75577101958185
 21
-0.5026671758
 31
0.0
  0
LINE
  5
2207
  8
0
 10
27.710022583281852
 20
-0.4074216779000001
 30
0.0
 11
27.755770698781848
 21
-0.4312368495000001
 31
0.0
  0
LINE
  5
2208
  8
0
 10
27.710022583281852
 20
-0.4074216779000001
 30
0.0
 11
27.755770698781848
 21
-0.4312368495000001
 31
0.0
  0
LINE
  5
2209
  8
0
 10
27.736639576981851
 20
-0.3501721697
 30
0.0
 11
27.75577063658185
 21
-0.3601481589
 31
0.0
  0
LINE
  5
220A
  8
0
 10
28.514746414281849
 20
-0.5664459495000001
 30
0.0
 11
28.483674386281852
 21
-0.5502707978
 31
0.0
  0
LINE
  5
220B
  8
0
 10
28.52942258328185
 20
-0.5026567457
 30
0.0
 11
28.483674440881838
 21
-0.4788419088000001
 31
0.0
  0
LINE
  5
220C
  8
0
 10
28.52942258328185
 20
-0.4312276118
 30
0.0
 11
28.483674499781849
 21
-0.4074128105
 31
0.0
  0
LINE
  5
220D
  8
0
 10
28.52942258328185
 20
-0.4312276118
 30
0.0
 11
28.483674499781849
 21
-0.4074128105
 31
0.0
  0
LINE
  5
220E
  8
0
 10
28.493257298981849
 20
-0.3406402443
 30
0.0
 11
28.483674549381838
 21
-0.3356430626
 31
0.0
  0
LINE
  5
220F
  8
0
 10
28.493257298981849
 20
-0.3406402443
 30
0.0
 11
28.483674549381838
 21
-0.3356430626
 31
0.0
  0
LINE
  5
2210
  8
0
 10
27.748186415581849
 20
-0.5899336129
 30
0.0
 11
27.759722583281849
 21
-0.6014697806
 31
0.0
  0
LINE
  5
2211
  8
0
 10
27.748186415581849
 20
-0.5899336129
 30
0.0
 11
27.759722583281849
 21
-0.6014697806
 31
0.0
  0
LINE
  5
2212
  8
0
 10
28.479722583281848
 20
-0.3264697806
 30
0.0
 11
28.483674551781839
 21
-0.3304217491
 31
0.0
  0
LINE
  5
2213
  8
0
 10
28.493257298981849
 20
-0.3406402443
 30
0.0
 11
28.526488107181851
 21
-0.3732353045
 31
0.0
  0
LINE
  5
2214
  8
0
 10
28.493257298981849
 20
-0.3406402443
 30
0.0
 11
28.526488107181851
 21
-0.3732353045
 31
0.0
  0
LINE
  5
2215
  8
0
 10
27.62043131478185
 20
6.9195955842999988
 30
0.0
 11
27.619013851781851
 21
6.8654648544999999
 31
0.0
  0
LINE
  5
2216
  8
0
 10
27.620903562581841
 20
7.1195790929999987
 30
0.0
 11
27.61854160398185
 21
7.0654813458000003
 31
0.0
  0
LINE
  5
2217
  8
0
 10
27.62137545068185
 20
7.319554362399999
 30
0.0
 11
27.618069715881848
 21
7.2655060763000003
 31
0.0
  0
LINE
  5
2218
  8
0
 10
27.62184683528185
 20
7.5195214000999986
 30
0.0
 11
27.617598331281851
 21
7.4655390387000002
 31
0.0
  0
LINE
  5
2219
  8
0
 10
27.622317572781849
 20
7.7194802158999991
 30
0.0
 11
27.617127593781841
 21
7.6655802228999992
 31
0.0
  0
LINE
  5
221A
  8
0
 10
27.617127595381842
 20
5.3194801985999991
 30
0.0
 11
27.622317571081851
 21
5.2655802401999994
 31
0.0
  0
LINE
  5
221B
  8
0
 10
27.617598332681851
 20
5.5195213827999989
 30
0.0
 11
27.62184683388185
 21
5.465539055999999
 31
0.0
  0
LINE
  5
221C
  8
0
 10
27.61806971698185
 20
5.7195543451999988
 30
0.0
 11
27.621375449581851
 21
5.6655060936000003
 31
0.0
  0
LINE
  5
221D
  8
0
 10
27.618541604681841
 20
5.9195790757999998
 30
0.0
 11
27.62090356188185
 21
5.8654813629999989
 31
0.0
  0
LINE
  5
221E
  8
0
 10
27.61901385218184
 20
6.1195955670000002
 30
0.0
 11
27.62043131438185
 21
6.0654648717999988
 31
0.0
  0
LINE
  5
221F
  8
0
 10
27.619486315581849
 20
6.3196038138999988
 30
0.0
 11
27.619958850981849
 21
6.2654566248999988
 31
0.0
  0
LINE
  5
2220
  8
0
 10
27.619722583281849
 20
6.5196048619999996
 30
0.0
 11
27.619722583281849
 21
6.4654555766999993
 31
0.0
  0
LINE
  5
2221
  8
0
 10
27.644722583281851
 20
8.3025302194000012
 30
0.0
 11
27.644722583281851
 21
7.8284947508
 31
0.0
  0
LINE
  5
2222
  8
0
 10
27.644722583281851
 20
5.1565656879999988
 30
0.0
 11
27.644722583281851
 21
4.6625302193999989
 31
0.0
  0
LINE
  5
2223
  8
0
 10
27.64972258328185
 20
-0.1814697806
 30
0.0
 11
27.64972258328185
 21
-0.2314697806
 31
0.0
  0
LINE
  5
2224
  8
0
 10
27.64972258328185
 20
-0.1814697806
 30
0.0
 11
27.64972258328185
 21
-0.2314697806
 31
0.0
  0
LINE
  5
2225
  8
0
 10
27.64972258328185
 20
-0.1614697806
 30
0.0
 11
27.64972258328185
 21
4.5885302193999991
 31
0.0
  0
LINE
  5
2226
  8
0
 10
27.64972258328185
 20
8.3425302194000004
 30
0.0
 11
27.64972258328185
 21
8.3925302194000011
 31
0.0
  0
LINE
  5
2227
  8
0
 10
27.659722583281852
 20
4.6345302194000002
 30
0.0
 11
27.659722583281852
 21
4.5945302194000002
 31
0.0
  0
LINE
  5
2228
  8
0
 10
27.710022583281852
 20
-0.3955130576
 30
0.0
 11
27.710022583281852
 21
-0.4074216779000001
 31
0.0
  0
LINE
  5
2229
  8
0
 10
27.710022583281852
 20
-0.3955130576
 30
0.0
 11
27.710022583281852
 21
-0.4074216779000001
 31
0.0
  0
LINE
  5
222A
  8
0
 10
27.710022583281852
 20
-0.4669421787
 30
0.0
 11
27.710022583281852
 21
-0.4788517132
 31
0.0
  0
LINE
  5
222B
  8
0
 10
27.710022583281852
 20
-0.4669421787
 30
0.0
 11
27.710022583281852
 21
-0.4788517132
 31
0.0
  0
LINE
  5
222C
  8
0
 10
27.710022583281852
 20
-0.5383716995000001
 30
0.0
 11
27.710022583281852
 21
-0.5502802711000001
 31
0.0
  0
LINE
  5
222D
  8
0
 10
27.710022583281852
 20
-0.5383716995000001
 30
0.0
 11
27.710022583281852
 21
-0.5502802711000001
 31
0.0
  0
LINE
  5
222E
  8
0
 10
27.75577063658185
 20
-0.3601481589
 30
0.0
 11
27.75577063658185
 21
-0.3713576091
 31
0.0
  0
LINE
  5
222F
  8
0
 10
27.75577063658185
 20
-0.3601481589
 30
0.0
 11
27.75577063658185
 21
-0.3713576091
 31
0.0
  0
LINE
  5
2230
  8
0
 10
27.755770698781848
 20
-0.4312368495000001
 30
0.0
 11
27.755770698781848
 21
-0.4427866788000001
 31
0.0
  0
LINE
  5
2231
  8
0
 10
27.755770698781848
 20
-0.4312368495000001
 30
0.0
 11
27.755770698781848
 21
-0.4427866788000001
 31
0.0
  0
LINE
  5
2232
  8
0
 10
27.75577101958185
 20
-0.5026671758
 30
0.0
 11
27.75577101958185
 21
-0.5142156364
 31
0.0
  0
LINE
  5
2233
  8
0
 10
27.75577101958185
 20
-0.5026671758
 30
0.0
 11
27.75577101958185
 21
-0.5142156364
 31
0.0
  0
LINE
  5
2234
  8
0
 10
27.75577159888185
 20
-0.5740955407000001
 30
0.0
 11
27.75577159888185
 21
-0.585644649
 31
0.0
  0
LINE
  5
2235
  8
0
 10
27.75577159888185
 20
-0.5740955407000001
 30
0.0
 11
27.75577159888185
 21
-0.585644649
 31
0.0
  0
LINE
  5
2236
  8
0
 10
27.759722583281849
 20
-0.2714697806
 30
0.0
 11
27.759722583281849
 21
-0.3264697806
 31
0.0
  0
LINE
  5
2237
  8
0
 10
27.759722583281849
 20
-0.2714697806
 30
0.0
 11
27.759722583281849
 21
-0.3264697806
 31
0.0
  0
LINE
  5
2238
  8
0
 10
27.76295795498185
 20
4.5885302193999991
 30
0.0
 11
27.76295795498185
 21
4.5945302194000002
 31
0.0
  0
LINE
  5
2239
  8
0
 10
27.619958851081851
 20
6.7196038310999988
 30
0.0
 11
27.619486315481851
 21
6.6654566076999986
 31
0.0
  0
LINE
  5
223A
  8
0
 10
28.049722583281849
 20
4.5945302194000002
 30
0.0
 11
28.049722583281849
 21
4.5885302193999991
 31
0.0
  0
LINE
  5
223B
  8
0
 10
28.189722583281849
 20
4.5885302193999991
 30
0.0
 11
28.189722583281849
 21
4.5945302194000002
 31
0.0
  0
LINE
  5
223C
  8
0
 10
28.619722583281849
 20
4.2435302194000002
 30
0.0
 11
28.589092292181839
 21
4.2435302194000002
 31
0.0
  0
LINE
  5
223D
  8
0
 10
28.476487211581851
 20
4.5945302194000002
 30
0.0
 11
28.476487211581851
 21
4.5885302193999991
 31
0.0
  0
LINE
  5
223E
  8
0
 10
28.479722583281848
 20
-0.2714697806
 30
0.0
 11
28.479722583281848
 21
-0.3264697806
 31
0.0
  0
LINE
  5
223F
  8
0
 10
28.479722583281848
 20
-0.2714697806
 30
0.0
 11
28.479722583281848
 21
-0.3264697806
 31
0.0
  0
LINE
  5
2240
  8
0
 10
28.483674386281852
 20
-0.5502707978
 30
0.0
 11
28.483674386281852
 21
-0.5387213191
 31
0.0
  0
LINE
  5
2241
  8
0
 10
28.483674386281852
 20
-0.5502707978
 30
0.0
 11
28.483674386281852
 21
-0.5387213191
 31
0.0
  0
LINE
  5
2242
  8
0
 10
28.483674440881838
 20
-0.4788419088000001
 30
0.0
 11
28.483674440881838
 21
-0.4672918820000001
 31
0.0
  0
LINE
  5
2243
  8
0
 10
28.483674440881838
 20
-0.4788419088000001
 30
0.0
 11
28.483674440881838
 21
-0.4672918820000001
 31
0.0
  0
LINE
  5
2244
  8
0
 10
28.483674499781849
 20
-0.4074128105
 30
0.0
 11
28.483674499781841
 21
-0.3958634284497453
 31
0.0
  0
LINE
  5
2245
  8
0
 10
28.483674499781849
 20
-0.4074128105
 30
0.0
 11
28.483674499781841
 21
-0.3958634284497453
 31
0.0
  0
LINE
  5
2246
  8
0
 10
28.483674549381838
 20
-0.3356430626
 30
0.0
 11
28.483674549381838
 21
-0.3304217467
 31
0.0
  0
LINE
  5
2247
  8
0
 10
28.52942258328185
 20
-0.4312276118
 30
0.0
 11
28.52942258328185
 21
-0.4431420576
 31
0.0
  0
LINE
  5
2248
  8
0
 10
28.52942258328185
 20
-0.5026567457
 30
0.0
 11
28.52942258328185
 21
-0.5145662801000001
 31
0.0
  0
LINE
  5
2249
  8
0
 10
28.57972258328185
 20
4.6345302194000002
 30
0.0
 11
28.57972258328185
 21
4.5945302194000002
 31
0.0
  0
LINE
  5
224A
  8
0
 10
28.589722583281851
 20
-0.1814697806
 30
0.0
 11
28.589722583281851
 21
-0.2314697806
 31
0.0
  0
LINE
  5
224B
  8
0
 10
28.589722583281851
 20
-0.1814697806
 30
0.0
 11
28.589722583281851
 21
-0.2314697806
 31
0.0
  0
LINE
  5
224C
  8
0
 10
28.589722583281851
 20
-0.1614697806
 30
0.0
 11
28.589722583281851
 21
4.2435302194000002
 31
0.0
  0
LINE
  5
224D
  8
0
 10
28.589722583281851
 20
4.4035302194000003
 30
0.0
 11
28.589722583281851
 21
4.5885302193999991
 31
0.0
  0
LINE
  5
224E
  8
0
 10
28.589722583281851
 20
8.3425302194000004
 30
0.0
 11
28.589722583281851
 21
8.3925302194000011
 31
0.0
  0
LINE
  5
224F
  8
0
 10
28.59472258328185
 20
8.3025302194000012
 30
0.0
 11
28.59472258328185
 21
4.6625302193999989
 31
0.0
  0
LINE
  5
2250
  8
0
 10
28.619722583281849
 20
4.2435302194000002
 30
0.0
 11
28.619722583281849
 21
4.4035302194000003
 31
0.0
  0
LINE
  5
2251
  8
0
 10
28.589092292181839
 20
4.4035302194000003
 30
0.0
 11
28.619722583281849
 21
4.4035302194000003
 31
0.0
  0
LINE
  5
2252
  8
0
 10
28.589722583281851
 20
4.5885302193999991
 30
0.0
 11
27.64972258328185
 21
4.5885302193999991
 31
0.0
  0
LINE
  5
2253
  8
0
 10
27.659722583281852
 20
4.5945302194000002
 30
0.0
 11
28.57972258328185
 21
4.5945302194000002
 31
0.0
  0
LINE
  5
2254
  8
0
 10
28.57972258328185
 20
4.6345302194000002
 30
0.0
 11
27.659722583281852
 21
4.6345302194000002
 31
0.0
  0
LINE
  5
2255
  8
0
 10
27.664722583281851
 20
4.6425302194000002
 30
0.0
 11
28.574722583281851
 21
4.6425302194000002
 31
0.0
  0
LINE
  5
2256
  8
0
 10
27.635393033881851
 20
5.1566481892000002
 30
0.0
 11
27.649459743681849
 21
5.1565237972000002
 31
0.0
  0
LINE
  5
2257
  8
0
 10
27.62765586058185
 20
5.2302624759
 30
0.0
 11
27.650728906817012
 21
5.235380458275225
 31
0.0
  0
LINE
  5
2258
  8
0
 10
27.632932324781851
 20
5.3302114337999988
 30
0.0
 11
27.652212069938891
 21
5.334318872325551
 31
0.0
  0
LINE
  5
2259
  8
0
 10
27.644731154874371
 20
5.3344136336772516
 30
0.0
 11
27.62500243088185
 21
5.3302201639999991
 31
0.0
  0
LINE
  5
225A
  8
0
 10
27.64472454682965
 20
5.2563197731774522
 30
0.0
 11
27.63209700568185
 21
5.2565401876999989
 31
0.0
  0
LINE
  5
225B
  8
0
 10
27.640026521781849
 20
5.256535380599999
 30
0.0
 11
27.651053218676399
 21
5.2563377628328691
 31
0.0
  0
LINE
  5
225C
  8
0
 10
27.634764817081852
 20
5.3564325208999994
 30
0.0
 11
27.652520365251
 21
5.3559655051794302
 31
0.0
  0
LINE
  5
225D
  8
0
 10
27.644740575294971
 20
5.4558661825151313
 30
0.0
 11
27.631467008281849
 21
5.4563297057
 31
0.0
  0
LINE
  5
225E
  8
0
 10
27.639396236581849
 20
5.4563261185999989
 30
0.0
 11
27.653867119304991
 21
5.4558140038787011
 31
0.0
  0
LINE
  5
225F
  8
0
 10
27.628313568981849
 20
5.4301706246999997
 30
0.0
 11
27.653600771522349
 21
5.4353184327562811
 31
0.0
  0
LINE
  5
2260
  8
0
 10
27.633588945381849
 20
5.5301147492999991
 30
0.0
 11
27.654838322379401
 21
5.5342555305466536
 31
0.0
  0
LINE
  5
2261
  8
0
 10
27.644746073237741
 20
5.5338323496854382
 30
0.0
 11
27.62565940698185
 21
5.5301222776000003
 31
0.0
  0
LINE
  5
2262
  8
0
 10
27.628969584681851
 20
5.6300673110000004
 30
0.0
 11
27.655974415020971
 21
5.6350756241470892
 31
0.0
  0
LINE
  5
2263
  8
0
 10
27.63413645645112
 20
5.5562276968785671
 30
0.0
 11
27.655086006015821
 21
5.5553105673780196
 31
0.0
  0
LINE
  5
2264
  8
0
 10
27.644753788625
 20
5.6554007157939941
 30
0.0
 11
27.63083343348185
 21
5.6561302507000004
 31
0.0
  0
LINE
  5
2265
  8
0
 10
27.638762437681851
 20
5.656127893599999
 30
0.0
 11
27.656186147400039
 21
5.6552065593220773
 31
0.0
  0
LINE
  5
2266
  8
0
 10
27.633497603381851
 20
5.7560342405999991
 30
0.0
 11
27.657157662999008
 21
5.7545843486731849
 31
0.0
  0
LINE
  5
2267
  8
0
 10
27.634243820781851
 20
5.730006627599999
 30
0.0
 11
27.656966726263121
 21
5.7340242807968878
 31
0.0
  0
LINE
  5
2268
  8
0
 10
27.644758181526239
 20
5.7332650457814758
 30
0.0
 11
27.626314574681849
 21
5.7300129401999991
 31
0.0
  0
LINE
  5
2269
  8
0
 10
27.629623708081851
 20
5.8299525657000002
 30
0.0
 11
27.657851451722578
 21
5.8346796677940684
 31
0.0
  0
LINE
  5
226A
  8
0
 10
27.634896751981849
 20
5.9298870991999992
 30
0.0
 11
27.658598760299949
 21
5.9336525479773394
 31
0.0
  0
LINE
  5
226B
  8
0
 10
27.644767479130511
 20
5.9327113879499693
 30
0.0
 11
27.626967734281848
 21
5.9298921852999991
 31
0.0
  0
LINE
  5
226C
  8
0
 10
27.644764187319939
 20
5.8549232097664836
 30
0.0
 11
27.630196474181851
 21
5.855941883499999
 31
0.0
  0
LINE
  5
226D
  8
0
 10
27.638125318681851
 20
5.8559407637999987
 30
0.0
 11
27.658011168083561
 21
5.8545408180272451
 31
0.0
  0
LINE
  5
226E
  8
0
 10
27.63290171702236
 20
5.9558607426513239
 30
0.0
 11
27.658736029505771
 21
5.9538057346305173
 31
0.0
  0
LINE
  5
226F
  8
0
 10
27.644771771881832
 20
6.0544334823387622
 30
0.0
 11
27.62955632448185
 21
6.0557646614999987
 31
0.0
  0
LINE
  5
2270
  8
0
 10
27.637485073881841
 20
6.0557647839999991
 30
0.0
 11
27.659342785588208
 21
6.0538421178334536
 31
0.0
  0
LINE
  5
2271
  8
0
 10
27.630275738281849
 20
6.0298263844999997
 30
0.0
 11
27.65923320862602
 21
6.0341576361187936
 31
0.0
  0
LINE
  5
2272
  8
0
 10
27.63554754058185
 20
6.1297561983
 30
0.0
 11
27.659735618831721
 21
6.133167218178821
 31
0.0
  0
LINE
  5
2273
  8
0
 10
27.644773965466641
 20
6.1321710667234761
 30
0.0
 11
27.627618687081849
 21
6.1297600495999998
 31
0.0
  0
LINE
  5
2274
  8
0
 10
27.630925481881849
 20
6.2296889213000002
 30
0.0
 11
27.660120732866488
 21
6.2335360351474129
 31
0.0
  0
LINE
  5
2275
  8
0
 10
27.632217304881848
 20
6.1556804305999986
 30
0.0
 11
27.659821710439289
 21
6.1530191586006628
 31
0.0
  0
LINE
  5
2276
  8
0
 10
27.64477654282183
 20
6.2539313319336003
 30
0.0
 11
27.628913179281849
 21
6.2555986386000004
 31
0.0
  0
LINE
  5
2277
  8
0
 10
27.636841898481851
 20
6.2556000053999989
 30
0.0
 11
27.660181344319948
 21
6.2531358200263867
 31
0.0
  0
LINE
  5
2278
  8
0
 10
27.631734137581851
 20
6.3555593056999999
 30
0.0
 11
27.660415115676379
 21
6.352414819871929
 31
0.0
  0
LINE
  5
2279
  8
0
 10
27.759722583281849
 20
-0.3264697806
 30
0.0
 11
27.736639576981851
 21
-0.3501721697
 31
0.0
  0
LINE
  5
227A
  8
0
 10
27.759722583281849
 20
-0.3264697806
 30
0.0
 11
27.736639576981851
 21
-0.3501721697
 31
0.0
  0
LINE
  5
227B
  8
0
 10
27.636195988481852
 20
6.329613962699999
 30
0.0
 11
27.660378219206411
 21
6.3325947253016563
 31
0.0
  0
LINE
  5
227C
  8
0
 10
27.644777639970759
 20
6.3316437961982519
 30
0.0
 11
27.628267234581848
 21
6.3296165733
 31
0.0
  0
LINE
  5
227D
  8
0
 10
27.63141116648185
 20
6.4295783650000002
 30
0.0
 11
27.660514936439629
 21
6.433026488087326
 31
0.0
  0
LINE
  5
227E
  8
0
 10
27.636519267081852
 20
6.529538390099999
 30
0.0
 11
27.66052704820871
 21
6.5322854146296381
 31
0.0
  0
LINE
  5
227F
  8
0
 10
27.644778501382291
 20
6.531384980639972
 30
0.0
 11
27.628590544581851
 21
6.5295405960000004
 31
0.0
  0
LINE
  5
2280
  8
0
 10
27.631734137581851
 20
6.6295011330999989
 30
0.0
 11
27.660414965340209
 21
6.632645602455459
 31
0.0
  0
LINE
  5
2281
  8
0
 10
27.644778501382291
 20
6.4536754581379521
 30
0.0
 11
27.628590544581851
 21
6.4555198427999994
 31
0.0
  0
LINE
  5
2282
  8
0
 10
27.636519273081849
 20
6.4555218316999987
 30
0.0
 11
27.660527090877061
 21
6.4527750345861978
 31
0.0
  0
LINE
  5
2283
  8
0
 10
27.63141116648185
 20
6.5554820738000004
 30
0.0
 11
27.660514872577679
 21
6.5520339582677964
 31
0.0
  0
LINE
  5
2284
  8
0
 10
27.644777639970759
 20
6.6534166425802006
 30
0.0
 11
27.628267234581848
 21
6.6554438654999988
 31
0.0
  0
LINE
  5
2285
  8
0
 10
27.636195988481852
 20
6.655446476099999
 30
0.0
 11
27.660378047529651
 21
6.6524657346200762
 31
0.0
  0
LINE
  5
2286
  8
0
 10
27.636841898481851
 20
6.7294604333999999
 30
0.0
 11
27.66018108749368
 21
6.7319245916762398
 31
0.0
  0
LINE
  5
2287
  8
0
 10
27.645254636481852
 20
6.7311793564999993
 30
0.0
 11
27.628913179281849
 21
6.7294618001000002
 31
0.0
  0
LINE
  5
2288
  8
0
 10
27.632217304881848
 20
6.8293800082000002
 30
0.0
 11
27.65982134623858
 21
6.832041245034767
 31
0.0
  0
LINE
  5
2289
  8
0
 10
27.637485073881841
 20
6.9292956547999989
 30
0.0
 11
27.659342315029448
 21
6.9312182795471067
 31
0.0
  0
LINE
  5
228A
  8
0
 10
27.64477177188002
 20
6.9306269564744731
 30
0.0
 11
27.62955632448185
 21
6.9292957773000001
 31
0.0
  0
LINE
  5
228B
  8
0
 10
27.630925481881849
 20
6.7553715175000004
 30
0.0
 11
27.66012045480824
 21
6.7515244402552987
 31
0.0
  0
LINE
  5
228C
  8
0
 10
27.644773965466641
 20
6.8528893720176844
 30
0.0
 11
27.627618687081849
 21
6.8553003891999991
 31
0.0
  0
LINE
  5
228D
  8
0
 10
27.63554754058185
 20
6.8553042403999989
 30
0.0
 11
27.659735232935279
 21
6.8518932750590116
 31
0.0
  0
LINE
  5
228E
  8
0
 10
27.630275739981851
 20
6.9552340155999994
 30
0.0
 11
27.6592327161915
 21
6.9509028949250666
 31
0.0
  0
LINE
  5
228F
  8
0
 10
27.64476747913233
 20
7.0523490508566384
 30
0.0
 11
27.626967734281848
 21
7.0551682534999998
 31
0.0
  0
LINE
  5
2290
  8
0
 10
27.634896751981849
 20
7.0551733395999996
 30
0.0
 11
27.65859815986531
 21
7.0514079861962209
 31
0.0
  0
LINE
  5
2291
  8
0
 10
27.632858992581848
 20
7.029208689899999
 30
0.0
 11
27.658735494401331
 21
7.0312482680835737
 31
0.0
  0
LINE
  5
2292
  8
0
 10
27.638125318681851
 20
7.1291196750000001
 30
0.0
 11
27.658010483786288
 21
7.130519572616917
 31
0.0
  0
LINE
  5
2293
  8
0
 10
27.644764187321758
 20
7.130137228985582
 30
0.0
 11
27.630196474181851
 21
7.1291185551999989
 31
0.0
  0
LINE
  5
2294
  8
0
 10
27.633497603381851
 20
7.2290261981999997
 30
0.0
 11
27.65715687148468
 21
7.2304760416389557
 31
0.0
  0
LINE
  5
2295
  8
0
 10
27.629623708081851
 20
7.1551078730999986
 30
0.0
 11
27.657850744760619
 21
7.150380889458428
 31
0.0
  0
LINE
  5
2296
  8
0
 10
27.644758181526239
 20
7.2517953930067476
 30
0.0
 11
27.626314577981841
 21
7.2550474979999988
 31
0.0
  0
LINE
  5
2297
  8
0
 10
27.634243820781851
 20
7.2550538111999989
 30
0.0
 11
27.65696591088096
 21
7.2510363021092932
 31
0.0
  0
LINE
  5
2298
  8
0
 10
27.628969584681851
 20
7.3549931277999994
 30
0.0
 11
27.6559734929737
 21
7.3499849855785193
 31
0.0
  0
LINE
  5
2299
  8
0
 10
28.514746414281849
 20
-0.5664459495000001
 30
0.0
 11
28.479722583281848
 21
-0.6014697806
 31
0.0
  0
LINE
  5
229A
  8
0
 10
28.514746414281849
 20
-0.5664459495000001
 30
0.0
 11
28.479722583281848
 21
-0.6014697806
 31
0.0
  0
LINE
  5
229B
  8
0
 10
27.75577063658185
 20
-0.3713576091
 30
0.0
 11
27.710022583281852
 21
-0.3955130576
 31
0.0
  0
LINE
  5
229C
  8
0
 10
27.75577063658185
 20
-0.3713576091
 30
0.0
 11
27.710022583281852
 21
-0.3955130576
 31
0.0
  0
LINE
  5
229D
  8
0
 10
27.638762437681851
 20
7.3289325451999989
 30
0.0
 11
27.656185249273651
 21
7.3298538319015183
 31
0.0
  0
LINE
  5
229E
  8
0
 10
27.644753788625
 20
7.3296597229447489
 30
0.0
 11
27.630833436881851
 21
7.3289301882000002
 31
0.0
  0
LINE
  5
229F
  8
0
 10
27.63413294278185
 20
7.4288325880999988
 30
0.0
 11
27.655085000685251
 21
7.4297498273219693
 31
0.0
  0
LINE
  5
22A0
  8
0
 10
27.639396230181848
 20
7.528734319999999
 30
0.0
 11
27.653866007169441
 21
7.5292463955484727
 31
0.0
  0
LINE
  5
22A1
  8
0
 10
27.644740575294971
 20
7.5291942562391041
 30
0.0
 11
27.631467011681849
 21
7.5287307331999997
 31
0.0
  0
LINE
  5
22A2
  8
0
 10
27.644746073237741
 20
7.4512280891375617
 30
0.0
 11
27.625659410281848
 21
7.4549381605999994
 31
0.0
  0
LINE
  5
22A3
  8
0
 10
27.633588945381849
 20
7.4549456893999997
 30
0.0
 11
27.654837291546929
 21
7.4508051090875149
 31
0.0
  0
LINE
  5
22A4
  8
0
 10
27.628313568981849
 20
7.5548898141
 30
0.0
 11
27.653599633840731
 21
7.5497422376117971
 31
0.0
  0
LINE
  5
22A5
  8
0
 10
27.644731154872549
 20
7.6506468051412062
 30
0.0
 11
27.625002434181841
 21
7.6548402740999988
 31
0.0
  0
LINE
  5
22A6
  8
0
 10
27.632932324781851
 20
7.6548490049999991
 30
0.0
 11
27.652210823059331
 21
7.6507418320739049
 31
0.0
  0
LINE
  5
22A7
  8
0
 10
27.627655857481841
 20
7.7547979636000006
 30
0.0
 11
27.650727552858879
 21
7.7496802807848457
 31
0.0
  0
LINE
  5
22A8
  8
0
 10
27.755770698781848
 20
-0.4427866788000001
 30
0.0
 11
27.710022583281852
 21
-0.4669421787
 31
0.0
  0
LINE
  5
22A9
  8
0
 10
27.755770698781848
 20
-0.4427866788000001
 30
0.0
 11
27.710022583281852
 21
-0.4669421787
 31
0.0
  0
LINE
  5
22AA
  8
0
 10
27.75577101958185
 20
-0.5142156364
 30
0.0
 11
27.710022583281852
 21
-0.5383716995000001
 31
0.0
  0
LINE
  5
22AB
  8
0
 10
27.75577159888185
 20
-0.585644649
 30
0.0
 11
27.748186415581849
 21
-0.5899336129
 31
0.0
  0
LINE
  5
22AC
  8
0
 10
27.75577159888185
 20
-0.585644649
 30
0.0
 11
27.748186415581849
 21
-0.5899336129
 31
0.0
  0
LINE
  5
22AD
  8
0
 10
27.634764817081852
 20
7.6286279178999994
 30
0.0
 11
27.65251914587984
 21
7.629094901541845
 31
0.0
  0
LINE
  5
22AE
  8
0
 10
27.640026521781849
 20
7.7285250581999998
 30
0.0
 11
27.65105189226691
 21
7.7287226522215278
 31
0.0
  0
LINE
  5
22AF
  8
0
 10
27.64472454682965
 20
7.7287406656441648
 30
0.0
 11
27.63209700908185
 21
7.7285202511999991
 31
0.0
  0
LINE
  5
22B0
  8
0
 10
27.635393033881851
 20
7.8284122496000004
 30
0.0
 11
27.649458309963489
 21
7.8285366288368037
 31
0.0
  0
LINE
  5
22B1
  8
0
 10
28.483674499781841
 20
-0.3958634284497453
 30
0.0
 11
28.526488107181851
 21
-0.3732353045
 31
0.0
  0
LINE
  5
22B2
  8
0
 10
28.483674386281852
 20
-0.5387213191
 30
0.0
 11
28.52942258328185
 21
-0.5145662801000001
 31
0.0
  0
LINE
  5
22B3
  8
0
 10
28.483674440881838
 20
-0.4672919462842788
 30
0.0
 11
28.52942258328185
 21
-0.4431420576
 31
0.0
  0
LINE
  5
22B4
  8
0
 10
28.574722583281851
 20
8.3225302194000008
 30
0.0
 11
27.664722583281851
 21
8.3225302194000008
 31
0.0
  0
LINE
  5
22B5
  8
0
 10
28.56972259036684
 20
8.4125302194000007
 30
0.0
 11
27.669722576196861
 21
8.4125302194000007
 31
0.0
  0
ARC
  5
22DB
  8
0
 10
27.73972258328185
 20
-0.2714697806
 30
0.0
 40
0.02
 50
0.0
 51
90.0
  0
ARC
  5
22DC
  8
0
 10
28.569722583281841
 20
-0.2314697806
 30
0.0
 40
0.02
 50
270.0
 51
0.0
  0
ARC
  5
22DD
  8
0
 10
27.66972258328185
 20
-0.2314697806
 30
0.0
 40
0.02
 50
180.0
 51
270.0
  0
ARC
  5
22DE
  8
0
 10
27.66972258328185
 20
-0.1814697806
 30
0.0
 40
0.02
 50
90.0
 51
180.0
  0
ARC
  5
22DF
  8
0
 10
28.499722583281851
 20
-0.2714697806
 30
0.0
 40
0.02
 50
90.0
 51
180.0
  0
ARC
  5
22E0
  8
0
 10
27.73972258328185
 20
-0.2714697806
 30
0.0
 40
0.02
 50
0.0
 51
90.0
  0
ARC
  5
22E1
  8
0
 10
28.569722583281841
 20
-0.2314697806
 30
0.0
 40
0.02
 50
270.0
 51
0.0
  0
ARC
  5
22E2
  8
0
 10
27.66972258328185
 20
-0.2314697806
 30
0.0
 40
0.02
 50
180.0
 51
270.0
  0
ARC
  5
22E3
  8
0
 10
27.66972258328185
 20
-0.1814697806
 30
0.0
 40
0.02
 50
90.0
 51
180.0
  0
ARC
  5
22E4
  8
0
 10
28.569722583281841
 20
-0.1814697806
 30
0.0
 40
0.02
 50
0.0
 51
90.0
  0
ARC
  5
22E5
  8
0
 10
28.499722583281851
 20
-0.2714697806
 30
0.0
 40
0.02
 50
90.0
 51
180.0
  0
ARC
  5
22E6
  8
0
 10
27.664722583281851
 20
4.6625302193999989
 30
0.0
 40
0.02
 50
180.0
 51
270.0
  0
ARC
  5
22E7
  8
0
 10
27.632271536281841
 20
5.2665386644999987
 30
0.0
 40
0.01
 50
185.49980915559999
 51
268.9999623508001
  0
ARC
  5
22E8
  8
0
 10
27.627081554181849
 20
5.3204386893000004
 30
0.0
 40
0.01
 50
102.0000376491999
 51
185.50019084440001
  0
ARC
  5
22E9
  8
0
 10
27.631816009881849
 20
5.4663236137000002
 30
0.0
 40
0.01
 50
184.4998091377
 51
267.99996234759988
  0
ARC
  5
22EA
  8
0
 10
27.627567503381851
 20
5.5203060070000003
 30
0.0
 40
0.01
 50
101.0000376524
 51
184.5001908623
  0
ARC
  5
22EB
  8
0
 10
27.63135679968185
 20
5.6661165456999996
 30
0.0
 40
0.01
 50
183.49980912789999
 51
266.99996234589997
  0
ARC
  5
22EC
  8
0
 10
27.628051062881848
 20
5.7201648639
 30
0.0
 40
0.01
 50
100.0000376541
 51
183.50019087189989
  0
ARC
  5
22ED
  8
0
 10
27.630894045481849
 20
5.8659175236000003
 30
0.0
 40
0.01
 50
182.4998091221
 51
265.99996234379989
  0
ARC
  5
22EE
  8
0
 10
27.628532085481851
 20
5.9200153028999987
 30
0.0
 40
0.01
 50
99.000037656199993
 51
182.50019087800001
  0
ARC
  5
22EF
  8
0
 10
27.630427888481851
 20
6.0657266078999994
 30
0.0
 40
0.01
 50
181.4998091281
 51
264.9999623449001
  0
ARC
  5
22F0
  8
0
 10
27.62901042458185
 20
6.1198573698000001
 30
0.0
 40
0.01
 50
98.000037655100044
 51
181.50019087189989
  0
ARC
  5
22F1
  8
0
 10
27.629958470481849
 20
6.2655438568999999
 30
0.0
 40
0.01
 50
180.49980914560001
 51
263.99996234960008
  0
ARC
  5
22F2
  8
0
 10
27.629485934581851
 20
6.3196911126000002
 30
0.0
 40
0.01
 50
97.000037650400074
 51
180.50019085439999
  0
ARC
  5
22F3
  8
0
 10
27.62972258328185
 20
6.4654555605999988
 30
0.0
 40
0.01
 50
179.99990770560001
 51
263.49996235169999
  0
ARC
  5
22F4
  8
0
 10
27.62972258328185
 20
6.5196048782
 30
0.0
 40
0.01
 50
96.500037648299994
 51
180.00009229439999
  0
ARC
  5
22F5
  8
0
 10
27.62901042458185
 20
6.8652030689999988
 30
0.0
 40
0.01
 50
178.49990787009989
 51
261.99996236279998
  0
ARC
  5
22F6
  8
0
 10
27.630427888481851
 20
6.9193338309000003
 30
0.0
 40
0.01
 50
95.000037637199895
 51
178.50009212929999
  0
ARC
  5
22F7
  8
0
 10
27.629485934581851
 20
6.6653693262000004
 30
0.0
 40
0.01
 50
179.49990777689999
 51
262.99996235650002
  0
ARC
  5
22F8
  8
0
 10
27.629958470481849
 20
6.7195165818999998
 30
0.0
 40
0.01
 50
96.000037643400006
 51
179.50009222310001
  0
ARC
  5
22F9
  8
0
 10
27.628051062881848
 20
7.2648955748999988
 30
0.0
 40
0.01
 50
176.49990812009989
 51
259.99998170100002
  0
ARC
  5
22FA
  8
0
 10
27.63135679968185
 20
7.3189438930999993
 30
0.0
 40
0.01
 50
93.00001829899999
 51
176.50009188000001
  0
ARC
  5
22FB
  8
0
 10
27.628532085481851
 20
7.0650451358000002
 30
0.0
 40
0.01
 50
177.4999079845
 51
260.9999623704
  0
ARC
  5
22FC
  8
0
 10
27.630894045481849
 20
7.1191429151999994
 30
0.0
 40
0.01
 50
94.000037629599944
 51
177.50009201540001
  0
ARC
  5
22FD
  8
0
 10
27.632271536281841
 20
7.7185217742999992
 30
0.0
 40
0.01
 50
91.000018231600023
 51
174.50009153100001
  0
ARC
  5
22FE
  8
0
 10
27.627081554181849
 20
7.6646217495000002
 30
0.0
 40
0.01
 50
174.49990846909989
 51
257.99998176839989
  0
ARC
  5
22FF
  8
0
 10
27.627567503381851
 20
7.4647544317999994
 30
0.0
 40
0.01
 50
175.49990828270001
 51
258.99998173279999
  0
ARC
  5
2300
  8
0
 10
27.631816009881849
 20
7.5187368250999986
 30
0.0
 40
0.01
 50
92.000018267199991
 51
175.50009171740001
  0
ARC
  5
2301
  8
0
 10
27.671747374598091
 20
8.3905054288010348
 30
0.0
 40
0.0221176673610476
 50
95.252591106462148
 51
174.7474291905381
  0
ARC
  5
2302
  8
0
 10
27.66972258328185
 20
8.3425302194000004
 30
0.0
 40
0.02
 50
180.0
 51
269.99997974310003
  0
ARC
  5
2303
  8
0
 10
27.664722583281851
 20
8.3025302194000012
 30
0.0
 40
0.02
 50
90.0
 51
180.0
  0
ARC
  5
2304
  8
0
 10
28.574722583281851
 20
4.6625302193999989
 30
0.0
 40
0.02
 50
270.0
 51
0.0
  0
ARC
  5
2305
  8
0
 10
28.568437640292121
 20
8.3912452768654724
 30
0.0
 40
0.0213236928179188
 50
3.4546742377307611
 51
86.545305465248603
  0
ARC
  5
2306
  8
0
 10
28.569722583281841
 20
8.3425302194000004
 30
0.0
 40
0.02
 50
270.00002025689997
 51
0.0
  0
ARC
  5
2307
  8
0
 10
28.574722583281851
 20
8.3025302194000012
 30
0.0
 40
0.02
 50
0.0
 51
90.0
  0
ARC
  5
261E
  8
0
 10
30.507087205031791
 20
4.3235302194000003
 30
0.0
 40
1.9196625968430601
 50
177.61156457181099
 51
182.3884354281889
  0
ARC
  5
261F
  8
0
 10
27.630028110582341
 20
5.2201275516733938
 30
0.0
 40
0.0104088548430592
 50
103.1738743620425
 51
181.05652298458651
  0
ARC
  5
2620
  8
0
 10
27.635968988218139
 20
5.167810236439859
 30
0.0
 40
0.0111768967957269
 50
180.48316181218439
 51
267.04619489125622
  0
ARC
  5
2621
  8
0
 10
27.635569580629902
 20
7.8180889725218092
 30
0.0
 40
0.0103247866025093
 50
90.979766162556686
 51
165.72438912653519
  0
ARC
  5
2622
  8
0
 10
27.981526293371651
 20
7.7547211548121311
 30
0.0
 40
0.3620138855460273
 50
169.50933902442239
 51
178.4371643928875
  0
ARC
  5
2623
  8
0
 10
27.629986617093358
 20
7.7648752967769132
 30
0.0
 40
0.0103433594313031
 50
181.55591812441071
 51
256.97720174379441
  0
ARC
  5
2624
  8
0
 10
27.640788474074078
 20
7.7169550363448769
 30
0.0
 40
0.0115950841749275
 50
93.767814975889749
 51
170.51889679742891
  0
ARC
  5
2625
  8
0
 10
27.827588030392619
 20
7.6743960592863916
 30
0.0
 40
0.2031627390831892
 50
167.35654326520549
 51
183.06589034494269
  0
ARC
  5
2626
  8
0
 10
27.635336514040659
 20
7.6653531601257487
 30
0.0
 40
0.0107757784358257
 50
189.7405853449456
 51
257.10820670153299
  0
ARC
  5
2627
  8
0
 10
27.63516908971491
 20
7.6182279903139856
 30
0.0
 40
0.0104077821920023
 50
92.226117335859755
 51
168.31520313391209
  0
ARC
  5
2628
  8
0
 10
27.987413154810181
 20
7.5608059793086229
 30
0.0
 40
0.3672924960066703
 50
170.67249397362701
 51
179.420761741315
  0
ARC
  5
2629
  8
0
 10
27.630465890011109
 20
7.5650009727825394
 30
0.0
 40
0.0103376987630958
 50
182.67169587810059
 51
257.98304269846028
  0
ARC
  5
262A
  8
0
 10
27.640266364804511
 20
7.5172953035605037
 30
0.0
 40
0.0114720630823143
 50
94.349955843400437
 51
171.4240270878509
  0
ARC
  5
262B
  8
0
 10
27.848089000912651
 20
7.4750980223966668
 30
0.0
 40
0.2235214459831272
 50
168.67128702801139
 51
182.21427962657739
  0
ARC
  5
262C
  8
0
 10
27.63638485840411
 20
7.4662574777760264
 30
0.0
 40
0.0116521966123152
 50
178.9949787645844
 51
256.11657048774879
  0
ARC
  5
262D
  8
0
 10
27.63465658789999
 20
7.4185500623778946
 30
0.0
 40
0.0102958505931025
 50
92.915310861597462
 51
166.65740855862441
  0
ARC
  5
262E
  8
0
 10
27.956366725756521
 20
7.3696980619124766
 30
0.0
 40
0.3356602847449044
 50
171.2212905874627
 51
181.0540899868696
  0
ARC
  5
262F
  8
0
 10
27.63089810288082
 20
7.3650609479478284
 30
0.0
 40
0.0102508626453013
 50
188.62785921919209
 51
259.15619356679991
  0
ARC
  5
2630
  8
0
 10
27.63989442072279
 20
7.3174612989697474
 30
0.0
 40
0.0115269629859762
 50
95.635704069507995
 51
171.48766889666521
  0
ARC
  5
2631
  8
0
 10
27.827312322747431
 20
7.2812774876935693
 30
0.0
 40
0.2023961651142254
 50
169.21014449491
 51
185.01274489279601
  0
ARC
  5
2632
  8
0
 10
27.636375275251499
 20
7.265742507724708
 30
0.0
 40
0.0108991436156008
 50
191.37619973959249
 51
258.72246472854778
  0
ARC
  5
2633
  8
0
 10
27.634473619127689
 20
7.2183937602570261
 30
0.0
 40
0.0106771411598477
 50
95.244827011189727
 51
171.73003884118219
  0
ARC
  5
2634
  8
0
 10
28.00990165498586
 20
7.1719672586227032
 30
0.0
 40
0.3889625467576161
 50
172.9169327118193
 51
180.74115946662661
  0
ARC
  5
2635
  8
0
 10
27.631746528874231
 20
7.1657391419973004
 30
0.0
 40
0.0108411367708049
 50
173.66214072542991
 51
258.7078586470443
  0
ARC
  5
2636
  8
0
 10
27.639306379301079
 20
7.1178919173008586
 30
0.0
 40
0.0112897053609437
 50
96.004924760938465
 51
170.73638874363189
  0
ARC
  5
2637
  8
0
 10
27.85125139942922
 20
7.0823747570444979
 30
0.0
 40
0.2261899532255384
 50
170.4993750586502
 51
183.9992644771236
  0
ARC
  5
2638
  8
0
 10
27.637384178204339
 20
7.0666797683981279
 30
0.0
 40
0.0117722212389467
 50
180.39096341309141
 51
257.80167327577738
  0
ARC
  5
2639
  8
0
 10
27.633794915488679
 20
7.0188426707860332
 30
0.0
 40
0.0104081844698612
 50
95.159109560979346
 51
172.58011712321431
  0
ARC
  5
263A
  8
0
 10
27.976327886904532
 20
6.9809213673932033
 30
0.0
 40
0.3550319977327779
 50
173.65027867592909
 51
182.76208667516991
  0
ARC
  5
263B
  8
0
 10
27.631862280570228
 20
6.9653858485815032
 30
0.0
 40
0.0102750583415829
 50
188.80632989453389
 51
261.11759612002379
  0
ARC
  5
263C
  8
0
 10
27.63867502705072
 20
6.9184062353634213
 30
0.0
 40
0.0109542432057106
 50
96.236314106271649
 51
167.3708221139369
  0
ARC
  5
263D
  8
0
 10
27.813926264020449
 20
6.8883790485559091
 30
0.0
 40
0.188745995846121
 50
170.10884514577799
 51
187.77500287260389
  0
ARC
  5
263E
  8
0
 10
27.637199600109849
 20
6.8659065527769076
 30
0.0
 40
0.0107302529523606
 50
196.57871428472089
 51
261.14335439390521
  0
ARC
  5
263F
  8
0
 10
27.633387120192619
 20
6.8189419934733086
 30
0.0
 40
0.0105033622852849
 50
96.394602672015168
 51
175.69602152708489
  0
ARC
  5
2640
  8
0
 10
28.000406455165098
 20
6.7863458244392802
 30
0.0
 40
0.3789664140891018
 50
174.94607100827599
 51
183.2864537393352
  0
ARC
  5
2641
  8
0
 10
27.632378178950599
 20
6.765633749283837
 30
0.0
 40
0.0103645419560522
 50
185.61058592533291
 51
261.94287912619268
  0
ARC
  5
2642
  8
0
 10
27.638409218139181
 20
6.7181596723439991
 30
0.0
 40
0.0114089303334315
 50
97.896067660959844
 51
176.9648500394257
  0
ARC
  5
2643
  8
0
 10
27.835901104292279
 20
6.6913549046228447
 30
0.0
 40
0.2106753668399104
 50
172.524631979075
 51
187.3356592441628
  0
ARC
  5
2644
  8
0
 10
27.63772691347264
 20
6.6662666844100329
 30
0.0
 40
0.0109279750731762
 50
189.54028126195979
 51
261.94681362461591
  0
ARC
  5
2645
  8
0
 10
27.633039860764342
 20
6.6190713484343418
 30
0.0
 40
0.0105111997983711
 50
97.135834553908111
 51
176.9466242017827
  0
ARC
  5
2646
  8
0
 10
27.963840089570208
 20
6.5927953704039961
 30
0.0
 40
0.3423499221034669
 50
175.5041289741846
 51
184.99603487591921
  0
ARC
  5
2647
  8
0
 10
27.63267278883788
 20
6.5656364499748756
 30
0.0
 40
0.0102324506580849
 50
195.03992231950701
 51
262.91762547737892
  0
ARC
  5
2648
  8
0
 10
27.638215026015921
 20
6.51836920354752
 30
0.0
 40
0.0112971822418956
 50
98.632987879503986
 51
172.1924869383194
  0
ARC
  5
2649
  8
0
 10
27.638213358087111
 20
6.4668666064788534
 30
0.0
 40
0.0114705640135073
 50
181.79751305068899
 51
261.50693077697252
  0
ARC
  5
264A
  8
0
 10
27.841086199572409
 20
6.4921056767636172
 30
0.0
 40
0.2158610156268363
 50
172.6010037958705
 51
186.8107114522206
  0
ARC
  5
264B
  8
0
 10
27.632849068954201
 20
6.4190967333113784
 30
0.0
 40
0.0105797999213554
 50
97.811254255452553
 51
178.49646277938041
  0
ARC
  5
264C
  8
0
 10
27.958193072657341
 20
6.3961164171663576
 30
0.0
 40
0.3367243461202392
 50
176.03936482950689
 51
185.69420930960271
  0
ARC
  5
264D
  8
0
 10
27.632883074959938
 20
6.3656945664941746
 30
0.0
 40
0.0102001749232404
 50
197.0318450900748
 51
263.53253587155109
  0
ARC
  5
264E
  8
0
 10
27.63796481688388
 20
6.3184258014025874
 30
0.0
 40
0.0113271226325472
 50
98.984001472833185
 51
175.0999510013288
  0
ARC
  5
264F
  8
0
 10
27.82302517734259
 20
6.295378671090984
 30
0.0
 40
0.1978092246705949
 50
173.0269092887726
 51
189.41000583960761
  0
ARC
  5
2650
  8
0
 10
27.638221382702689
 20
6.2663836149843517
 30
0.0
 40
0.0108714862085776
 50
197.9275979298948
 51
262.71007887801687
  0
ARC
  5
2651
  8
0
 10
27.63240355106544
 20
6.2193823313448391
 30
0.0
 40
0.0104120355846148
 50
98.161148892451948
 51
175.76820059961759
  0
ARC
  5
2652
  8
0
 10
27.993017831365741
 20
6.1991194849484641
 30
0.0
 40
0.3715935596634467
 50
176.7554835356998
 51
185.31277325384079
  0
ARC
  5
2653
  8
0
 10
27.633360944021209
 20
6.1660430855001884
 30
0.0
 40
0.010425570826652
 50
187.33147831352539
 51
263.70223204926469
  0
ARC
  5
2654
  8
0
 10
27.638161938060911
 20
6.1178156085213802
 30
0.0
 40
0.0122234511673173
 50
102.3500471631038
 51
180.90690097897519
  0
ARC
  5
2655
  8
0
 10
27.830269127340131
 20
6.0992035315547533
 30
0.0
 40
0.2051575735457469
 50
174.84917250774629
 51
190.04762101926929
  0
ARC
  5
2656
  8
0
 10
27.63865290855842
 20
6.0665647685444188
 30
0.0
 40
0.0108629417742854
 50
196.8807476818933
 51
263.82841545789307
  0
ARC
  5
2657
  8
0
 10
27.632009895931251
 20
6.0194465065462319
 30
0.0
 40
0.0105237431120347
 50
99.484759489472196
 51
178.62107261274741
  0
ARC
  5
2658
  8
0
 10
27.996274564863221
 20
6.006136231396324
 30
0.0
 40
0.3750307168544937
 50
177.92736395122549
 51
186.38837072359931
  0
ARC
  5
2659
  8
0
 10
27.633727155673139
 20
5.9661266541381623
 30
0.0
 40
0.0102990430439815
 50
189.60841631114269
 51
265.40297768769108
  0
ARC
  5
265A
  8
0
 10
27.637024321312939
 20
5.918822236925779
 30
0.0
 40
0.0112675520147925
 50
100.8840849312429
 51
176.25125445666751
  0
ARC
  5
265B
  8
0
 10
27.829514900953679
 20
5.901881229087472
 30
0.0
 40
0.2044995184847469
 50
175.04095166042569
 51
190.66035050797689
  0
ARC
  5
265C
  8
0
 10
27.639189439618779
 20
5.8669113490671307
 30
0.0
 40
0.0110220730569075
 50
195.0380297630814
 51
264.45977607521911
  0
ARC
  5
265D
  8
0
 10
27.631424390400579
 20
5.8197648855395681
 30
0.0
 40
0.0103455924849306
 50
100.0235583973115
 51
175.501570321055
  0
ARC
  5
265E
  8
0
 10
27.962568692274861
 20
5.8110955016112626
 30
0.0
 40
0.3415896196637319
 50
178.40955354597651
 51
188.0119712952478
  0
ARC
  5
265F
  8
0
 10
27.634183748011839
 20
5.7662660454381607
 30
0.0
 40
0.0102547854536074
 50
195.7368951481493
 51
266.1634902595876
  0
ARC
  5
2660
  8
0
 10
27.636723076112471
 20
5.718745422749822
 30
0.0
 40
0.0115308907579636
 50
102.41610639608059
 51
180.3370678959798
  0
ARC
  5
2661
  8
0
 10
27.817655753181011
 20
5.7059412355852466
 30
0.0
 40
0.1928843249077394
 50
176.21394560430741
 51
193.07790331866809
  0
ARC
  5
2662
  8
0
 10
27.639522760336799
 20
5.6668686122062404
 30
0.0
 40
0.0107675961438981
 50
205.12819550559101
 51
265.95085461288818
  0
ARC
  5
2663
  8
0
 10
27.63092890258585
 20
5.6199262026963153
 30
0.0
 40
0.0103286496830916
 50
100.93512485253299
 51
177.15625648885151
  0
ARC
  5
2664
  8
0
 10
28.000771546208199
 20
5.6183783848564453
 30
0.0
 40
0.3801641567475225
 50
179.68949208333061
 51
187.97506852490091
  0
ARC
  5
2665
  8
0
 10
27.634783140762838
 20
5.5667679927017009
 30
0.0
 40
0.010560115370496
 50
186.166864713537
 51
266.48910280435632
  0
ARC
  5
2666
  8
0
 10
27.636023907030971
 20
5.5192458783450213
 30
0.0
 40
0.01113828505959
 50
102.6275162282991
 51
176.45195786388021
  0
ARC
  5
2667
  8
0
 10
27.796563695759581
 20
5.5080338107799012
 30
0.0
 40
0.1720688048114415
 50
176.03389542053421
 51
195.82144368211189
  0
ARC
  5
2668
  8
0
 10
27.639856555220369
 20
5.4668559823079628
 30
0.0
 40
0.010539920443594
 50
212.9651265465771
 51
267.49687799139309
  0
ARC
  5
2669
  8
0
 10
27.630568807297049
 20
5.4199092895044236
 30
0.0
 40
0.0105062409954438
 50
102.3954058253923
 51
181.9001342845855
  0
ARC
  5
266A
  8
0
 10
27.95253329429735
 20
5.4232967379781183
 30
0.0
 40
0.332485939440226
 50
180.64378847071239
 51
190.4657119796409
  0
ARC
  5
266B
  8
0
 10
27.635062079711251
 20
5.3666113692014132
 30
0.0
 40
0.0101831879985603
 50
201.3644748201358
 51
268.32721207341478
  0
ARC
  5
266C
  8
0
 10
27.635724662498241
 20
5.3191450435970591
 30
0.0
 40
0.0114132441508141
 50
104.16160397476879
 51
180.0000000000089
  0
ARC
  5
266D
  8
0
 10
27.829205617284881
 20
5.3128749399989346
 30
0.0
 40
0.2049901142917774
 50
178.24720076676999
 51
193.86251883532401
  0
ARC
  5
266E
  8
0
 10
27.6404402731742
 20
5.2674124409731018
 30
0.0
 40
0.0108849268520635
 50
199.6018275453593
 51
267.82158196311411
  0
ARC
  5
266F
  8
0
 10
28.019065074280249
 20
5.2331278438892923
 30
0.0
 40
0.3996618356455859
 50
181.8915886033837
 51
189.41986537068729
  0
ARC
  5
2670
  8
0
 10
-14120.4340932307
 20
6.4925302193722096
 30
0.0
 40
14148.078871785439
 50
359.99490349809759
 51
359.99499422411839
  0
ARC
  5
2671
  8
0
 10
-14120.4340932307
 20
6.4925302193722096
 30
0.0
 40
14148.078871785439
 50
359.99530311214761
 51
359.99539805891231
  0
ARC
  5
2672
  8
0
 10
-14120.4340932307
 20
6.4925302193722096
 30
0.0
 40
14148.078871785439
 50
359.99571128081209
 51
359.9958028960105
  0
ARC
  5
2673
  8
0
 10
-14120.4340932307
 20
6.4925302193722096
 30
0.0
 40
14148.078871785439
 50
359.99611128995309
 51
359.99620635429409
  0
ARC
  5
2674
  8
0
 10
-14120.4340932307
 20
6.4925302193722096
 30
0.0
 40
14148.078871785439
 50
359.99651911928538
 51
359.99661152049282
  0
ARC
  5
2675
  8
0
 10
-14120.4340932307
 20
6.4925302193722096
 30
0.0
 40
14148.078871785439
 50
359.99691952038501
 51
359.99701460158241
  0
ARC
  5
2676
  8
0
 10
-14120.4340932307
 20
6.4925302193722096
 30
0.0
 40
14148.078871785439
 50
359.99732701226321
 51
359.99742009725293
  0
ARC
  5
2677
  8
0
 10
-14120.4340932307
 20
6.4925302193722096
 30
0.0
 40
14148.078871785439
 50
359.99772780248452
 51
359.99782281538029
  0
ARC
  5
2678
  8
0
 10
-14120.4340932307
 20
6.4925302193722096
 30
0.0
 40
14148.078871785439
 50
359.99813495854892
 51
359.99822862590429
  0
ARC
  5
2679
  8
0
 10
-14120.4340932307
 20
6.4925302193722096
 30
0.0
 40
14148.078871785439
 50
359.99853613538392
 51
359.99863094952917
  0
ARC
  5
267A
  8
0
 10
-14120.4340932307
 20
6.4925302193722096
 30
0.0
 40
14148.078871785439
 50
359.99894295720043
 51
359.99903710598522
  0
ARC
  5
267B
  8
0
 10
-14120.4340932307
 20
6.4925302193722096
 30
0.0
 40
14148.078871785439
 50
359.99934451830251
 51
359.9994395145506
  0
ARC
  5
267C
  8
0
 10
-14120.4340932307
 20
6.4925302193722096
 30
0.0
 40
14148.078871785439
 50
359.99975147610633
 51
359.99984629951052
  0
ARC
  5
267D
  8
0
 10
-14120.4340932307
 20
6.4925302193722096
 30
0.0
 40
14148.078871785439
 50
0.0001536999364466
 51
0.0002485238939449
  0
ARC
  5
267E
  8
0
 10
-14120.4340932307
 20
6.4925302193722096
 30
0.0
 40
14148.078871785439
 50
0.0005604854496507
 51
0.0006554816977325
  0
ARC
  5
267F
  8
0
 10
-14120.4340932307
 20
6.4925302193722096
 30
0.0
 40
14148.078871785439
 50
0.0009628940150912
 51
0.0010570427997878
  0
ARC
  5
2680
  8
0
 10
-14120.4340932307
 20
6.4925302193722096
 30
0.0
 40
14148.078871785439
 50
0.0013690504708987
 51
0.0014638646160985
  0
ARC
  5
2681
  8
0
 10
-14120.4340932307
 20
6.4925302193722096
 30
0.0
 40
14148.078871785439
 50
0.0017713740958418
 51
0.0018650414112938
  0
ARC
  5
2682
  8
0
 10
-14120.4340932307
 20
6.4925302193722096
 30
0.0
 40
14148.078871785439
 50
0.0021771997915519
 51
0.0022721975156844
  0
ARC
  5
2683
  8
0
 10
-14120.4340932307
 20
6.4925302193722096
 30
0.0
 40
14148.078871785439
 50
0.0025799027472967
 51
0.0026729877371206
  0
ARC
  5
2684
  8
0
 10
-14120.4340932307
 20
6.4925302193722096
 30
0.0
 40
14148.078871785439
 50
0.0029853984179165
 51
0.0030804796151428
  0
ARC
  5
2685
  8
0
 10
-14120.4340932307
 20
6.4925302193722096
 30
0.0
 40
14148.078871785439
 50
0.003388479507266
 51
0.003480880714654
  0
ARC
  5
2686
  8
0
 10
-14120.4340932307
 20
6.4925302193722096
 30
0.0
 40
14148.078871785439
 50
0.0037936457059493
 51
0.0038887100469268
  0
ARC
  5
2687
  8
0
 10
-14120.4340932307
 20
6.4925302193722096
 30
0.0
 40
14148.078871785439
 50
0.0041971039898
 51
0.0042887191879856
  0
ARC
  5
2688
  8
0
 10
-14120.4340932307
 20
6.4925302193722096
 30
0.0
 40
14148.078871785439
 50
0.0046019410878861
 51
0.0046968878525109
  0
ARC
  5
2689
  8
0
 10
-14120.4340932307
 20
6.4925302193722096
 30
0.0
 40
14148.078871785439
 50
0.0050057758819175
 51
0.0050965019023641
  0
ARC
  5
268A
  8
0
 10
27.477136761174808
 20
5.1987358033494528
 30
0.0
 40
0.1774177661996853
 50
346.23593404839022
 51
11.91992463651327
  0
ARC
  5
268B
  8
0
 10
28.223937514608402
 20
-9.5579374254649814
 30
0.0
 40
9.2206507517250564
 50
90.56419889889024
 51
93.029409634026237
  0
ARC
  5
268C
  8
0
 10
31.42945962710813
 20
-149.95594273761091
 30
0.0
 40
149.65451607221041
 50
91.127877446295599
 51
91.262109322207408
  0
ARC
  5
268D
  8
0
 10
28.86621344521236
 20
-18.430792163660168
 30
0.0
 40
18.10473026526531
 50
91.490717486649743
 51
93.516409477483535
  0
ARC
  5
268E
  8
0
 10
9.5826699465143914
 20
381.09001612319202
 30
0.0
 40
381.89401833285979
 50
272.7275508473611
 51
272.83688758812031
  0
ARC
  5
268F
  8
0
 10
28.257173239107232
 20
-8.3509436111713011
 30
0.0
 40
7.9742240458157383
 50
91.191785123194194
 51
93.934436039854347
  0
ARC
  5
2690
  8
0
 10
29.898796175494891
 20
-133.1919793277965
 30
0.0
 40
132.82583330572521
 50
90.59196962995928
 51
90.779698767428229
  0
ARC
  5
2691
  8
0
 10
28.232330573178281
 20
-7.7569137905913079
 30
0.0
 40
7.3680282267932036
 50
90.999157353093523
 51
94.06501756823576
  0
ARC
  5
2692
  8
0
 10
27.908664416528751
 20
9.8627943357855141
 30
0.0
 40
10.254657912847991
 50
271.09061986712783
 51
273.45405381071299
  0
ARC
  5
2693
  8
0
 10
28.220642242363269
 20
-6.1915422892271481
 30
0.0
 40
5.7790331640320201
 50
91.008206535574018
 51
94.613918221785809
  0
ARC
  5
2694
  8
0
 10
27.982659653964351
 20
6.2211938174091479
 30
0.0
 40
6.6359974736811971
 50
271.17688241697323
 51
274.32992599118489
  0
ARC
  5
2695
  8
0
 10
28.228023439180831
 20
-6.4629639639842216
 30
0.0
 40
6.0386718072654366
 50
91.022948702428707
 51
94.485381399190913
  0
ARC
  5
2696
  8
0
 10
28.027154774825661
 20
5.1814855314233172
 30
0.0
 40
5.6075123660699369
 50
270.95091153146183
 51
274.66974166797968
  0
ARC
  5
2697
  8
0
 10
28.252293357283602
 20
-8.1933705078187717
 30
0.0
 40
7.7454342884918681
 50
90.971017863686612
 51
94.014657390015742
  0
ARC
  5
2698
  8
0
 10
28.024910064086949
 20
6.442039239054604
 30
0.0
 40
6.8917581272909718
 50
270.79917003444558
 51
274.19810420799888
  0
ARC
  5
2699
  8
0
 10
28.223809929450489
 20
-7.609363616125119
 30
0.0
 40
7.1489983518560001
 50
90.916926045690474
 51
94.121311206094944
  0
ARC
  5
269A
  8
0
 10
27.988857318373629
 20
7.2021268922555839
 30
0.0
 40
7.6643556885919111
 50
270.9012179373841
 51
274.04441616962998
  0
ARC
  5
269B
  8
0
 10
28.200996037376989
 20
-5.9018498145539731
 30
0.0
 40
5.4175085125076636
 50
90.957112945404475
 51
94.714033610679806
  0
ARC
  5
269C
  8
0
 10
28.007000982695089
 20
5.6036070916577829
 30
0.0
 40
6.0895838884195399
 50
270.97386901332641
 51
274.48952600405192
  0
ARC
  5
269D
  8
0
 10
28.2137070493621
 20
-6.2802670536335272
 30
0.0
 40
5.7842073228361768
 50
91.017467350914259
 51
94.540862254389637
  0
ARC
  5
269E
  8
0
 10
28.006096147450659
 20
5.4988328430364808
 30
0.0
 40
5.9967221433963394
 50
271.00231461384158
 51
274.56786692377352
  0
ARC
  5
269F
  8
0
 10
28.22719231994839
 20
-7.7393867102300309
 30
0.0
 40
7.219562432812876
 50
90.924380117132529
 51
94.107872831400314
  0
ARC
  5
26A0
  8
0
 10
27.998636646883082
 20
6.921034297102322
 30
0.0
 40
7.4426421658751103
 50
270.86289084131278
 51
274.08962731699648
  0
ARC
  5
26A1
  8
0
 10
28.235584013060809
 20
-7.9061472999978442
 30
0.0
 40
7.3746182655984089
 50
90.910392308712517
 51
94.086719981008386
  0
ARC
  5
26A2
  8
0
 10
27.991147551687511
 20
7.1200819166326266
 30
0.0
 40
7.6536000089833962
 50
270.9527543108249
 51
274.03292159993799
  0
ARC
  5
26A3
  8
0
 10
28.226005619322411
 20
-6.442324969907208
 30
0.0
 40
5.8870397202493248
 50
91.039258463313189
 51
94.581446410002783
  0
ARC
  5
26A4
  8
0
 10
28.02167002254593
 20
5.2683429227649086
 30
0.0
 40
5.8254135596760079
 50
270.9595899402363
 51
274.54881499567381
  0
ARC
  5
26A5
  8
0
 10
28.32102785633608
 20
-8.4470446317521208
 30
0.0
 40
7.8816955235156234
 50
91.261427421240725
 51
94.112646241045269
  0
ARC
  5
26A6
  8
0
 10
28.04285559145621
 20
4.8380677272422687
 30
0.0
 40
5.4063400993949902
 50
271.10926940907882
 51
274.67693972929709
  0
ARC
  5
26A7
  8
0
 10
37.265084788245026
 20
-298.66942044519448
 30
0.0
 40
298.23137297212628
 50
91.681343635519212
 51
91.828683187801786
  0
ARC
  5
28E2
  8
0
 10
27.520600503574531
 20
7.7870241921217884
 30
0.0
 40
0.1353795282507443
 50
343.98755902755772
 51
17.856705481692341
  0
ARC
  5
28E3
  8
0
 10
27.478534934271419
 20
7.6871597278455406
 30
0.0
 40
0.1774530289363941
 50
348.1572970517019
 51
13.545607711803161
  0
ARC
  5
28E4
  8
0
 10
27.535312016878951
 20
7.587815288569856
 30
0.0
 40
0.1242639027865691
 50
342.15827131979768
 51
19.40194282784736
  0
ARC
  5
28E5
  8
0
 10
27.556142025092669
 20
7.488809690240612
 30
0.0
 40
0.105759651139251
 50
338.93980410940088
 51
22.479031663621878
  0
ARC
  5
28E6
  8
0
 10
27.514178088663559
 20
7.3882929105790902
 30
0.0
 40
0.1468789767166247
 50
344.88170056208543
 51
16.394670126478271
  0
ARC
  5
28E7
  8
0
 10
27.484847317361609
 20
7.2887441552673033
 30
0.0
 40
0.1762007163006407
 50
347.64283432240768
 51
13.49212011901999
  0
ARC
  5
28E8
  8
0
 10
27.476379237649422
 20
7.1888593631042816
 30
0.0
 40
0.1855060668208239
 50
348.02854540086167
 51
12.96414927879778
  0
ARC
  5
28E9
  8
0
 10
27.519869765126039
 20
7.0899354258977692
 30
0.0
 40
0.1439789259471377
 50
344.47904288932619
 51
16.372178562397451
  0
ARC
  5
28EA
  8
0
 10
27.480900975121841
 20
6.9899735041935358
 30
0.0
 40
0.1825615577868059
 50
347.64235125177743
 51
13.066795902767179
  0
ARC
  5
28EB
  8
0
 10
27.49389734591912
 20
6.890735311127826
 30
0.0
 40
0.1703258892122843
 50
346.8179762781308
 51
13.74962163713173
  0
ARC
  5
28EC
  8
0
 10
27.565429235825722
 20
6.7914316336995517
 30
0.0
 40
0.1027570486195137
 50
337.14722577215508
 51
23.278463743729009
  0
ARC
  5
28ED
  8
0
 10
27.509289292922599
 20
6.6918208933560299
 30
0.0
 40
0.1561302029968604
 50
345.4001825319387
 51
14.88386272365562
  0
ARC
  5
28EE
  8
0
 10
27.510576713762902
 20
6.5921540141902346
 30
0.0
 40
0.1552129838511756
 50
345.01987942687367
 51
15.1221412495831
  0
ARC
  5
2930
  8
0
 10
27.48630237974303
 20
6.4925301311122121
 30
0.0
 40
0.1787028753812687
 50
347.14615702689912
 51
12.85390446734611
  0
ARC
  5
2931
  8
0
 10
27.425718069164969
 20
6.3930113391982886
 30
0.0
 40
0.2381822432982624
 50
350.1864173252365
 51
9.6716849657907211
  0
ARC
  5
2932
  8
0
 10
27.428195819738541
 20
6.2934403058023562
 30
0.0
 40
0.2354606871411488
 50
350.14397977548668
 51
9.5720979387911562
  0
ARC
  5
2933
  8
0
 10
27.441978097300922
 20
6.1940871766285781
 30
0.0
 40
0.2216809010490664
 50
349.32386270981442
 51
10.250570749928739
  0
ARC
  5
2934
  8
0
 10
27.470790221852379
 20
6.0944393894730391
 30
0.0
 40
0.1928735538012743
 50
347.84913841948588
 51
11.58338664975599
  0
ARC
  5
2935
  8
0
 10
27.455488870487841
 20
5.9952408196997524
 30
0.0
 40
0.2074277559140933
 50
348.47726782549358
 51
10.81370348454184
  0
ARC
  5
2936
  8
0
 10
27.4284756567613
 20
5.8958037106735173
 30
0.0
 40
0.2332148735983725
 50
349.80896201706611
 51
9.3399395419233002
  0
ARC
  5
2937
  8
0
 10
27.454703948604578
 20
5.7963886748781537
 30
0.0
 40
0.2067247158942385
 50
348.33306277448099
 51
10.674365573999481
  0
ARC
  5
2938
  8
0
 10
27.470096155981221
 20
5.6964622454039704
 30
0.0
 40
0.1906082803561795
 50
347.4998449857876
 51
11.36532362120654
  0
ARC
  5
2939
  8
0
 10
27.4241644905767
 20
5.5977700059710953
 30
0.0
 40
0.2347925684904531
 50
349.5814202839382
 51
9.1423320990217238
  0
ARC
  5
293A
  8
0
 10
27.479213837317861
 20
5.4972032031082207
 30
0.0
 40
0.1794904864379788
 50
346.66802993024493
 51
11.91325739471589
  0
ARC
  5
293B
  8
0
 10
27.486105039996751
 20
5.3979151024919449
 30
0.0
 40
0.1716211793286528
 50
345.85176895664569
 51
12.58814002272371
  0
ARC
  5
293C
  8
0
 10
27.442970147649429
 20
5.2984291813557931
 30
0.0
 40
0.2122975552409495
 50
348.56441362460191
 51
9.7328047712344272
  0
LINE
  5
29CA
  8
0
 10
28.415726483281851
 20
4.6425302194000002
 30
0.0
 11
28.415726483281851
 21
4.6345302194000002
 31
0.0
  0
LINE
  5
29CB
  8
0
 10
27.82371868328185
 20
4.6425302194000002
 30
0.0
 11
27.82371868328185
 21
4.6345302194000002
 31
0.0
  0
ATTDEF
  5
2C92
  8
DEFPOINTS
 10
28.116046595792511
 20
-0.1486216336261234
 30
0.0
 40
0.001
  1
K-14788-GR
  3

  2
MODELNUMBER
 70
     0
1001
ACDBATTR
1070
     0
1070
     1
  0
ATTDEF
  5
2C93
  8
DEFPOINTS
 10
28.116046595792511
 20
-0.1502883002927886
 30
0.0
 40
0.001
  1
SHIFT
  3

  2
TRADENAME
 70
     0
1001
ACDBATTR
1070
     0
1070
     1
  0
ATTDEF
  5
2C94
  8
DEFPOINTS
 10
28.116046595792511
 20
-0.1519549669594537
 30
0.0
 40
0.001
  1
HANDSHOWER
  3

  2
PRODUCT
 70
     0
1001
ACDBATTR
1070
     0
1070
     1
  0
ATTDEF
  5
2C95
  8
DEFPOINTS
 10
28.116046595792511
 20
-0.1536216336261189
 30
0.0
 40
0.001
  1
PREMIUM MATERIALS
  3

  2
MATERIAL
 70
     0
1001
ACDBATTR
1070
     0
1070
     1
  0
ENDSEC
  0
EOF
