  0
SECTION
  2
HEADER
  9
$ACADVER
  1
AC1009
  9
$INSBASE
 10
23.04923335988185
 20
11.8070445605
 30
0.0
  9
$EXTMIN
 10
22.505204856027799
 20
11.304403677873919
 30
0.0
  9
$EXTMAX
 10
23.593261863735901
 20
12.3070445605
 30
0.0
  9
$LIMMIN
 10
0.0
 20
0.0
  9
$LIMMAX
 10
11.692913385800001
 20
8.2677165353999982
  9
$ORTHOMODE
 70
     0
  9
$REGENMODE
 70
     1
  9
$FILLMODE
 70
     1
  9
$QTEXTMODE
 70
     0
  9
$MIRRTEXT
 70
     0
  9
$DRAGMODE
 70
     2
  9
$LTSCALE
 40
0.6431102362
  9
$OSMODE
 70
  3071
  9
$ATTMODE
 70
     1
  9
$TEXTSIZE
 40
0.2
  9
$TRACEWID
 40
0.05
  9
$TEXTSTYLE
  7
STANDARD
  9
$CLAYER
  8
0
  9
$CELTYPE
  6
BYLAYER
  9
$CECOLOR
 62
   256
  9
$DIMSCALE
 40
1.0
  9
$DIMASZ
 40
0.1875
  9
$DIMEXO
 40
0.0625
  9
$DIMDLI
 40
0.4443307087
  9
$DIMRND
 40
0.0
  9
$DIMDLE
 40
0.0
  9
$DIMEXE
 40
0.125
  9
$DIMTP
 40
0.01
  9
$DIMTM
 40
0.01
  9
$DIMTXT
 40
0.5
  9
$DIMCEN
 40
0.1052362205
  9
$DIMTSZ
 40
0.0
  9
$DIMTOL
 70
     1
  9
$DIMLIM
 70
     0
  9
$DIMTIH
 70
     1
  9
$DIMTOH
 70
     1
  9
$DIMSE1
 70
     0
  9
$DIMSE2
 70
     0
  9
$DIMTAD
 70
     0
  9
$DIMZIN
 70
     0
  9
$DIMBLK
  1

  9
$DIMASO
 70
     1
  9
$DIMSHO
 70
     1
  9
$DIMPOST
  1
\X
  9
$DIMAPOST
  1

  9
$DIMALT
 70
     1
  9
$DIMALTD
 70
     2
  9
$DIMALTF
 40
25.399999999999999
  9
$DIMLFAC
 40
1.0
  9
$DIMTOFL
 70
     0
  9
$DIMTVP
 40
0.0
  9
$DIMTIX
 70
     0
  9
$DIMSOXD
 70
     0
  9
$DIMSAH
 70
     0
  9
$DIMBLK1
  1

  9
$DIMBLK2
  1

  9
$DIMSTYLE
  2
STANDARD
  9
$DIMCLRD
 70
     0
  9
$DIMCLRE
 70
     0
  9
$DIMCLRT
 70
     0
  9
$DIMTFAC
 40
1.0
  9
$DIMGAP
 40
0.09
  9
$LUNITS
 70
     2
  9
$LUPREC
 70
     4
  9
$SKETCHINC
 40
0.1
  9
$FILLETRAD
 40
0.0
  9
$AUNITS
 70
     0
  9
$AUPREC
 70
     0
  9
$MENU
  1
.
  9
$ELEVATION
 40
0.0
  9
$PELEVATION
 40
0.0
  9
$THICKNESS
 40
0.0
  9
$LIMCHECK
 70
     0
  9
$BLIPMODE
 70
     0
  9
$CHAMFERA
 40
0.0
  9
$CHAMFERB
 40
0.0
  9
$SKPOLY
 70
     0
  9
$TDCREATE
 40
2458246.487747604
  9
$TDUPDATE
 40
2458246.7634067591
  9
$TDINDWG
 40
0.247090625
  9
$TDUSRTIMER
 40
0.247090625
  9
$USRTIMER
 70
     1
  9
$ANGBASE
 50
0.0
  9
$ANGDIR
 70
     0
  9
$PDMODE
 70
     0
  9
$PDSIZE
 40
0.3125
  9
$PLINEWID
 40
0.0
  9
$COORDS
 70
     1
  9
$SPLFRAME
 70
     0
  9
$SPLINETYPE
 70
     6
  9
$SPLINESEGS
 70
     8
  9
$ATTDIA
 70
     1
  9
$ATTREQ
 70
     1
  9
$HANDLING
 70
     1
  9
$HANDSEED
  5
2E5D
  9
$SURFTAB1
 70
     6
  9
$SURFTAB2
 70
     6
  9
$SURFTYPE
 70
     6
  9
$SURFU
 70
     6
  9
$SURFV
 70
     6
  9
$UCSNAME
  2

  9
$UCSORG
 10
0.0
 20
0.0
 30
0.0
  9
$UCSXDIR
 10
1.0
 20
0.0
 30
0.0
  9
$UCSYDIR
 10
0.0
 20
1.0
 30
0.0
  9
$PUCSNAME
  2

  9
$PUCSORG
 10
0.0
 20
0.0
 30
0.0
  9
$PUCSXDIR
 10
1.0
 20
0.0
 30
0.0
  9
$PUCSYDIR
 10
0.0
 20
1.0
 30
0.0
  9
$USERI1
 70
     0
  9
$USERI2
 70
     0
  9
$USERI3
 70
     0
  9
$USERI4
 70
     0
  9
$USERI5
 70
     0
  9
$USERR1
 40
0.0
  9
$USERR2
 40
0.0
  9
$USERR3
 40
0.0
  9
$USERR4
 40
0.0
  9
$USERR5
 40
0.0
  9
$WORLDVIEW
 70
     1
  9
$SHADEDGE
 70
     3
  9
$SHADEDIF
 70
    70
  9
$TILEMODE
 70
     1
  9
$MAXACTVP
 70
    64
  9
$PLIMCHECK
 70
     0
  9
$PEXTMIN
 10
1.0000000000000000E+020
 20
1.0000000000000000E+020
 30
1.0000000000000000E+020
  9
$PEXTMAX
 10
-1.0000000000000000E+020
 20
-1.0000000000000000E+020
 30
-1.0000000000000000E+020
  9
$PLIMMIN
 10
0.0
 20
0.0
  9
$PLIMMAX
 10
12.0
 20
9.0
  9
$UNITMODE
 70
     0
  9
$VISRETAIN
 70
     1
  9
$PLINEGEN
 70
     0
  9
$PSLTSCALE
 70
     1
  0
ENDSEC
  0
SECTION
  2
TABLES
  0
TABLE
  2
VPORT
 70
     1
  0
VPORT
  2
*ACTIVE
 70
     0
 10
0.0
 20
0.0
 11
1.0
 21
1.0
 12
0.0
 22
0.0
 13
0.0
 23
0.0
 14
1.0
 24
1.0
 15
0.0
 25
0.0
 16
0.0
 26
0.0
 36
4.167953836838957
 17
23.04923335988185
 27
11.80572411918696
 37
0.0
 40
1.4810621131715169
 41
2.1006711409395971
 42
50.0
 43
0.0
 44
0.0
 50
0.0
 51
0.0
 71
     0
 72
   100
 73
     1
 74
     1
 75
     0
 76
     0
 77
     0
 78
     0
  0
ENDTAB
  0
TABLE
  2
LTYPE
 70
     2
  0
LTYPE
  2
CONTINUOUS
 70
     0
  3
Solid line
 72
    65
 73
     0
 40
0.0
  0
LTYPE
  2
PHANTOM2
 70
     0
  3
___ _ _ ___ _ _ ___ _ _ ___ _ _
 72
    65
 73
     6
 40
1.25
 49
0.625
 49
-0.125
 49
0.125
 49
-0.125
 49
0.125
 49
-0.125
  0
ENDTAB
  0
TABLE
  2
LAYER
 70
     2
  0
LAYER
  2
0
 70
     0
 62
   255
  6
CONTINUOUS
  0
LAYER
  2
DEFPOINTS
 70
     0
 62
     7
  6
CONTINUOUS
  0
ENDTAB
  0
TABLE
  2
STYLE
 70
     1
  0
STYLE
  2
STANDARD
 70
     0
 40
0.0
 41
0.8
 50
0.0
 71
     0
 42
0.2
  3
txt
  4

  0
ENDTAB
  0
TABLE
  2
VIEW
 70
     0
  0
ENDTAB
  0
TABLE
  2
UCS
 70
     0
  0
ENDTAB
  0
TABLE
  2
APPID
 70
     9
  0
APPID
  2
ACAD
 70
     0
  0
APPID
  2
ACAD_MLEADERVER
 70
     0
  0
APPID
  2
ACAD_EXEMPT_FROM_CAD_STANDARDS
 70
     0
  0
APPID
  2
ACAD_NAV_VCDISPLAY
 70
     0
  0
APPID
  2
ACAD_DSTYLE_DIMJAG
 70
     0
  0
APPID
  2
ACAD_DSTYLE_DIMTALN
 70
     0
  0
APPID
  2
ACAECLAYERSTANDARD
 70
     0
  0
APPID
  2
ACCMTRANSPARENCY
 70
     0
  0
APPID
  2
ACDBATTR
 70
     0
  0
ENDTAB
  0
TABLE
  2
DIMSTYLE
 70
     1
  0
DIMSTYLE
  2
STANDARD
 70
     0
  3

  4

  5

  6

  7

 40
1.0
 41
0.1875
 42
0.0625
 43
0.38
 44
0.125
 45
0.0
 46
0.0
 47
0.01
 48
0.01
140
0.15625
141
0.09
142
0.0
143
25.399999999999999
144
1.0
145
0.0
146
1.0
147
0.09
 71
     1
 72
     0
 73
     1
 74
     1
 75
     0
 76
     0
 77
     0
 78
     4
170
     0
171
     2
172
     0
173
     0
174
     0
175
     0
176
     0
177
     0
178
     0
  0
ENDTAB
  0
ENDSEC
  0
SECTION
  2
BLOCKS
  0
BLOCK
  8
0
  2
$MODEL_SPACE
 70
     0
 10
0.0
 20
0.0
 30
0.0
  3
$MODEL_SPACE
  1

  0
ENDBLK
  5
21
  8
0
  0
BLOCK
 67
     1
  8
0
  2
$PAPER_SPACE
 70
     0
 10
0.0
 20
0.0
 30
0.0
  3
$PAPER_SPACE
  1

  0
ENDBLK
  5
1D
 67
     1
  8
0
  0
ENDSEC
  0
SECTION
  2
ENTITIES
  0
LINE
  5
21F2
  8
0
 10
22.793174060981851
 20
11.327151411099999
 30
0.0
 11
22.79274134208185
 21
11.3457901424
 31
0.0
  0
LINE
  5
21F3
  8
0
 10
22.902662435181849
 20
11.320487529799999
 30
0.0
 11
22.90155361418185
 21
11.336593025000001
 31
0.0
  0
LINE
  5
21F4
  8
0
 10
22.944233359881839
 20
12.2797465853563
 30
0.0
 11
22.944233359881839
 21
12.3047749821
 31
0.0
  0
LINE
  5
21F5
  8
0
 10
23.01222521018185
 20
11.315832782299999
 30
0.0
 11
23.01033330328185
 21
11.332360395
 31
0.0
  0
LINE
  5
21F6
  8
0
 10
22.866884749181839
 20
11.3204432079
 30
0.0
 11
22.87069432548185
 21
11.3387856264
 31
0.0
  0
LINE
  5
21F7
  8
0
 10
22.976600972981849
 20
11.317130002600001
 30
0.0
 11
22.97918343548185
 21
11.333188444199999
 31
0.0
  0
LINE
  5
21F8
  8
0
 10
23.121865746681848
 20
11.317130002600001
 30
0.0
 11
23.119302515881849
 21
11.333068856400001
 31
0.0
  0
LINE
  5
21F9
  8
0
 10
23.15423335988185
 20
12.3047749821
 30
0.0
 11
23.15423335988185
 21
12.2797465853563
 31
0.0
  0
LINE
  5
21FA
  8
0
 10
23.086241124815359
 20
11.31591306297444
 30
0.0
 11
23.08814970208185
 21
11.332502666
 31
0.0
  0
LINE
  5
21FB
  8
0
 10
23.23158094518185
 20
11.3204431133
 30
0.0
 11
23.227790766281849
 21
11.338697143999999
 31
0.0
  0
LINE
  5
21FC
  8
0
 10
23.195805010881841
 20
11.320487565000001
 30
0.0
 11
23.19692396048185
 21
11.3367507945
 31
0.0
  0
LINE
  5
21FD
  8
0
 10
23.305292658581848
 20
11.3271514047
 30
0.0
 11
23.305729224381849
 21
11.3459558387
 31
0.0
  0
ARC
  5
22CA
  8
0
 10
22.557754229881851
 20
11.428788018200001
 30
0.0
 40
0.04
 50
182.5809326561
 51
257.9799559153999
  0
ARC
  5
22CB
  8
0
 10
22.552934051481849
 20
11.4248196047
 30
0.0
 40
0.04
 50
182.60802871390001
 51
257.86028225529992
  0
ARC
  5
22CC
  8
0
 10
15.14923335988184
 20
11.8070445605
 30
0.0
 40
8.4399999999999995
 50
357.4190673187
 51
2.5809326828999999
  0
ARC
  5
22CD
  8
0
 10
15.15423335988185
 20
11.8070445605
 30
0.0
 40
8.4399999999999995
 50
357.39197128609999
 51
2.6080287139000018
  0
ARC
  5
22CE
  8
0
 10
22.557754229881851
 20
12.1853011027
 30
0.0
 40
0.04
 50
102.0200440556
 51
177.41906731700001
  0
ARC
  5
22CF
  8
0
 10
22.552934051481849
 20
12.1892695162
 30
0.0
 40
0.04
 50
102.1397177445
 51
177.3919712862
  0
ARC
  5
22D0
  8
0
 10
23.04923335988185
 20
9.8770445604999981
 30
0.0
 40
2.4300000000000002
 50
87.523485385400008
 51
92.476514614600006
  0
ARC
  5
22D1
  8
0
 10
23.04923335988185
 20
9.8770445604999981
 30
0.0
 40
2.399999999999999
 50
77.979955921399963
 51
102.02004408409989
  0
ARC
  5
22D2
  8
0
 10
23.04923335988185
 20
9.8820445604999971
 30
0.0
 40
2.399999999999999
 50
77.860282255400037
 51
102.13971774459991
  0
ARC
  5
22D3
  8
0
 10
23.540712489781839
 20
11.428788018200001
 30
0.0
 40
0.04
 50
282.02004405549991
 51
357.41906731699999
  0
ARC
  5
22D4
  8
0
 10
23.545532668281851
 20
11.4248196047
 30
0.0
 40
0.04
 50
282.13971774459992
 51
357.39197128620009
  0
ARC
  5
22D5
  8
0
 10
30.949233359881841
 20
11.8070445605
 30
0.0
 40
8.4399999999999995
 50
177.4190673187
 51
182.5809326829
  0
ARC
  5
22D6
  8
0
 10
30.944233359881849
 20
11.8070445605
 30
0.0
 40
8.4399999999999995
 50
177.39197128609999
 51
182.60802871390001
  0
ARC
  5
22D7
  8
0
 10
23.04923335988185
 20
13.737044560499999
 30
0.0
 40
2.399999999999999
 50
257.97995592139989
 51
282.02004408409999
  0
ARC
  5
22D8
  8
0
 10
23.04923335988185
 20
13.7320445605
 30
0.0
 40
2.399999999999999
 50
257.86028225540008
 51
282.13971774459992
  0
ARC
  5
22D9
  8
0
 10
23.540712489781839
 20
12.1853011027
 30
0.0
 40
0.04
 50
2.5809326561999959
 51
77.979955915399913
  0
ARC
  5
22DA
  8
0
 10
23.545532668281851
 20
12.1892695162
 30
0.0
 40
0.04
 50
2.6080287139000018
 51
77.860282255299893
  0
ARC
  5
2308
  8
0
 10
22.804234060578398
 20
11.327616229592531
 30
0.0
 40
0.0110697627484394
 50
182.40655294742001
 51
257.00727409032629
  0
ARC
  5
2309
  8
0
 10
22.855717357045869
 20
11.32325697456446
 30
0.0
 40
0.0115164200149479
 50
270.7493307268698
 51
345.85796416632911
  0
ARC
  5
230A
  8
0
 10
22.84804090595318
 20
11.518873759250511
 30
0.0
 40
0.2072800506212136
 50
257.0942333232328
 51
272.1640493239438
  0
ARC
  5
230B
  8
0
 10
22.91432839752154
 20
11.32180932488863
 30
0.0
 40
0.0117406055877661
 50
186.4642479601726
 51
262.48785282356141
  0
ARC
  5
230C
  8
0
 10
22.96531482982288
 20
11.31937989741729
 30
0.0
 40
0.0115082168077197
 50
275.57536006022173
 51
348.72587122326257
  0
ARC
  5
230D
  8
0
 10
22.947484168352229
 20
11.49724497094202
 30
0.0
 40
0.1902647656172855
 50
259.49458039890732
 51
275.71564399046622
  0
ARC
  5
230E
  8
0
 10
23.023022269812181
 20
11.317260112574701
 30
0.0
 40
0.0108909948294044
 50
187.5306190658188
 51
255.30332780175601
  0
ARC
  5
230F
  8
0
 10
23.075052103271801
 20
11.317515260580279
 30
0.0
 40
0.0113031517848171
 50
279.90642507739432
 51
351.85099983714269
  0
ARC
  5
2310
  8
0
 10
23.049759162191169
 20
11.492693247800609
 30
0.0
 40
0.1882930468965373
 50
260.98631002395609
 51
278.31730143669068
  0
ARC
  5
2311
  8
0
 10
23.13301876773922
 20
11.3192938958941
 30
0.0
 40
0.0113609996432758
 50
190.98002760204301
 51
262.4231017933003
  0
ARC
  5
2312
  8
0
 10
23.184405696599551
 20
11.32171146684229
 30
0.0
 40
0.0114648289052257
 50
282.70002996494111
 51
353.87184146108001
  0
ARC
  5
2313
  8
0
 10
23.151105017833451
 20
11.489559972735931
 30
0.0
 40
0.1825812570798493
 50
263.84241738640128
 51
281.31442989130358
  0
ARC
  5
2314
  8
0
 10
23.242665708642999
 20
11.32317947843595
 30
0.0
 40
0.0114175161548864
 50
193.86669753261941
 51
268.70204614119348
  0
ARC
  5
2315
  8
0
 10
23.294157370857189
 20
11.327705372367889
 30
0.0
 40
0.0111490588341786
 50
284.65305184042472
 51
357.15194936975439
  0
ARC
  5
2316
  8
0
 10
23.251082121974761
 20
11.51138607904911
 30
0.0
 40
0.1998095961035592
 50
267.51163407332172
 51
283.27920669555363
  0
ARC
  5
2317
  8
0
 10
22.822470198449722
 20
11.23958480396181
 30
0.0
 40
0.0771463496829486
 50
74.048006794351096
 51
95.711164103195685
  0
ARC
  5
2318
  8
0
 10
22.83589960598124
 20
11.3894552556407
 30
0.0
 40
0.0760928689411709
 50
253.89619612754319
 51
275.86297477000318
  0
ARC
  5
2319
  8
0
 10
22.935991643158609
 20
11.23865731594617
 30
0.0
 40
0.0728989374948678
 50
75.928178298864665
 51
98.871821774003976
  0
ARC
  5
231A
  8
0
 10
22.942385030820262
 20
11.37945064699133
 30
0.0
 40
0.0709920848585986
 50
255.6156851759041
 51
279.18431489697213
  0
ARC
  5
231B
  8
0
 10
23.049135042877751
 20
11.23358718968216
 30
0.0
 40
0.0748590211297962
 50
78.758548575402941
 51
101.0915872226059
  0
ARC
  5
231C
  8
0
 10
23.04933020464911
 20
11.38281481483083
 30
0.0
 40
0.0771600785767146
 50
259.09564247054061
 51
280.7544933283732
  0
ARC
  5
231D
  8
0
 10
23.162471809643701
 20
11.23872963038319
 30
0.0
 40
0.0728279833418087
 50
81.116904107375646
 51
104.0830947367787
  0
ARC
  5
231E
  8
0
 10
23.156080844127231
 20
11.37946965100017
 30
0.0
 40
0.071010692631312
 50
260.81887338366067
 51
284.38112546050053
  0
ARC
  5
231F
  8
0
 10
23.275967869470868
 20
11.24117860768181
 30
0.0
 40
0.0755564372082
 50
84.146393631435004
 51
106.2719631136713
  0
ARC
  5
2320
  8
0
 10
23.26230282876017
 20
11.391066102229921
 30
0.0
 40
0.0777209237515698
 50
264.45820857324168
 51
285.96014817185801
  0
ATTDEF
  5
2C88
  8
DEFPOINTS
 10
23.045750496138091
 20
11.81245402243454
 30
0.0
 40
0.001
  1
K-14788-GR
  3

  2
MODELNUMBER
 70
     0
1001
ACDBATTR
1070
     0
1070
     1
  0
ATTDEF
  5
2C89
  8
DEFPOINTS
 10
23.045750496138091
 20
11.81078735576788
 30
0.0
 40
0.001
  1
SHIFT
  3

  2
TRADENAME
 70
     0
1001
ACDBATTR
1070
     0
1070
     1
  0
ATTDEF
  5
2C8A
  8
DEFPOINTS
 10
23.045750496138091
 20
11.80912068910121
 30
0.0
 40
0.001
  1
HANDSHOWER
  3

  2
PRODUCT
 70
     0
1001
ACDBATTR
1070
     0
1070
     1
  0
ATTDEF
  5
2C8B
  8
DEFPOINTS
 10
23.045750496138091
 20
11.807454022434539
 30
0.0
 40
0.001
  1
PREMIUM MATERIALS
  3

  2
MATERIAL
 70
     0
1001
ACDBATTR
1070
     0
1070
     1
  0
ENDSEC
  0
EOF
