  0
SECTION
  2
HEADER
  9
$ACADVER
  1
AC1009
  9
$INSBASE
 10
23.04923335988185
 20
-0.1614697806
 30
0.0
  9
$EXTMIN
 10
22.504233359881841
 20
-0.6014697806
 30
0.0
  9
$EXTMAX
 10
23.594233359881851
 20
8.4125302194000007
 30
0.0
  9
$LIMMIN
 10
0.0
 20
0.0
  9
$LIMMAX
 10
11.692913385800001
 20
8.2677165353999982
  9
$ORTHOMODE
 70
     0
  9
$REGENMODE
 70
     1
  9
$FILLMODE
 70
     1
  9
$QTEXTMODE
 70
     0
  9
$MIRRTEXT
 70
     0
  9
$DRAGMODE
 70
     2
  9
$LTSCALE
 40
0.6431102362
  9
$OSMODE
 70
  3071
  9
$ATTMODE
 70
     1
  9
$TEXTSIZE
 40
0.2
  9
$TRACEWID
 40
0.05
  9
$TEXTSTYLE
  7
STANDARD
  9
$CLAYER
  8
0
  9
$CELTYPE
  6
BYLAYER
  9
$CECOLOR
 62
   256
  9
$DIMSCALE
 40
1.0
  9
$DIMASZ
 40
0.1875
  9
$DIMEXO
 40
0.0625
  9
$DIMDLI
 40
0.4443307087
  9
$DIMRND
 40
0.0
  9
$DIMDLE
 40
0.0
  9
$DIMEXE
 40
0.125
  9
$DIMTP
 40
0.01
  9
$DIMTM
 40
0.01
  9
$DIMTXT
 40
0.5
  9
$DIMCEN
 40
0.1052362205
  9
$DIMTSZ
 40
0.0
  9
$DIMTOL
 70
     1
  9
$DIMLIM
 70
     0
  9
$DIMTIH
 70
     1
  9
$DIMTOH
 70
     1
  9
$DIMSE1
 70
     0
  9
$DIMSE2
 70
     0
  9
$DIMTAD
 70
     0
  9
$DIMZIN
 70
     0
  9
$DIMBLK
  1

  9
$DIMASO
 70
     1
  9
$DIMSHO
 70
     1
  9
$DIMPOST
  1
\X
  9
$DIMAPOST
  1

  9
$DIMALT
 70
     1
  9
$DIMALTD
 70
     2
  9
$DIMALTF
 40
25.399999999999999
  9
$DIMLFAC
 40
1.0
  9
$DIMTOFL
 70
     0
  9
$DIMTVP
 40
0.0
  9
$DIMTIX
 70
     0
  9
$DIMSOXD
 70
     0
  9
$DIMSAH
 70
     0
  9
$DIMBLK1
  1

  9
$DIMBLK2
  1

  9
$DIMSTYLE
  2
STANDARD
  9
$DIMCLRD
 70
     0
  9
$DIMCLRE
 70
     0
  9
$DIMCLRT
 70
     0
  9
$DIMTFAC
 40
1.0
  9
$DIMGAP
 40
0.09
  9
$LUNITS
 70
     2
  9
$LUPREC
 70
     4
  9
$SKETCHINC
 40
0.1
  9
$FILLETRAD
 40
0.0
  9
$AUNITS
 70
     0
  9
$AUPREC
 70
     0
  9
$MENU
  1
.
  9
$ELEVATION
 40
0.0
  9
$PELEVATION
 40
0.0
  9
$THICKNESS
 40
0.0
  9
$LIMCHECK
 70
     0
  9
$BLIPMODE
 70
     0
  9
$CHAMFERA
 40
0.0
  9
$CHAMFERB
 40
0.0
  9
$SKPOLY
 70
     0
  9
$TDCREATE
 40
2458246.487747604
  9
$TDUPDATE
 40
2458246.7632045029
  9
$TDINDWG
 40
0.2433432176
  9
$TDUSRTIMER
 40
0.2433432176
  9
$USRTIMER
 70
     1
  9
$ANGBASE
 50
0.0
  9
$ANGDIR
 70
     0
  9
$PDMODE
 70
     0
  9
$PDSIZE
 40
0.3125
  9
$PLINEWID
 40
0.0
  9
$COORDS
 70
     1
  9
$SPLFRAME
 70
     0
  9
$SPLINETYPE
 70
     6
  9
$SPLINESEGS
 70
     8
  9
$ATTDIA
 70
     1
  9
$ATTREQ
 70
     1
  9
$HANDLING
 70
     1
  9
$HANDSEED
  5
2E63
  9
$SURFTAB1
 70
     6
  9
$SURFTAB2
 70
     6
  9
$SURFTYPE
 70
     6
  9
$SURFU
 70
     6
  9
$SURFV
 70
     6
  9
$UCSNAME
  2

  9
$UCSORG
 10
0.0
 20
0.0
 30
0.0
  9
$UCSXDIR
 10
1.0
 20
0.0
 30
0.0
  9
$UCSYDIR
 10
0.0
 20
1.0
 30
0.0
  9
$PUCSNAME
  2

  9
$PUCSORG
 10
0.0
 20
0.0
 30
0.0
  9
$PUCSXDIR
 10
1.0
 20
0.0
 30
0.0
  9
$PUCSYDIR
 10
0.0
 20
1.0
 30
0.0
  9
$USERI1
 70
     0
  9
$USERI2
 70
     0
  9
$USERI3
 70
     0
  9
$USERI4
 70
     0
  9
$USERI5
 70
     0
  9
$USERR1
 40
0.0
  9
$USERR2
 40
0.0
  9
$USERR3
 40
0.0
  9
$USERR4
 40
0.0
  9
$USERR5
 40
0.0
  9
$WORLDVIEW
 70
     1
  9
$SHADEDGE
 70
     3
  9
$SHADEDIF
 70
    70
  9
$TILEMODE
 70
     1
  9
$MAXACTVP
 70
    64
  9
$PLIMCHECK
 70
     0
  9
$PEXTMIN
 10
1.0000000000000000E+020
 20
1.0000000000000000E+020
 30
1.0000000000000000E+020
  9
$PEXTMAX
 10
-1.0000000000000000E+020
 20
-1.0000000000000000E+020
 30
-1.0000000000000000E+020
  9
$PLIMMIN
 10
0.0
 20
0.0
  9
$PLIMMAX
 10
12.0
 20
9.0
  9
$UNITMODE
 70
     0
  9
$VISRETAIN
 70
     1
  9
$PLINEGEN
 70
     0
  9
$PSLTSCALE
 70
     1
  0
ENDSEC
  0
SECTION
  2
TABLES
  0
TABLE
  2
VPORT
 70
     1
  0
VPORT
  2
*ACTIVE
 70
     0
 10
0.0
 20
0.0
 11
1.0
 21
1.0
 12
0.0
 22
0.0
 13
0.0
 23
0.0
 14
1.0
 24
1.0
 15
0.0
 25
0.0
 16
-0.0000000000000071
 26
0.0
 36
25.554421739715899
 17
23.04923335988185
 27
3.9055302194000001
 37
0.0
 40
9.0814174072033431
 41
2.1006711409395971
 42
50.0
 43
0.0
 44
0.0
 50
0.0
 51
0.0
 71
     0
 72
   100
 73
     1
 74
     1
 75
     0
 76
     0
 77
     0
 78
     0
  0
ENDTAB
  0
TABLE
  2
LTYPE
 70
     2
  0
LTYPE
  2
CONTINUOUS
 70
     0
  3
Solid line
 72
    65
 73
     0
 40
0.0
  0
LTYPE
  2
PHANTOM2
 70
     0
  3
___ _ _ ___ _ _ ___ _ _ ___ _ _
 72
    65
 73
     6
 40
1.25
 49
0.625
 49
-0.125
 49
0.125
 49
-0.125
 49
0.125
 49
-0.125
  0
ENDTAB
  0
TABLE
  2
LAYER
 70
     2
  0
LAYER
  2
0
 70
     0
 62
   255
  6
CONTINUOUS
  0
LAYER
  2
DEFPOINTS
 70
     0
 62
     7
  6
CONTINUOUS
  0
ENDTAB
  0
TABLE
  2
STYLE
 70
     1
  0
STYLE
  2
STANDARD
 70
     0
 40
0.0
 41
0.8
 50
0.0
 71
     0
 42
0.2
  3
txt
  4

  0
ENDTAB
  0
TABLE
  2
VIEW
 70
     0
  0
ENDTAB
  0
TABLE
  2
UCS
 70
     0
  0
ENDTAB
  0
TABLE
  2
APPID
 70
     9
  0
APPID
  2
ACAD
 70
     0
  0
APPID
  2
ACAD_MLEADERVER
 70
     0
  0
APPID
  2
ACAD_EXEMPT_FROM_CAD_STANDARDS
 70
     0
  0
APPID
  2
ACAD_NAV_VCDISPLAY
 70
     0
  0
APPID
  2
ACAD_DSTYLE_DIMJAG
 70
     0
  0
APPID
  2
ACAD_DSTYLE_DIMTALN
 70
     0
  0
APPID
  2
ACAECLAYERSTANDARD
 70
     0
  0
APPID
  2
ACCMTRANSPARENCY
 70
     0
  0
APPID
  2
ACDBATTR
 70
     0
  0
ENDTAB
  0
TABLE
  2
DIMSTYLE
 70
     1
  0
DIMSTYLE
  2
STANDARD
 70
     0
  3

  4

  5

  6

  7

 40
1.0
 41
0.1875
 42
0.0625
 43
0.38
 44
0.125
 45
0.0
 46
0.0
 47
0.01
 48
0.01
140
0.15625
141
0.09
142
0.0
143
25.399999999999999
144
1.0
145
0.0
146
1.0
147
0.09
 71
     1
 72
     0
 73
     1
 74
     1
 75
     0
 76
     0
 77
     0
 78
     4
170
     0
171
     2
172
     0
173
     0
174
     0
175
     0
176
     0
177
     0
178
     0
  0
ENDTAB
  0
ENDSEC
  0
SECTION
  2
BLOCKS
  0
BLOCK
  8
0
  2
$MODEL_SPACE
 70
     0
 10
0.0
 20
0.0
 30
0.0
  3
$MODEL_SPACE
  1

  0
ENDBLK
  5
21
  8
0
  0
BLOCK
 67
     1
  8
0
  2
$PAPER_SPACE
 70
     0
 10
0.0
 20
0.0
 30
0.0
  3
$PAPER_SPACE
  1

  0
ENDBLK
  5
1D
 67
     1
  8
0
  0
ENDSEC
  0
SECTION
  2
ENTITIES
  0
LINE
  5
219A
  8
0
 10
22.68923335988185
 20
-0.6014697806
 30
0.0
 11
23.409233359881839
 21
-0.6014697806
 31
0.0
  0
LINE
  5
219B
  8
0
 10
22.68923335988185
 20
-0.6014697806
 30
0.0
 11
23.409233359881839
 21
-0.6014697806
 31
0.0
  0
LINE
  5
219C
  8
0
 10
22.74017377849556
 20
-0.5975178119868816
 30
0.0
 11
22.68528146648185
 21
-0.5975178871
 31
0.0
  0
LINE
  5
219D
  8
0
 10
22.691472704466399
 20
-0.5517697806000002
 30
0.0
 11
22.995718235881849
 21
-0.5517697806000002
 31
0.0
  0
LINE
  5
219E
  8
0
 10
22.691472704466399
 20
-0.5517697806000002
 30
0.0
 11
22.995718235881849
 21
-0.5517697806000002
 31
0.0
  0
LINE
  5
219F
  8
0
 10
22.68923335988185
 20
-0.3264697806
 30
0.0
 11
23.409233359881839
 21
-0.3264697806
 31
0.0
  0
LINE
  5
21A0
  8
0
 10
23.499233359881849
 20
-0.2514697806
 30
0.0
 11
22.59923335988185
 21
-0.2514697806
 31
0.0
  0
LINE
  5
21A1
  8
0
 10
23.499233359881849
 20
-0.2514697806
 30
0.0
 11
22.59923335988185
 21
-0.2514697806
 31
0.0
  0
LINE
  5
21A2
  8
0
 10
22.509233359881851
 20
-0.1614697806
 30
0.0
 11
23.589233359881849
 21
-0.1614697806
 31
0.0
  0
LINE
  5
21A3
  8
0
 10
22.67569018578185
 20
-0.5872915161
 30
0.0
 11
22.68528146648185
 21
-0.5922931487000001
 31
0.0
  0
LINE
  5
21A4
  8
0
 10
22.639533359881849
 20
-0.496708397
 30
0.0
 11
22.685282415281851
 21
-0.5205237993000002
 31
0.0
  0
LINE
  5
21A5
  8
0
 10
22.639533359881849
 20
-0.4252791057
 30
0.0
 11
22.68528143958185
 21
-0.4490940178000001
 31
0.0
  0
LINE
  5
21A6
  8
0
 10
22.639533359881849
 20
-0.4252791057
 30
0.0
 11
22.68528143958185
 21
-0.4490940178000001
 31
0.0
  0
LINE
  5
21A7
  8
0
 10
22.654211473781849
 20
-0.3614916667
 30
0.0
 11
22.685281499581851
 21
-0.3776656134
 31
0.0
  0
LINE
  5
21A8
  8
0
 10
22.654211473781849
 20
-0.3614916667
 30
0.0
 11
22.685281499581851
 21
-0.3776656134
 31
0.0
  0
LINE
  5
21A9
  8
0
 10
23.43251334758185
 20
-0.5781897929000001
 30
0.0
 11
23.41318479588185
 21
-0.5681285303000001
 31
0.0
  0
LINE
  5
21AA
  8
0
 10
23.43251334758185
 20
-0.5781897929000001
 30
0.0
 11
23.41318479588185
 21
-0.5681285303000001
 31
0.0
  0
LINE
  5
21AB
  8
0
 10
23.458933359881851
 20
-0.5205141145000001
 30
0.0
 11
23.413185050981841
 21
-0.4966985302000001
 31
0.0
  0
LINE
  5
21AC
  8
0
 10
23.458933359881851
 20
-0.5205141145000001
 30
0.0
 11
23.413185050981841
 21
-0.4966985302000001
 31
0.0
  0
LINE
  5
21AD
  8
0
 10
23.458933359881851
 20
-0.4490849426
 30
0.0
 11
23.413185247881849
 21
-0.4252698661000001
 31
0.0
  0
LINE
  5
21AE
  8
0
 10
23.458933359881851
 20
-0.4490849426
 30
0.0
 11
23.413185247881849
 21
-0.4252698661000001
 31
0.0
  0
LINE
  5
21AF
  8
0
 10
23.458933359881851
 20
-0.3776558356000001
 30
0.0
 11
23.413185201881848
 21
-0.3538407991
 31
0.0
  0
LINE
  5
21B0
  8
0
 10
23.458933359881851
 20
-0.3776558356000001
 30
0.0
 11
23.413185201881848
 21
-0.3538407991
 31
0.0
  0
LINE
  5
21B1
  8
0
 10
22.68923335988185
 20
-0.6014697806
 30
0.0
 11
22.68528146648185
 21
-0.5975178871
 31
0.0
  0
LINE
  5
21B2
  8
0
 10
22.67569018578185
 20
-0.5872915161
 30
0.0
 11
22.642465702581848
 21
-0.5547021234000001
 31
0.0
  0
LINE
  5
21B3
  8
0
 10
22.67569018578185
 20
-0.5872915161
 30
0.0
 11
22.642465702581848
 21
-0.5547021234000001
 31
0.0
  0
LINE
  5
21B4
  8
0
 10
23.409233359881839
 20
-0.3264697806
 30
0.0
 11
23.420767215581851
 21
-0.3380036363
 31
0.0
  0
LINE
  5
21B5
  8
0
 10
23.409233359881839
 20
-0.3264697806
 30
0.0
 11
23.420767215581851
 21
-0.3380036363
 31
0.0
  0
LINE
  5
21B6
  8
0
 10
22.504233359881841
 20
8.3031023119971614
 30
0.0
 11
22.504233359881841
 21
4.6625302193999989
 31
0.0
  0
LINE
  5
21B7
  8
0
 10
22.509233359881851
 20
-0.1614697806
 30
0.0
 11
22.509233359881851
 21
4.5885302193999991
 31
0.0
  0
LINE
  5
21B8
  8
0
 10
22.509233359881851
 20
8.3425302194000004
 30
0.0
 11
22.509233359881851
 21
8.3925302194000011
 31
0.0
  0
LINE
  5
21B9
  8
0
 10
22.519233359881841
 20
4.6345302194000002
 30
0.0
 11
22.519233359881841
 21
4.5945302194000002
 31
0.0
  0
LINE
  5
21BA
  8
0
 10
22.579233359881851
 20
-0.1814697806
 30
0.0
 11
22.579233359881851
 21
-0.2314697806
 31
0.0
  0
LINE
  5
21BB
  8
0
 10
22.579233359881851
 20
-0.1814697806
 30
0.0
 11
22.579233359881851
 21
-0.2314697806
 31
0.0
  0
LINE
  5
21BC
  8
0
 10
22.639533359881849
 20
-0.4133703919
 30
0.0
 11
22.639533359881849
 21
-0.4252791057
 31
0.0
  0
LINE
  5
21BD
  8
0
 10
22.639533359881849
 20
-0.4847994906000001
 30
0.0
 11
22.639533359881849
 21
-0.496708397
 31
0.0
  0
LINE
  5
21BE
  8
0
 10
22.639533359881849
 20
-0.4847994906000001
 30
0.0
 11
22.639533359881849
 21
-0.496708397
 31
0.0
  0
LINE
  5
21BF
  8
0
 10
22.68528143958185
 20
-0.4490940178000001
 30
0.0
 11
22.68528143958185
 21
-0.4606440171
 31
0.0
  0
LINE
  5
21C0
  8
0
 10
22.68528146648185
 20
-0.5922931487000001
 30
0.0
 11
22.68528146648185
 21
-0.5975178871
 31
0.0
  0
LINE
  5
21C1
  8
0
 10
22.685281499581851
 20
-0.3776656134
 30
0.0
 11
22.685281499581851
 21
-0.389214822
 31
0.0
  0
LINE
  5
21C2
  8
0
 10
22.685282415281851
 20
-0.5205237993000002
 30
0.0
 11
22.685282415281851
 21
-0.5320729191
 31
0.0
  0
LINE
  5
21C3
  8
0
 10
22.68923335988185
 20
-0.2714697806
 30
0.0
 11
22.68923335988185
 21
-0.3264697806
 31
0.0
  0
LINE
  5
21C4
  8
0
 10
22.68923335988185
 20
-0.2714697806
 30
0.0
 11
22.68923335988185
 21
-0.3264697806
 31
0.0
  0
LINE
  5
21C5
  8
0
 10
22.697124001881839
 20
4.5885302193999991
 30
0.0
 11
22.697124001881839
 21
4.5945302194000002
 31
0.0
  0
LINE
  5
21C6
  8
0
 10
23.009233359881851
 20
4.5945302194000002
 30
0.0
 11
23.009233359881851
 21
4.5885302193999991
 31
0.0
  0
LINE
  5
21C7
  8
0
 10
23.089233359881838
 20
4.5885302193999991
 30
0.0
 11
23.089233359881838
 21
4.5945302194000002
 31
0.0
  0
LINE
  5
21C8
  8
0
 10
23.40134271788185
 20
4.5945302194000002
 30
0.0
 11
23.40134271788185
 21
4.5885302193999991
 31
0.0
  0
LINE
  5
21C9
  8
0
 10
23.409233359881839
 20
-0.2714697806
 30
0.0
 11
23.409233359881839
 21
-0.3264697806
 31
0.0
  0
LINE
  5
21CA
  8
0
 10
23.409233359881839
 20
-0.2714697806
 30
0.0
 11
23.409233359881839
 21
-0.3264697806
 31
0.0
  0
LINE
  5
21CB
  8
0
 10
23.41318479588185
 20
-0.5681285303000001
 30
0.0
 11
23.41318479588185
 21
-0.5565792567
 31
0.0
  0
LINE
  5
21CC
  8
0
 10
23.413185050981841
 20
-0.4966985302000001
 30
0.0
 11
23.413185050981841
 21
-0.4851495136
 31
0.0
  0
LINE
  5
21CD
  8
0
 10
23.413185201881848
 20
-0.3538407991
 30
0.0
 11
23.413185201881848
 21
-0.3422909576
 31
0.0
  0
LINE
  5
21CE
  8
0
 10
23.413185201881848
 20
-0.3538407991
 30
0.0
 11
23.413185201881848
 21
-0.3422909576
 31
0.0
  0
LINE
  5
21CF
  8
0
 10
23.413185247881849
 20
-0.4252698661000001
 30
0.0
 11
23.413185247881849
 21
-0.4137208036000001
 31
0.0
  0
LINE
  5
21D0
  8
0
 10
23.413185247881849
 20
-0.4252698661000001
 30
0.0
 11
23.413185247881849
 21
-0.4137208036000001
 31
0.0
  0
LINE
  5
21D1
  8
0
 10
23.458933359881851
 20
-0.3776558356000001
 30
0.0
 11
23.458933359881851
 21
-0.389564586
 31
0.0
  0
LINE
  5
21D2
  8
0
 10
23.458933359881851
 20
-0.3776558356000001
 30
0.0
 11
23.458933359881851
 21
-0.389564586
 31
0.0
  0
LINE
  5
21D3
  8
0
 10
23.458933359881851
 20
-0.4490849426
 30
0.0
 11
23.458933359881851
 21
-0.4609942685
 31
0.0
  0
LINE
  5
21D4
  8
0
 10
23.458933359881851
 20
-0.4490849426
 30
0.0
 11
23.458933359881851
 21
-0.4609942685
 31
0.0
  0
LINE
  5
21D5
  8
0
 10
23.458933359881851
 20
-0.5205141145000001
 30
0.0
 11
23.458933359881851
 21
-0.5324232494
 31
0.0
  0
LINE
  5
21D6
  8
0
 10
23.458933359881851
 20
-0.5205141145000001
 30
0.0
 11
23.458933359881851
 21
-0.5324232494
 31
0.0
  0
LINE
  5
21D7
  8
0
 10
23.519233359881849
 20
-0.1814697806
 30
0.0
 11
23.519233359881849
 21
-0.2314697806
 31
0.0
  0
LINE
  5
21D8
  8
0
 10
23.519233359881849
 20
-0.1814697806
 30
0.0
 11
23.519233359881849
 21
-0.2314697806
 31
0.0
  0
LINE
  5
21D9
  8
0
 10
23.579233359881851
 20
4.6345302194000002
 30
0.0
 11
23.579233359881851
 21
4.5945302194000002
 31
0.0
  0
LINE
  5
21DA
  8
0
 10
23.589233359881849
 20
-0.1614697806
 30
0.0
 11
23.589233359881849
 21
4.5885302193999991
 31
0.0
  0
LINE
  5
21DB
  8
0
 10
23.589233359881849
 20
8.3425302194000004
 30
0.0
 11
23.589233359881849
 21
8.3925302194000011
 31
0.0
  0
LINE
  5
21DC
  8
0
 10
23.594233359881851
 20
8.3031023119971614
 30
0.0
 11
23.594233359881851
 21
4.6625302193999989
 31
0.0
  0
LINE
  5
21DD
  8
0
 10
23.589233359881849
 20
4.5885302193999991
 30
0.0
 11
22.509233359881851
 21
4.5885302193999991
 31
0.0
  0
LINE
  5
21DE
  8
0
 10
22.519233359881841
 20
4.5945302194000002
 30
0.0
 11
23.579233359881851
 21
4.5945302194000002
 31
0.0
  0
LINE
  5
21DF
  8
0
 10
23.579233359881851
 20
4.6345302194000002
 30
0.0
 11
22.519233359881841
 21
4.6345302194000002
 31
0.0
  0
LINE
  5
21E0
  8
0
 10
22.524233359881851
 20
4.6425302194000002
 30
0.0
 11
23.574233359881848
 21
4.6425302194000002
 31
0.0
  0
LINE
  5
21E1
  8
0
 10
22.68923335988185
 20
-0.3264697806
 30
0.0
 11
22.654211473781849
 21
-0.3614916667
 31
0.0
  0
LINE
  5
21E2
  8
0
 10
22.68923335988185
 20
-0.3264697806
 30
0.0
 11
22.654211473781849
 21
-0.3614916667
 31
0.0
  0
LINE
  5
21E3
  8
0
 10
23.409233359881839
 20
-0.6014697806
 30
0.0
 11
23.43251334758185
 21
-0.5781897929000001
 31
0.0
  0
LINE
  5
21E4
  8
0
 10
23.409233359881839
 20
-0.6014697806
 30
0.0
 11
23.43251334758185
 21
-0.5781897929000001
 31
0.0
  0
LINE
  5
21E5
  8
0
 10
22.685281499581851
 20
-0.389214822
 30
0.0
 11
22.639533359881849
 21
-0.4133703919
 31
0.0
  0
LINE
  5
21E6
  8
0
 10
22.685281499581851
 20
-0.389214822
 30
0.0
 11
22.639533359881849
 21
-0.4133703919
 31
0.0
  0
LINE
  5
21E7
  8
0
 10
22.68528143958185
 20
-0.4606440171
 30
0.0
 11
22.639533359881849
 21
-0.4847994906000001
 31
0.0
  0
LINE
  5
21E8
  8
0
 10
22.68528143958185
 20
-0.4606440171
 30
0.0
 11
22.639533359881849
 21
-0.4847994906000001
 31
0.0
  0
LINE
  5
21E9
  8
0
 10
22.685282415281851
 20
-0.5320729191
 30
0.0
 11
22.642465702581848
 21
-0.5547021234000001
 31
0.0
  0
LINE
  5
21EA
  8
0
 10
23.413185201881848
 20
-0.3422909576
 30
0.0
 11
23.420767215581851
 21
-0.3380036363
 31
0.0
  0
LINE
  5
21EB
  8
0
 10
23.413185247881849
 20
-0.4137208036000001
 30
0.0
 11
23.458933359881851
 21
-0.389564586
 31
0.0
  0
LINE
  5
21EC
  8
0
 10
23.413185247881849
 20
-0.4137208036000001
 30
0.0
 11
23.458933359881851
 21
-0.389564586
 31
0.0
  0
LINE
  5
21ED
  8
0
 10
23.413185050981841
 20
-0.4851495136
 30
0.0
 11
23.458933359881851
 21
-0.4609942685
 31
0.0
  0
LINE
  5
21EE
  8
0
 10
23.413185050981841
 20
-0.4851495136
 30
0.0
 11
23.458933359881851
 21
-0.4609942685
 31
0.0
  0
LINE
  5
21EF
  8
0
 10
23.41318479588185
 20
-0.5565792567
 30
0.0
 11
23.458933359881851
 21
-0.5324232494
 31
0.0
  0
LINE
  5
21F0
  8
0
 10
23.574233359881848
 20
8.3225302194000008
 30
0.0
 11
22.524233359881851
 21
8.3225302194000008
 31
0.0
  0
LINE
  5
21F1
  8
0
 10
23.569233359888859
 20
8.4125302194000007
 30
0.0
 11
22.52923335987483
 21
8.4125302194000007
 31
0.0
  0
ARC
  5
22B6
  8
0
 10
22.669233359881851
 20
-0.2714697806
 30
0.0
 40
0.02
 50
0.0
 51
90.0
  0
ARC
  5
22B7
  8
0
 10
22.59923335988185
 20
-0.1814697806
 30
0.0
 40
0.02
 50
90.0
 51
180.0
  0
ARC
  5
22B8
  8
0
 10
22.59923335988185
 20
-0.2314697806
 30
0.0
 40
0.02
 50
180.0
 51
270.0
  0
ARC
  5
22B9
  8
0
 10
22.669233359881851
 20
-0.2714697806
 30
0.0
 40
0.02
 50
0.0
 51
90.0
  0
ARC
  5
22BA
  8
0
 10
22.59923335988185
 20
-0.1814697806
 30
0.0
 40
0.02
 50
90.0
 51
180.0
  0
ARC
  5
22BB
  8
0
 10
22.59923335988185
 20
-0.2314697806
 30
0.0
 40
0.02
 50
180.0
 51
270.0
  0
ARC
  5
22BC
  8
0
 10
22.524233359881851
 20
4.6625302193999989
 30
0.0
 40
0.02
 50
180.0
 51
270.0
  0
ARC
  5
22BD
  8
0
 10
22.53149791860282
 20
8.3902656606798285
 30
0.0
 40
0.0223794280810859
 50
95.8076599344122
 51
174.19234008569759
  0
ARC
  5
22BE
  8
0
 10
22.52923335988185
 20
8.3425302194000004
 30
0.0
 40
0.02
 50
180.0
 51
269.99999997989988
  0
ARC
  5
22BF
  8
0
 10
22.52423923189702
 20
8.3025157512811418
 30
0.0
 40
0.0200144689802499
 50
90.016809923440448
 51
178.3206016505649
  0
ARC
  5
22C0
  8
0
 10
23.499233359881849
 20
-0.1814697806
 30
0.0
 40
0.02
 50
0.0
 51
90.0
  0
ARC
  5
22C1
  8
0
 10
23.429233359881849
 20
-0.2714697806
 30
0.0
 40
0.02
 50
90.0
 51
180.0
  0
ARC
  5
22C2
  8
0
 10
23.499233359881849
 20
-0.1814697806
 30
0.0
 40
0.02
 50
0.0
 51
90.0
  0
ARC
  5
22C3
  8
0
 10
23.499233359881849
 20
-0.2314697806
 30
0.0
 40
0.02
 50
270.0
 51
0.0
  0
ARC
  5
22C4
  8
0
 10
23.429233359881849
 20
-0.2714697806
 30
0.0
 40
0.02
 50
90.0
 51
180.0
  0
ARC
  5
22C6
  8
0
 10
23.574233359881848
 20
4.6625302193999989
 30
0.0
 40
0.02
 50
270.0
 51
0.0
  0
ARC
  5
22C7
  8
0
 10
23.566117059463139
 20
8.3894139189823864
 30
0.0
 40
0.0233254083209861
 50
7.6777365758053007
 51
82.322263404095892
  0
ARC
  5
22C8
  8
0
 10
23.569233359881839
 20
8.3425302194000004
 30
0.0
 40
0.02
 50
270.00000002009989
 51
0.0
  0
ARC
  5
22C9
  8
0
 10
23.574227487866668
 20
8.3025157512811436
 30
0.0
 40
0.0200144689802482
 50
1.6793983494293709
 51
89.983190076539174
  0
ARC
  5
2601
  8
0
 10
-7.8407582258553212
 20
1026.587923501655
 30
0.0
 40
1027.402085119428
 50
271.70088199995553
 51
271.7436383607747
  0
ARC
  5
2602
  8
0
 10
23.13640654922791
 20
-5.8579829912089769
 30
0.0
 40
5.4988537325458324
 50
90.916687423727964
 51
94.705825151376615
  0
ARC
  5
2603
  8
0
 10
22.94813305864546
 20
5.5266201350260014
 30
0.0
 40
5.8873076112156122
 50
270.97617447613561
 51
274.53064716946841
  0
ARC
  5
2604
  8
0
 10
23.15353984804317
 20
-6.326361727111923
 30
0.0
 40
5.9555838717781331
 50
90.998788292429595
 51
94.509540537689332
  0
ARC
  5
2605
  8
0
 10
22.959972622289051
 20
5.167636347032742
 30
0.0
 40
5.5400461656530737
 50
270.92828538507661
 51
274.69241921315461
  0
ARC
  5
2606
  8
0
 10
23.153399667758379
 20
-7.4941836233431802
 30
0.0
 40
7.0994348085570493
 50
90.840701285996516
 51
94.150772649145978
  0
ARC
  5
2607
  8
0
 10
22.946699521468549
 20
6.6657582008773657
 30
0.0
 40
7.0620156325557639
 50
270.83191016934342
 51
274.15952532465241
  0
ARC
  5
2608
  8
0
 10
23.15179041529635
 20
-7.4694958821380322
 30
0.0
 40
7.0628179421724413
 50
90.832004024231225
 51
94.159240827344576
  0
ARC
  5
2609
  8
0
 10
22.926769771668152
 20
7.1107699072825099
 30
0.0
 40
7.5191898230955641
 50
270.93320652315191
 51
274.05844783690662
  0
ARC
  5
260A
  8
0
 10
23.126869035568259
 20
-5.636001526926874
 30
0.0
 40
5.2056708610097342
 50
90.863327858445103
 51
94.866144747411965
  0
ARC
  5
260B
  8
0
 10
22.935888579479361
 20
5.8316239604822711
 30
0.0
 40
6.263556763686104
 50
271.0295572886501
 51
274.37029973328288
  0
ARC
  5
260C
  8
0
 10
23.1423739782336
 20
-6.0566234321260879
 30
0.0
 40
5.6146165676995992
 50
90.945483046233747
 51
94.669684794402073
  0
ARC
  5
260D
  8
0
 10
22.949092993353361
 20
5.4299102331010207
 30
0.0
 40
5.8735437016160033
 50
270.9817213036016
 51
274.53189339473818
  0
ARC
  5
260E
  8
0
 10
23.142193931597589
 20
-7.1804995708429606
 30
0.0
 40
6.7145414746595451
 50
90.793262426859457
 51
94.293263826813643
  0
ARC
  5
260F
  8
0
 10
22.934295518252458
 20
7.0217139795975294
 30
0.0
 40
7.4891976473302728
 50
270.87936481424879
 51
274.01700896411921
  0
ARC
  5
2610
  8
0
 10
23.140720371213909
 20
-7.1594638063336307
 30
0.0
 40
6.6815790098548211
 50
90.784538850233474
 51
94.301812100220204
  0
ARC
  5
2611
  8
0
 10
22.912227158144251
 20
7.5258686202393807
 30
0.0
 40
8.0055522279565903
 50
270.98060511775628
 51
273.91582687093643
  0
ARC
  5
2612
  8
0
 10
23.126859885093751
 20
-5.7071463382756358
 30
0.0
 40
5.2053863203729218
 50
90.863273151726816
 51
94.866303620696897
  0
ARC
  5
2613
  8
0
 10
22.9359099899449
 20
5.7595403791208239
 30
0.0
 40
6.2629021499730806
 50
271.02946998164032
 51
274.3705591654944
  0
ARC
  5
2614
  8
0
 10
23.142382484433021
 20
-6.128309062235564
 30
0.0
 40
5.6148730567088361
 50
90.94552557801758
 51
94.669548107616009
  0
ARC
  5
2615
  8
0
 10
22.94911359093425
 20
5.3578531437865662
 30
0.0
 40
5.8729155981854211
 50
270.98162636818847
 51
274.53217558446448
  0
ARC
  5
2616
  8
0
 10
23.211450415650209
 20
-9.6529195867977435
 30
0.0
 40
9.1159916967371775
 50
91.019619556682997
 51
93.578505580058817
  0
ARC
  5
2617
  8
0
 10
22.946699502996481
 20
6.522904751708289
 30
0.0
 40
7.0620204509048632
 50
270.83190972805232
 51
274.15952263191559
  0
ARC
  5
2618
  8
0
 10
23.024288036260099
 20
-2.2685499412615608
 30
0.0
 40
1.717017866399412
 50
90.953399821170422
 51
101.71391896188889
  0
ARC
  5
2619
  8
0
 10
22.849127684501891
 20
8.5131229543080948
 30
0.0
 40
9.066077932884955
 50
270.92646301851221
 51
273.85676045241229
  0
ARC
  5
261A
  8
0
 10
23.16495893750081
 20
-6.5397849934802927
 30
0.0
 40
5.9668039786749532
 50
91.117695798646579
 51
94.611042049554257
  0
ARC
  5
261B
  8
0
 10
22.95022729619356
 20
5.2696921794000522
 30
0.0
 40
5.844635873485446
 50
270.9641035012898
 51
274.54319624213821
  0
ARC
  5
261C
  8
0
 10
21.83147145291851
 20
44.362309588504381
 30
0.0
 40
44.969009548782303
 50
271.15787188948821
 51
272.0403459033061
  0
ARC
  5
261D
  8
0
 10
22.00371876740418
 20
23.987843738276158
 30
0.0
 40
24.59638933950497
 50
271.71578318432302
 51
273.28506416494128
  0
CIRCLE
  5
293D
  8
0
 10
22.94223335988185
 20
7.7825302193999999
 30
0.0
 40
0.0535
  0
CIRCLE
  5
293E
  8
0
 10
23.156442494488321
 20
7.7806926113465931
 30
0.0
 40
0.0535
  0
CIRCLE
  5
293F
  8
0
 10
22.838233359881851
 20
7.6785302193999998
 30
0.0
 40
0.0535
  0
CIRCLE
  5
2940
  8
0
 10
23.04923335988185
 20
7.6845302194
 30
0.0
 40
0.0535
  0
CIRCLE
  5
2941
  8
0
 10
23.260233359881848
 20
7.6785302193999998
 30
0.0
 40
0.0535
  0
CIRCLE
  5
2942
  8
0
 10
22.94223335988185
 20
7.5825302193999997
 30
0.0
 40
0.0535
  0
CIRCLE
  5
2943
  8
0
 10
23.156233359881849
 20
7.5825302193999997
 30
0.0
 40
0.0535
  0
CIRCLE
  5
2944
  8
0
 10
23.260233359881848
 20
7.4815302193999997
 30
0.0
 40
0.0535
  0
CIRCLE
  5
2945
  8
0
 10
23.04923335988185
 20
7.4855302194000002
 30
0.0
 40
0.0535
  0
CIRCLE
  5
2946
  8
0
 10
22.838233359881851
 20
7.4815302193999997
 30
0.0
 40
0.0535
  0
CIRCLE
  5
2947
  8
0
 10
22.94223335988185
 20
7.3855302193999997
 30
0.0
 40
0.0535
  0
CIRCLE
  5
2948
  8
0
 10
23.156233359881849
 20
7.3855302193999997
 30
0.0
 40
0.0535
  0
CIRCLE
  5
2949
  8
0
 10
22.838233359881851
 20
7.2835302194000002
 30
0.0
 40
0.0535
  0
CIRCLE
  5
294A
  8
0
 10
23.04923335988185
 20
7.2875302193999998
 30
0.0
 40
0.0535
  0
CIRCLE
  5
294B
  8
0
 10
23.260233359881848
 20
7.2835302194000002
 30
0.0
 40
0.0535
  0
CIRCLE
  5
294C
  8
0
 10
22.94223335988185
 20
7.1875302194000001
 30
0.0
 40
0.0535
  0
CIRCLE
  5
294D
  8
0
 10
23.156233359881849
 20
7.1875302194000001
 30
0.0
 40
0.0535
  0
CIRCLE
  5
294E
  8
0
 10
22.838233359881851
 20
7.0855302193999998
 30
0.0
 40
0.0535
  0
CIRCLE
  5
294F
  8
0
 10
23.04923335988185
 20
7.0895302194000003
 30
0.0
 40
0.0535
  0
CIRCLE
  5
2950
  8
0
 10
23.260233359881848
 20
7.0855302193999998
 30
0.0
 40
0.0535
  0
CIRCLE
  5
2951
  8
0
 10
22.94223335988185
 20
6.9925302193999999
 30
0.0
 40
0.0535
  0
CIRCLE
  5
2952
  8
0
 10
23.156233359881849
 20
6.9925302193999999
 30
0.0
 40
0.0535
  0
CIRCLE
  5
2953
  8
0
 10
23.04923335988185
 20
6.8905302194000004
 30
0.0
 40
0.0535
  0
CIRCLE
  5
2954
  8
0
 10
23.260233359881848
 20
6.8885302193999998
 30
0.0
 40
0.0535
  0
CIRCLE
  5
2955
  8
0
 10
22.94223335988185
 20
6.7915302194000002
 30
0.0
 40
0.0535
  0
CIRCLE
  5
2956
  8
0
 10
22.838233359881851
 20
6.8885302193999998
 30
0.0
 40
0.0535
  0
CIRCLE
  5
2957
  8
0
 10
22.838233359881851
 20
6.6915302193999997
 30
0.0
 40
0.0535
  0
CIRCLE
  5
2958
  8
0
 10
23.04923335988185
 20
6.6925302194
 30
0.0
 40
0.0535
  0
CIRCLE
  5
2959
  8
0
 10
23.260233359881848
 20
6.6915302193999997
 30
0.0
 40
0.0535
  0
CIRCLE
  5
295A
  8
0
 10
22.94223335988185
 20
6.5925302194000004
 30
0.0
 40
0.0535
  0
CIRCLE
  5
295B
  8
0
 10
23.156233359881849
 20
6.5925302194000004
 30
0.0
 40
0.0535
  0
CIRCLE
  5
295C
  8
0
 10
22.838233359881851
 20
6.4925302193999999
 30
0.0
 40
0.0535
  0
CIRCLE
  5
295D
  8
0
 10
23.04923335988185
 20
6.4925302193999999
 30
0.0
 40
0.0535
  0
CIRCLE
  5
295E
  8
0
 10
23.260233359881848
 20
6.4925302193999999
 30
0.0
 40
0.0535
  0
CIRCLE
  5
295F
  8
0
 10
22.94223335988185
 20
6.3925302194000002
 30
0.0
 40
0.0535
  0
CIRCLE
  5
2960
  8
0
 10
23.156233359881849
 20
6.3925302194000002
 30
0.0
 40
0.0535
  0
CIRCLE
  5
2961
  8
0
 10
22.838233359881851
 20
6.2935302194
 30
0.0
 40
0.0535
  0
CIRCLE
  5
2962
  8
0
 10
23.04923335988185
 20
6.2925302193999997
 30
0.0
 40
0.0535
  0
CIRCLE
  5
2963
  8
0
 10
23.260233359881848
 20
6.2935302194
 30
0.0
 40
0.0535
  0
CIRCLE
  5
2964
  8
0
 10
22.94223335988185
 20
6.1935302194000004
 30
0.0
 40
0.0535
  0
CIRCLE
  5
2965
  8
0
 10
23.156233359881849
 20
6.1935302194000004
 30
0.0
 40
0.0535
  0
CIRCLE
  5
2966
  8
0
 10
22.838233359881851
 20
6.0965302194
 30
0.0
 40
0.0535
  0
CIRCLE
  5
2967
  8
0
 10
23.04923335988185
 20
6.0945302194000002
 30
0.0
 40
0.0535
  0
CIRCLE
  5
2968
  8
0
 10
23.260233359881848
 20
6.0965302194
 30
0.0
 40
0.0535
  0
CIRCLE
  5
2969
  8
0
 10
22.94223335988185
 20
5.9925302193999999
 30
0.0
 40
0.0535
  0
CIRCLE
  5
296A
  8
0
 10
23.156233359881849
 20
5.9925302193999999
 30
0.0
 40
0.0535
  0
CIRCLE
  5
296B
  8
0
 10
22.838233359881851
 20
5.8995302193999999
 30
0.0
 40
0.0535
  0
CIRCLE
  5
296C
  8
0
 10
23.049147419241951
 20
5.8985614341195358
 30
0.0
 40
0.0535
  0
CIRCLE
  5
296D
  8
0
 10
23.260233359881848
 20
5.8995302193999999
 30
0.0
 40
0.0535
  0
CIRCLE
  5
296E
  8
0
 10
22.94223335988185
 20
5.7975302193999996
 30
0.0
 40
0.0535
  0
CIRCLE
  5
296F
  8
0
 10
23.156233359881849
 20
5.7975302193999996
 30
0.0
 40
0.0535
  0
CIRCLE
  5
2970
  8
0
 10
22.838233359881851
 20
5.7015302194000004
 30
0.0
 40
0.0535
  0
CIRCLE
  5
2971
  8
0
 10
23.04923335988185
 20
5.6975302193999999
 30
0.0
 40
0.0535
  0
CIRCLE
  5
2972
  8
0
 10
23.260233359881848
 20
5.7015302194000004
 30
0.0
 40
0.0535
  0
CIRCLE
  5
2973
  8
0
 10
22.94223335988185
 20
5.5995302194000001
 30
0.0
 40
0.0535
  0
CIRCLE
  5
2974
  8
0
 10
23.156233359881849
 20
5.5995302194000001
 30
0.0
 40
0.0535
  0
CIRCLE
  5
2975
  8
0
 10
23.260233359881848
 20
5.5035302194
 30
0.0
 40
0.0535
  0
CIRCLE
  5
2976
  8
0
 10
23.04923335988185
 20
5.4995302194000004
 30
0.0
 40
0.0535
  0
CIRCLE
  5
2977
  8
0
 10
22.838233359881851
 20
5.5035302194
 30
0.0
 40
0.0535
  0
CIRCLE
  5
2978
  8
0
 10
22.94223335988185
 20
5.4025302194
 30
0.0
 40
0.0535
  0
CIRCLE
  5
2979
  8
0
 10
23.04923335988185
 20
5.3005302193999988
 30
0.0
 40
0.0535
  0
CIRCLE
  5
297A
  8
0
 10
23.156233359881849
 20
5.2025302193999989
 30
0.0
 40
0.0535
  0
CIRCLE
  5
297B
  8
0
 10
22.94223335988185
 20
5.2025302193999989
 30
0.0
 40
0.0535
  0
CIRCLE
  5
297C
  8
0
 10
22.838233359881851
 20
5.306530219399999
 30
0.0
 40
0.0535
  0
CIRCLE
  5
297D
  8
0
 10
23.156233359881849
 20
5.4025302194
 30
0.0
 40
0.0535
  0
CIRCLE
  5
297E
  8
0
 10
23.156233359881849
 20
6.7915302194000002
 30
0.0
 40
0.0535
  0
CIRCLE
  5
297F
  8
0
 10
22.93943343912775
 20
7.7927770133329206
 30
0.0
 40
0.0141829735359612
  0
CIRCLE
  5
2980
  8
0
 10
23.159535206563682
 20
7.79243657807951
 30
0.0
 40
0.0141829735359612
  0
CIRCLE
  5
2981
  8
0
 10
22.82948969007181
 20
7.692468629106366
 30
0.0
 40
0.0141829735359612
  0
CIRCLE
  5
2982
  8
0
 10
23.0495499913735
 20
7.6925302014279682
 30
0.0
 40
0.0141829735359612
  0
CIRCLE
  5
2983
  8
0
 10
23.269481449406641
 20
7.6929308662076821
 30
0.0
 40
0.0141829735359612
  0
CIRCLE
  5
2984
  8
0
 10
23.159534318719501
 20
7.5925625710965763
 30
0.0
 40
0.0141829735359612
  0
CIRCLE
  5
2985
  8
0
 10
22.93953469231484
 20
7.5926037369203101
 30
0.0
 40
0.0141829735359612
  0
CIRCLE
  5
2986
  8
0
 10
22.82948698601178
 20
7.4922961433863957
 30
0.0
 40
0.0141829735359612
  0
CIRCLE
  5
2987
  8
0
 10
23.04954999139041
 20
7.4925302014154402
 30
0.0
 40
0.0141829735359612
  0
CIRCLE
  5
2988
  8
0
 10
23.269468437350952
 20
7.4916217002263714
 30
0.0
 40
0.0141829735359612
  0
CIRCLE
  5
2989
  8
0
 10
23.159533383867601
 20
7.3926132051367794
 30
0.0
 40
0.0141829735359612
  0
CIRCLE
  5
298A
  8
0
 10
22.93953400153551
 20
7.3925819820353613
 30
0.0
 40
0.0141829735359612
  0
CIRCLE
  5
298B
  8
0
 10
22.829156175453239
 20
7.289511376995728
 30
0.0
 40
0.0141829735359612
  0
CIRCLE
  5
298C
  8
0
 10
23.049549991397281
 20
7.2925302013819966
 30
0.0
 40
0.0141829735359612
  0
CIRCLE
  5
298D
  8
0
 10
22.93953466468675
 20
7.1925571409451576
 30
0.0
 40
0.0141829735359612
  0
CIRCLE
  5
298E
  8
0
 10
23.15951982015434
 20
7.1931604398159781
 30
0.0
 40
0.0141829735359612
  0
CIRCLE
  5
298F
  8
0
 10
23.26948785715895
 20
7.2927366161254286
 30
0.0
 40
0.0141829735359612
  0
CIRCLE
  5
2990
  8
0
 10
22.829315881455031
 20
7.0903480002917778
 30
0.0
 40
0.0141829735359612
  0
CIRCLE
  5
2991
  8
0
 10
23.04954828644588
 20
7.0925302084901656
 30
0.0
 40
0.0141829735359612
  0
CIRCLE
  5
2992
  8
0
 10
23.269439583995648
 20
7.0936870932584029
 30
0.0
 40
0.0141829735359612
  0
CIRCLE
  5
2993
  8
0
 10
22.939535225278739
 20
6.9925563691535517
 30
0.0
 40
0.0141829735359612
  0
CIRCLE
  5
2994
  8
0
 10
23.159016049881021
 20
6.9963532330777873
 30
0.0
 40
0.0141829735359612
  0
CIRCLE
  5
2995
  8
0
 10
22.82938072388189
 20
6.8907931421176771
 30
0.0
 40
0.0141829735359612
  0
CIRCLE
  5
2996
  8
0
 10
23.04954939344589
 20
6.8925302083966233
 30
0.0
 40
0.0141829735359612
  0
CIRCLE
  5
2997
  8
0
 10
23.268922956145889
 20
6.8965218410000002
 30
0.0
 40
0.0141829735359612
  0
CIRCLE
  5
2998
  8
0
 10
22.939537422967629
 20
6.7925469438618142
 30
0.0
 40
0.0141829735359612
  0
CIRCLE
  5
2999
  8
0
 10
23.15953740274588
 20
6.7925149926000001
 30
0.0
 40
0.0141829735359612
  0
CIRCLE
  5
299A
  8
0
 10
22.829424230045881
 20
6.6911518808999997
 30
0.0
 40
0.0141829735359612
  0
CIRCLE
  5
299B
  8
0
 10
23.049477819839339
 20
6.6939751028406898
 30
0.0
 40
0.0141829735359612
  0
CIRCLE
  5
299C
  8
0
 10
23.269424230045878
 20
6.6939085578999977
 30
0.0
 40
0.0141829735359612
  0
CIRCLE
  5
299D
  8
0
 10
22.939535208445879
 20
6.5925444512000002
 30
0.0
 40
0.0141829735359612
  0
CIRCLE
  5
299E
  8
0
 10
23.159535186745881
 20
6.5925159854999986
 30
0.0
 40
0.0141829735359612
  0
CIRCLE
  5
299F
  8
0
 10
23.269490710145881
 20
6.4925302193999999
 30
0.0
 40
0.0141829735359612
  0
CIRCLE
  5
29A0
  8
0
 10
23.049498616870672
 20
6.4937544067642081
 30
0.0
 40
0.0141829735359612
  0
CIRCLE
  5
29A1
  8
0
 10
22.82949071014589
 20
6.4925302193999999
 30
0.0
 40
0.0141829735359612
  0
CIRCLE
  5
29A2
  8
0
 10
22.939467408982772
 20
6.3939155272132631
 30
0.0
 40
0.0141829735359612
  0
CIRCLE
  5
29A3
  8
0
 10
23.159535208445892
 20
6.3925444512
 30
0.0
 40
0.0141829735359612
  0
CIRCLE
  5
29A4
  8
0
 10
22.82945045943924
 20
6.2914627212904097
 30
0.0
 40
0.0141829735359612
  0
CIRCLE
  5
29A5
  8
0
 10
23.04951106386779
 20
6.2935919827561406
 30
0.0
 40
0.0141829735359612
  0
CIRCLE
  5
29A6
  8
0
 10
23.269424230045878
 20
6.2911518809000002
 30
0.0
 40
0.0141829735359612
  0
CIRCLE
  5
29A7
  8
0
 10
22.939537402715331
 20
6.1925159333932989
 30
0.0
 40
0.0141829735359612
  0
CIRCLE
  5
29A8
  8
0
 10
23.159537423045879
 20
6.1925454383999998
 30
0.0
 40
0.0141829735359612
  0
CIRCLE
  5
29A9
  8
0
 10
22.828922956145892
 20
6.0965218410000004
 30
0.0
 40
0.0141829735359612
  0
CIRCLE
  5
29AA
  8
0
 10
23.048797555495881
 20
6.0924833486000001
 30
0.0
 40
0.0141829735359612
  0
CIRCLE
  5
29AB
  8
0
 10
23.269224446028911
 20
6.0953352374421659
 30
0.0
 40
0.0141829735359612
  0
CIRCLE
  5
29AC
  8
0
 10
22.939535206911611
 20
5.9925066590800347
 30
0.0
 40
0.0141829735359612
  0
CIRCLE
  5
29AD
  8
0
 10
23.159428534892449
 20
5.994309068554406
 30
0.0
 40
0.0141829735359612
  0
CIRCLE
  5
29AE
  8
0
 10
22.829466710408489
 20
5.8916372512337851
 30
0.0
 40
0.0141829735359612
  0
CIRCLE
  5
29AF
  8
0
 10
23.04954828644588
 20
5.8925302084901663
 30
0.0
 40
0.0141829735359612
  0
CIRCLE
  5
29B0
  8
0
 10
23.269276200294289
 20
5.8950733575392018
 30
0.0
 40
0.0141829735359612
  0
CIRCLE
  5
29B1
  8
0
 10
22.829470791919579
 20
5.6916911944062418
 30
0.0
 40
0.0141829735359612
  0
CIRCLE
  5
29B2
  8
0
 10
22.939534650399711
 20
5.7925065427810729
 30
0.0
 40
0.0141829735359612
  0
CIRCLE
  5
29B3
  8
0
 10
23.049549991397281
 20
5.6925302013819969
 30
0.0
 40
0.0141829735359612
  0
CIRCLE
  5
29B4
  8
0
 10
23.269315192361422
 20
5.694859595315231
 30
0.0
 40
0.0141829735359612
  0
CIRCLE
  5
29B5
  8
0
 10
23.159462028672319
 20
5.5940225503251799
 30
0.0
 40
0.0141829735359612
  0
CIRCLE
  5
29B6
  8
0
 10
22.939533973011532
 20
5.5924828974238112
 30
0.0
 40
0.0141829735359612
  0
CIRCLE
  5
29B7
  8
0
 10
22.82947454766262
 20
5.4917394125802641
 30
0.0
 40
0.0141829735359612
  0
CIRCLE
  5
29B8
  8
0
 10
23.049533621414501
 20
5.4932133993183978
 30
0.0
 40
0.0141829735359612
  0
CIRCLE
  5
29B9
  8
0
 10
23.269345105281211
 20
5.4946760393004546
 30
0.0
 40
0.0141829735359612
  0
CIRCLE
  5
29BA
  8
0
 10
22.93953465549632
 20
5.392464664301043
 30
0.0
 40
0.0141829735359612
  0
CIRCLE
  5
29BB
  8
0
 10
23.159475105345042
 20
5.3939019775781434
 30
0.0
 40
0.0141829735359612
  0
CIRCLE
  5
29BC
  8
0
 10
22.829476880020319
 20
5.2917816878855737
 30
0.0
 40
0.0141829735359612
  0
CIRCLE
  5
29BD
  8
0
 10
23.0495499913735
 20
5.2925302014279669
 30
0.0
 40
0.0141829735359612
  0
CIRCLE
  5
29BE
  8
0
 10
23.269366249550458
 20
5.2945378620386361
 30
0.0
 40
0.0141829735359612
  0
CIRCLE
  5
29BF
  8
0
 10
23.15948445984715
 20
5.1938017971839807
 30
0.0
 40
0.0141829735359612
  0
CIRCLE
  5
29C0
  8
0
 10
22.93953522351757
 20
5.1924590710224141
 30
0.0
 40
0.0141829735359612
  0
CIRCLE
  5
29C1
  8
0
 10
23.260233359881848
 20
5.3074637107237717
 30
0.0
 40
0.0535
  0
CIRCLE
  5
29C2
  8
0
 10
23.157359575158122
 20
5.7958541424598709
 30
0.0
 40
0.0141829735359612
  0
LINE
  5
29C6
  8
0
 10
22.753229459881851
 20
4.6425302194000002
 30
0.0
 11
22.753229459881851
 21
4.6345302194000002
 31
0.0
  0
LINE
  5
29C7
  8
0
 10
23.345237259881849
 20
4.6425302194000002
 30
0.0
 11
23.345237259881849
 21
4.6345302194000002
 31
0.0
  0
ATTDEF
  5
2C8B
  8
DEFPOINTS
 10
23.04355095179849
 20
-0.1628454690955285
 30
0.0
 40
0.001
  1
K-14788-GR
  3

  2
MODELNUMBER
 70
     0
1001
ACDBATTR
1070
     0
1070
     1
  0
ATTDEF
  5
2C8C
  8
DEFPOINTS
 10
23.04355095179849
 20
-0.1645121357621937
 30
0.0
 40
0.001
  1
SHIFT
  3

  2
TRADENAME
 70
     0
1001
ACDBATTR
1070
     0
1070
     1
  0
ATTDEF
  5
2C8D
  8
DEFPOINTS
 10
23.04355095179849
 20
-0.1661788024288588
 30
0.0
 40
0.001
  1
HANDSHOWER
  3

  2
PRODUCT
 70
     0
1001
ACDBATTR
1070
     0
1070
     1
  0
ATTDEF
  5
2C8E
  8
DEFPOINTS
 10
23.04355095179849
 20
-0.167845469095524
 30
0.0
 40
0.001
  1
PREMIUM MATERIALS
  3

  2
MATERIAL
 70
     0
1001
ACDBATTR
1070
     0
1070
     1
  0
ENDSEC
  0
EOF
