  0
SECTION
  2
HEADER
  9
$ACADVER
  1
AC1009
  9
$INSBASE
 10
394.44878037596118
 20
42.955565507306801
 30
0.0
  9
$EXTMIN
 10
387.90316141521117
 20
42.946774012068843
 30
0.0
  9
$EXTMAX
 10
396.02599564951117
 20
51.416564499706801
 30
0.0
  9
$LIMMIN
 10
0.0
 20
0.0
  9
$LIMMAX
 10
11.692913385800001
 20
8.2677165353999982
  9
$ORTHOMODE
 70
     0
  9
$REGENMODE
 70
     1
  9
$FILLMODE
 70
     1
  9
$QTEXTMODE
 70
     0
  9
$MIRRTEXT
 70
     0
  9
$DRAGMODE
 70
     2
  9
$LTSCALE
 40
0.6431102362
  9
$OSMODE
 70
  3071
  9
$ATTMODE
 70
     1
  9
$TEXTSIZE
 40
0.2
  9
$TRACEWID
 40
0.05
  9
$TEXTSTYLE
  7
STANDARD
  9
$CLAYER
  8
0
  9
$CELTYPE
  6
BYLAYER
  9
$CECOLOR
 62
   256
  9
$DIMSCALE
 40
1.0
  9
$DIMASZ
 40
0.1875
  9
$DIMEXO
 40
0.0625
  9
$DIMDLI
 40
0.4443307087
  9
$DIMRND
 40
0.0
  9
$DIMDLE
 40
0.0
  9
$DIMEXE
 40
0.125
  9
$DIMTP
 40
0.01
  9
$DIMTM
 40
0.01
  9
$DIMTXT
 40
1.0
  9
$DIMCEN
 40
0.1052362205
  9
$DIMTSZ
 40
0.0
  9
$DIMTOL
 70
     1
  9
$DIMLIM
 70
     0
  9
$DIMTIH
 70
     0
  9
$DIMTOH
 70
     1
  9
$DIMSE1
 70
     0
  9
$DIMSE2
 70
     0
  9
$DIMTAD
 70
     0
  9
$DIMZIN
 70
     0
  9
$DIMBLK
  1

  9
$DIMASO
 70
     1
  9
$DIMSHO
 70
     1
  9
$DIMPOST
  1
\X
  9
$DIMAPOST
  1

  9
$DIMALT
 70
     1
  9
$DIMALTD
 70
     2
  9
$DIMALTF
 40
25.399999999999999
  9
$DIMLFAC
 40
1.0
  9
$DIMTOFL
 70
     0
  9
$DIMTVP
 40
0.0
  9
$DIMTIX
 70
     0
  9
$DIMSOXD
 70
     0
  9
$DIMSAH
 70
     0
  9
$DIMBLK1
  1

  9
$DIMBLK2
  1

  9
$DIMSTYLE
  2
STANDARD
  9
$DIMCLRD
 70
     0
  9
$DIMCLRE
 70
     0
  9
$DIMCLRT
 70
     0
  9
$DIMTFAC
 40
1.0
  9
$DIMGAP
 40
0.09
  9
$LUNITS
 70
     2
  9
$LUPREC
 70
     4
  9
$SKETCHINC
 40
0.1
  9
$FILLETRAD
 40
0.0
  9
$AUNITS
 70
     0
  9
$AUPREC
 70
     0
  9
$MENU
  1
.
  9
$ELEVATION
 40
0.0
  9
$PELEVATION
 40
0.0
  9
$THICKNESS
 40
0.0
  9
$LIMCHECK
 70
     0
  9
$BLIPMODE
 70
     0
  9
$CHAMFERA
 40
0.0
  9
$CHAMFERB
 40
0.0
  9
$SKPOLY
 70
     0
  9
$TDCREATE
 40
2458172.5207663891
  9
$TDUPDATE
 40
2458509.6567610418
  9
$TDINDWG
 40
0.1321608218
  9
$TDUSRTIMER
 40
0.1321608218
  9
$USRTIMER
 70
     1
  9
$ANGBASE
 50
0.0
  9
$ANGDIR
 70
     0
  9
$PDMODE
 70
     0
  9
$PDSIZE
 40
0.3125
  9
$PLINEWID
 40
0.0
  9
$COORDS
 70
     1
  9
$SPLFRAME
 70
     0
  9
$SPLINETYPE
 70
     6
  9
$SPLINESEGS
 70
     8
  9
$ATTDIA
 70
     1
  9
$ATTREQ
 70
     1
  9
$HANDLING
 70
     1
  9
$HANDSEED
  5
58EA
  9
$SURFTAB1
 70
     6
  9
$SURFTAB2
 70
     6
  9
$SURFTYPE
 70
     6
  9
$SURFU
 70
     6
  9
$SURFV
 70
     6
  9
$UCSNAME
  2

  9
$UCSORG
 10
0.0
 20
0.0
 30
0.0
  9
$UCSXDIR
 10
1.0
 20
0.0
 30
0.0
  9
$UCSYDIR
 10
0.0
 20
1.0
 30
0.0
  9
$PUCSNAME
  2

  9
$PUCSORG
 10
0.0
 20
0.0
 30
0.0
  9
$PUCSXDIR
 10
1.0
 20
0.0
 30
0.0
  9
$PUCSYDIR
 10
0.0
 20
1.0
 30
0.0
  9
$USERI1
 70
     0
  9
$USERI2
 70
     0
  9
$USERI3
 70
     0
  9
$USERI4
 70
     0
  9
$USERI5
 70
     0
  9
$USERR1
 40
0.0
  9
$USERR2
 40
0.0
  9
$USERR3
 40
0.0
  9
$USERR4
 40
0.0
  9
$USERR5
 40
0.0
  9
$WORLDVIEW
 70
     1
  9
$SHADEDGE
 70
     3
  9
$SHADEDIF
 70
    70
  9
$TILEMODE
 70
     1
  9
$MAXACTVP
 70
    64
  9
$PLIMCHECK
 70
     0
  9
$PEXTMIN
 10
1.0000000000000000E+020
 20
1.0000000000000000E+020
 30
1.0000000000000000E+020
  9
$PEXTMAX
 10
-1.0000000000000000E+020
 20
-1.0000000000000000E+020
 30
-1.0000000000000000E+020
  9
$PLIMMIN
 10
0.0
 20
0.0
  9
$PLIMMAX
 10
12.0
 20
9.0
  9
$UNITMODE
 70
     0
  9
$VISRETAIN
 70
     1
  9
$PLINEGEN
 70
     0
  9
$PSLTSCALE
 70
     1
  0
ENDSEC
  0
SECTION
  2
TABLES
  0
TABLE
  2
VPORT
 70
     1
  0
VPORT
  2
*ACTIVE
 70
     0
 10
0.0
 20
0.0
 11
1.0
 21
1.0
 12
0.0
 22
0.0
 13
0.0
 23
0.0
 14
1.0
 24
1.0
 15
0.0
 25
0.0
 16
0.0
 26
0.0
 36
33.815285862300918
 17
391.96458435058588
 27
47.181669476737547
 37
0.0
 40
11.73532182880902
 41
2.1638418079096038
 42
50.0
 43
0.0
 44
0.0
 50
0.0
 51
0.0
 71
     0
 72
   100
 73
     1
 74
     1
 75
     0
 76
     0
 77
     0
 78
     0
  0
ENDTAB
  0
TABLE
  2
LTYPE
 70
     2
  0
LTYPE
  2
CONTINUOUS
 70
     0
  3
Solid line
 72
    65
 73
     0
 40
0.0
  0
LTYPE
  2
PHANTOM2
 70
     0
  3
___ _ _ ___ _ _ ___ _ _ ___ _ _
 72
    65
 73
     6
 40
1.25
 49
0.625
 49
-0.125
 49
0.125
 49
-0.125
 49
0.125
 49
-0.125
  0
ENDTAB
  0
TABLE
  2
LAYER
 70
     2
  0
LAYER
  2
0
 70
     0
 62
   255
  6
CONTINUOUS
  0
LAYER
  2
DEFPOINTS
 70
     0
 62
     7
  6
CONTINUOUS
  0
ENDTAB
  0
TABLE
  2
STYLE
 70
     1
  0
STYLE
  2
STANDARD
 70
     0
 40
0.0
 41
0.8
 50
0.0
 71
     0
 42
0.2
  3
txt
  4

  0
ENDTAB
  0
TABLE
  2
VIEW
 70
     0
  0
ENDTAB
  0
TABLE
  2
UCS
 70
     0
  0
ENDTAB
  0
TABLE
  2
APPID
 70
    10
  0
APPID
  2
ACAD
 70
     0
  0
APPID
  2
ACAD_MLEADERVER
 70
     0
  0
APPID
  2
ACAD_EXEMPT_FROM_CAD_STANDARDS
 70
     0
  0
APPID
  2
ACAD_DSTYLE_DIMJAG
 70
     0
  0
APPID
  2
ACAD_DSTYLE_DIMTALN
 70
     0
  0
APPID
  2
ACAD_NAV_VCDISPLAY
 70
     0
  0
APPID
  2
ACAECLAYERSTANDARD
 70
     0
  0
APPID
  2
ACCMTRANSPARENCY
 70
     0
  0
APPID
  2
DCO15
 70
     0
  0
APPID
  2
ACDBATTR
 70
     0
  0
ENDTAB
  0
TABLE
  2
DIMSTYLE
 70
     2
  0
DIMSTYLE
  2
STANDARD
 70
     0
  3

  4

  5

  6

  7

 40
1.0
 41
0.1875
 42
0.0625
 43
0.38
 44
0.125
 45
0.0
 46
0.0
 47
0.01
 48
0.01
140
0.15625
141
0.09
142
0.0
143
25.399999999999999
144
1.0
145
0.0
146
1.0
147
0.09
 71
     1
 72
     0
 73
     1
 74
     1
 75
     0
 76
     0
 77
     0
 78
     4
170
     0
171
     2
172
     0
173
     0
174
     0
175
     0
176
     0
177
     0
178
     0
  0
ENDTAB
  0
ENDSEC
  0
SECTION
  2
BLOCKS
  0
BLOCK
  8
0
  2
$MODEL_SPACE
 70
     0
 10
0.0
 20
0.0
 30
0.0
  3
$MODEL_SPACE
  1

  0
ENDBLK
  5
21
  8
0
  0
BLOCK
 67
     1
  8
0
  2
$PAPER_SPACE
 70
     0
 10
0.0
 20
0.0
 30
0.0
  3
$PAPER_SPACE
  1

  0
ENDBLK
  5
1D
 67
     1
  8
0
  0
ENDSEC
  0
SECTION
  2
ENTITIES
  0
ATTDEF
  5
829
  8
DEFPOINTS
 10
394.44501573068408
 20
42.951774012068839
 30
0.0
 40
0.001
  1
K-14760-4
  3

  2
MODELNUMBER
 70
     0
1001
ACDBATTR
1070
     0
1070
     1
  0
ATTDEF
  5
82A
  8
DEFPOINTS
 10
394.44501573068408
 20
42.950107345402181
 30
0.0
 40
0.001
  1
STANCE
  3

  2
TRADENAME
 70
     0
1001
ACDBATTR
1070
     0
1070
     1
  0
ATTDEF
  5
82B
  8
DEFPOINTS
 10
394.44501573068408
 20
42.948440678735508
 30
0.0
 40
0.001
  1
BATHROOM SINK FAUCET
  3

  2
PRODUCT
 70
     0
1001
ACDBATTR
1070
     0
1070
     1
  0
ATTDEF
  5
82C
  8
DEFPOINTS
 10
394.44501573068408
 20
42.94677401206885
 30
0.0
 40
0.001
  1
METAL
  3

  2
MATERIAL
 70
     0
1001
ACDBATTR
1070
     0
1070
     1
  0
LINE
  5
57F5
  8
0
 10
395.980557853937
 20
47.085530699806803
 30
0.0
 11
387.98136962784349
 21
47.085530699806803
 31
0.0
  0
LINE
  5
57F6
  8
0
 10
393.2926286230113
 20
42.955565507306801
 30
0.0
 11
395.60493212891117
 21
42.955565507306801
 31
0.0
  0
LINE
  5
57F7
  8
0
 10
395.60493212891117
 20
42.955565507306801
 30
0.0
 11
395.60499434651132
 21
46.360669039806801
 31
0.0
  0
ARC
  5
57F8
  8
0
 10
397.35850658991922
 20
46.360636999863722
 30
0.0
 40
1.7535122437006969
 50
166.71431202321239
 51
179.9989530991179
  0
ARC
  5
57F9
  8
0
 10
396.11258476537682
 20
46.654831845852542
 30
0.0
 40
0.4733279599830471
 50
129.17907067784191
 51
166.71431202321239
  0
ARC
  5
57FA
  8
0
 10
395.99755614652008
 20
46.766876466311537
 30
0.0
 40
0.3143428659042651
 50
99.42349627535225
 51
125.8263523158777
  0
ARC
  5
57FB
  8
0
 10
395.94405682426509
 20
47.158895529807481
 30
0.0
 40
0.0819434161365673
 50
271.42080246413337
 51
359.3934996037155
  0
LINE
  5
57FC
  8
0
 10
396.02599564951117
 20
47.158028139806802
 30
0.0
 11
396.02599564951117
 21
47.205564507306804
 31
0.0
  0
ARC
  5
57FD
  8
0
 10
395.9459956495113
 20
47.205564507306811
 30
0.0
 40
0.0799999999999876
 50
359.99999999999312
 51
90.000000000006509
  0
LINE
  5
57FE
  8
0
 10
395.9459956495113
 20
47.285564507306802
 30
0.0
 11
393.15099573961118
 21
47.285564507306802
 31
0.0
  0
LINE
  5
57FF
  8
0
 10
393.15099573961118
 20
47.285564507306802
 30
0.0
 11
388.00539566243998
 21
47.298870204891912
 31
0.0
  0
LINE
  5
5800
  8
0
 10
394.86618196461131
 20
51.416564499706801
 30
0.0
 11
394.42321500511127
 21
51.416564499706801
 31
0.0
  0
ARC
  5
5801
  8
0
 10
394.42321500511127
 20
51.386363123633849
 30
0.0
 40
0.0302013760729469
 50
90.0
 51
179.61796162718679
  0
LINE
  5
5802
  8
0
 10
394.39301430041132
 20
51.3865644997068
 30
0.0
 11
394.39301432951117
 21
47.456500808965608
 31
0.0
  0
ARC
  5
5803
  8
0
 10
394.34301432971131
 20
47.456500848806797
 30
0.0
 40
0.0499999998000024
 50
292.15443195730342
 51
359.99995434535771
  0
ARC
  5
5804
  8
0
 10
394.64469837122812
 20
46.715564663493332
 30
0.0
 40
0.7499998074579897
 50
112.15448683817711
 51
130.53580326966309
  0
ARC
  5
5805
  8
0
 10
394.86618196461131
 20
51.386363123633849
 30
0.0
 40
0.0302013760729469
 50
0.3820383728131836
 51
90.0
  0
LINE
  5
5806
  8
0
 10
394.89638266931132
 20
51.3865644997068
 30
0.0
 11
394.89638264021119
 21
47.456500808965608
 31
0.0
  0
ARC
  5
5807
  8
0
 10
394.94638264001128
 20
47.456500848806797
 30
0.0
 40
0.0499999998000024
 50
180.00004565464221
 51
247.84556804269661
  0
ARC
  5
5808
  8
0
 10
394.64469859849441
 20
46.715564663493332
 30
0.0
 40
0.7499998074579897
 50
49.46419673033688
 51
67.845513161822979
  0
ARC
  5
5809
  8
0
 10
384.87237353393141
 20
-140.3132280193314
 30
0.0
 40
187.7612065746543
 50
87.6262485954976
 51
89.050682735827394
  0
ARC
  5
580A
  8
0
 10
387.98812075823651
 20
47.337241632581573
 30
0.0
 40
0.0851080066087846
 50
93.319597551741182
 51
176.6129784698947
  0
LINE
  5
580B
  8
0
 10
387.90316141521117
 20
47.3422698352068
 30
0.0
 11
387.90321599868571
 21
47.16556290523701
 31
0.0
  0
ARC
  5
580C
  8
0
 10
387.9832961124967
 20
47.165587641396762
 30
0.0
 40
0.0800801176313828
 50
180.01769824543791
 51
268.6215044039667
  0
ARC
  5
580D
  8
0
 10
387.9775342138783
 20
46.50674918085695
 30
0.0
 40
0.5787942268873885
 50
58.895626702603458
 51
89.620323370579598
  0
ARC
  5
580E
  8
0
 10
387.87133144055241
 20
46.480947431411401
 30
0.0
 40
0.6603266907609608
 50
15.45274958211307
 51
52.146367539575792
  0
ARC
  5
580F
  8
0
 10
388.5555594952657
 20
46.671647098194413
 30
0.0
 40
0.050000013888386
 50
197.16933878080189
 51
257.99998052240659
  0
LINE
  5
5810
  8
0
 10
388.5451638912113
 20
46.622739708106792
 30
0.0
 11
389.70406231698632
 21
46.376408243407703
 31
0.0
  0
ARC
  5
5811
  8
0
 10
389.71257035744549
 20
46.431339577351082
 30
0.0
 40
0.0555863130748319
 50
261.19570073725657
 51
313.60016824807087
  0
ARC
  5
5812
  8
0
 10
390.19595452881362
 20
45.981739174011537
 30
0.0
 40
0.604677278472456
 50
88.359416932666491
 51
137.3929257723716
  0
LINE
  5
5813
  8
0
 10
390.21326623591119
 20
46.586168587506798
 30
0.0
 11
392.66495031951132
 21
46.586168587506791
 31
0.0
  0
ARC
  5
5814
  8
0
 10
392.67046088354101
 20
44.982327254481461
 30
0.0
 40
1.6038507997430389
 50
76.635861339233443
 51
90.196859136083177
  0
ARC
  5
5815
  8
0
 10
392.92494924695211
 20
46.201263697623283
 30
0.0
 40
0.3607199194205552
 50
13.442953383345531
 51
71.203951426875477
  0
ARC
  5
5816
  8
0
 10
392.49836120390472
 20
46.116078707009983
 30
0.0
 40
0.7955912293572471
 50
356.71200531867248
 51
12.267497056329351
  0
LINE
  5
5817
  8
0
 10
393.29264277571127
 20
46.070447698706801
 30
0.0
 11
393.2926286230113
 21
42.955565507306801
 31
0.0
  0
LINE
  5
5818
  8
0
 10
393.4709636876114
 20
42.955565507306801
 30
0.0
 11
393.47095849211132
 21
46.228454355006797
 31
0.0
  0
ARC
  5
5819
  8
0
 10
491.08778938776101
 20
46.228609315436273
 30
0.0
 40
97.616830895772821
 50
179.7522776100096
 51
180.00009095335801
  0
ARC
  5
581A
  8
0
 10
392.82629453205158
 20
46.653452545289909
 30
0.0
 40
0.6455823813728343
 50
359.75227761001008
 51
25.661206268117329
  0
ARC
  5
581B
  8
0
 10
393.14511228170272
 20
46.806623390101628
 30
0.0
 40
0.2918790237510152
 50
25.661206268117329
 51
72.854247451967737
  0
ARC
  5
581C
  8
0
 10
396.03023688083817
 20
46.518758790335127
 30
0.0
 40
0.5645253241345914
 50
98.572467753297516
 51
129.20282564521139
  0
ARC
  5
581D
  8
0
 10
396.0584466102186
 20
46.53758592019733
 30
0.0
 40
0.5687692081537986
 50
132.6056989889471
 51
168.07346755507891
  0
ARC
  5
581E
  8
0
 10
396.54063171492032
 20
46.375482929148852
 30
0.0
 40
1.0756622490075309
 50
164.9315315347329
 51
180.3098840257783
  0
LINE
  5
581F
  8
0
 10
395.46498519842169
 20
46.369665241950123
 30
0.0
 11
395.46489033381749
 21
42.955565507306801
 31
0.0
  0
ARC
  5
5820
  8
0
 10
388.0212609125191
 20
47.567445885085057
 30
0.0
 40
0.2690438665929405
 50
243.96366845108329
 51
266.6193634794783
  0
LINE
  5
5822
  8
0
 10
394.39301432951117
 20
47.456500808965608
 30
0.0
 11
394.89638264021119
 21
47.456500808965608
 31
0.0
  0
ENDSEC
  0
EOF
