  0
SECTION
  2
HEADER
  9
$ACADVER
  1
AC1009
  9
$INSBASE
 10
380.81019881965398
 20
33.443700591857628
 30
0.0
  9
$EXTMIN
 10
379.48521182153308
 20
26.8980816310935
 30
0.0
  9
$EXTMAX
 10
382.13518581777498
 20
35.02091586540763
 30
0.0
  9
$LIMMIN
 10
0.0
 20
0.0
  9
$LIMMAX
 10
11.692913385800001
 20
8.2677165353999982
  9
$ORTHOMODE
 70
     0
  9
$REGENMODE
 70
     1
  9
$FILLMODE
 70
     1
  9
$QTEXTMODE
 70
     0
  9
$MIRRTEXT
 70
     0
  9
$DRAGMODE
 70
     2
  9
$LTSCALE
 40
0.6431102362
  9
$OSMODE
 70
  3071
  9
$ATTMODE
 70
     1
  9
$TEXTSIZE
 40
0.2
  9
$TRACEWID
 40
0.05
  9
$TEXTSTYLE
  7
STANDARD
  9
$CLAYER
  8
0
  9
$CELTYPE
  6
BYLAYER
  9
$CECOLOR
 62
   256
  9
$DIMSCALE
 40
1.0
  9
$DIMASZ
 40
0.1875
  9
$DIMEXO
 40
0.0625
  9
$DIMDLI
 40
0.4443307087
  9
$DIMRND
 40
0.0
  9
$DIMDLE
 40
0.0
  9
$DIMEXE
 40
0.125
  9
$DIMTP
 40
0.01
  9
$DIMTM
 40
0.01
  9
$DIMTXT
 40
1.0
  9
$DIMCEN
 40
0.1052362205
  9
$DIMTSZ
 40
0.0
  9
$DIMTOL
 70
     1
  9
$DIMLIM
 70
     0
  9
$DIMTIH
 70
     0
  9
$DIMTOH
 70
     1
  9
$DIMSE1
 70
     0
  9
$DIMSE2
 70
     0
  9
$DIMTAD
 70
     0
  9
$DIMZIN
 70
     0
  9
$DIMBLK
  1

  9
$DIMASO
 70
     1
  9
$DIMSHO
 70
     1
  9
$DIMPOST
  1
\X
  9
$DIMAPOST
  1

  9
$DIMALT
 70
     1
  9
$DIMALTD
 70
     2
  9
$DIMALTF
 40
25.399999999999999
  9
$DIMLFAC
 40
1.0
  9
$DIMTOFL
 70
     0
  9
$DIMTVP
 40
0.0
  9
$DIMTIX
 70
     0
  9
$DIMSOXD
 70
     0
  9
$DIMSAH
 70
     0
  9
$DIMBLK1
  1

  9
$DIMBLK2
  1

  9
$DIMSTYLE
  2
STANDARD
  9
$DIMCLRD
 70
     0
  9
$DIMCLRE
 70
     0
  9
$DIMCLRT
 70
     0
  9
$DIMTFAC
 40
1.0
  9
$DIMGAP
 40
0.09
  9
$LUNITS
 70
     2
  9
$LUPREC
 70
     4
  9
$SKETCHINC
 40
0.1
  9
$FILLETRAD
 40
0.0
  9
$AUNITS
 70
     0
  9
$AUPREC
 70
     0
  9
$MENU
  1
.
  9
$ELEVATION
 40
0.0
  9
$PELEVATION
 40
0.0
  9
$THICKNESS
 40
0.0
  9
$LIMCHECK
 70
     0
  9
$BLIPMODE
 70
     0
  9
$CHAMFERA
 40
0.0
  9
$CHAMFERB
 40
0.0
  9
$SKPOLY
 70
     0
  9
$TDCREATE
 40
2458172.5207663891
  9
$TDUPDATE
 40
2458509.6569469911
  9
$TDINDWG
 40
0.1264793866
  9
$TDUSRTIMER
 40
0.1264793866
  9
$USRTIMER
 70
     1
  9
$ANGBASE
 50
0.0
  9
$ANGDIR
 70
     0
  9
$PDMODE
 70
     0
  9
$PDSIZE
 40
0.3125
  9
$PLINEWID
 40
0.0
  9
$COORDS
 70
     1
  9
$SPLFRAME
 70
     0
  9
$SPLINETYPE
 70
     6
  9
$SPLINESEGS
 70
     8
  9
$ATTDIA
 70
     1
  9
$ATTREQ
 70
     1
  9
$HANDLING
 70
     1
  9
$HANDSEED
  5
53DE
  9
$SURFTAB1
 70
     6
  9
$SURFTAB2
 70
     6
  9
$SURFTYPE
 70
     6
  9
$SURFU
 70
     6
  9
$SURFV
 70
     6
  9
$UCSNAME
  2

  9
$UCSORG
 10
0.0
 20
0.0
 30
0.0
  9
$UCSXDIR
 10
1.0
 20
0.0
 30
0.0
  9
$UCSYDIR
 10
0.0
 20
1.0
 30
0.0
  9
$PUCSNAME
  2

  9
$PUCSORG
 10
0.0
 20
0.0
 30
0.0
  9
$PUCSXDIR
 10
1.0
 20
0.0
 30
0.0
  9
$PUCSYDIR
 10
0.0
 20
1.0
 30
0.0
  9
$USERI1
 70
     0
  9
$USERI2
 70
     0
  9
$USERI3
 70
     0
  9
$USERI4
 70
     0
  9
$USERI5
 70
     0
  9
$USERR1
 40
0.0
  9
$USERR2
 40
0.0
  9
$USERR3
 40
0.0
  9
$USERR4
 40
0.0
  9
$USERR5
 40
0.0
  9
$WORLDVIEW
 70
     1
  9
$SHADEDGE
 70
     3
  9
$SHADEDIF
 70
    70
  9
$TILEMODE
 70
     1
  9
$MAXACTVP
 70
    64
  9
$PLIMCHECK
 70
     0
  9
$PEXTMIN
 10
1.0000000000000000E+020
 20
1.0000000000000000E+020
 30
1.0000000000000000E+020
  9
$PEXTMAX
 10
-1.0000000000000000E+020
 20
-1.0000000000000000E+020
 30
-1.0000000000000000E+020
  9
$PLIMMIN
 10
0.0
 20
0.0
  9
$PLIMMAX
 10
12.0
 20
9.0
  9
$UNITMODE
 70
     0
  9
$VISRETAIN
 70
     1
  9
$PLINEGEN
 70
     0
  9
$PSLTSCALE
 70
     1
  0
ENDSEC
  0
SECTION
  2
TABLES
  0
TABLE
  2
VPORT
 70
     1
  0
VPORT
  2
*ACTIVE
 70
     0
 10
0.0
 20
0.0
 11
1.0
 21
1.0
 12
0.0
 22
0.0
 13
0.0
 23
0.0
 14
1.0
 24
1.0
 15
0.0
 25
0.0
 16
0.0
 26
0.0
 36
24.62000692892618
 17
380.81019592285162
 27
30.959498405456539
 37
0.0
 40
8.5446466739329168
 41
2.1638418079096038
 42
50.0
 43
0.0
 44
0.0
 50
0.0
 51
0.0
 71
     0
 72
   100
 73
     1
 74
     1
 75
     0
 76
     0
 77
     0
 78
     0
  0
ENDTAB
  0
TABLE
  2
LTYPE
 70
     2
  0
LTYPE
  2
CONTINUOUS
 70
     0
  3
Solid line
 72
    65
 73
     0
 40
0.0
  0
LTYPE
  2
PHANTOM2
 70
     0
  3
___ _ _ ___ _ _ ___ _ _ ___ _ _
 72
    65
 73
     6
 40
1.25
 49
0.625
 49
-0.125
 49
0.125
 49
-0.125
 49
0.125
 49
-0.125
  0
ENDTAB
  0
TABLE
  2
LAYER
 70
     2
  0
LAYER
  2
0
 70
     0
 62
   255
  6
CONTINUOUS
  0
LAYER
  2
DEFPOINTS
 70
     0
 62
     7
  6
CONTINUOUS
  0
ENDTAB
  0
TABLE
  2
STYLE
 70
     1
  0
STYLE
  2
STANDARD
 70
     0
 40
0.0
 41
0.8
 50
0.0
 71
     0
 42
0.2
  3
txt
  4

  0
ENDTAB
  0
TABLE
  2
VIEW
 70
     0
  0
ENDTAB
  0
TABLE
  2
UCS
 70
     0
  0
ENDTAB
  0
TABLE
  2
APPID
 70
    10
  0
APPID
  2
ACAD
 70
     0
  0
APPID
  2
ACAD_MLEADERVER
 70
     0
  0
APPID
  2
ACAD_EXEMPT_FROM_CAD_STANDARDS
 70
     0
  0
APPID
  2
ACAD_DSTYLE_DIMJAG
 70
     0
  0
APPID
  2
ACAD_DSTYLE_DIMTALN
 70
     0
  0
APPID
  2
ACAD_NAV_VCDISPLAY
 70
     0
  0
APPID
  2
ACAECLAYERSTANDARD
 70
     0
  0
APPID
  2
ACCMTRANSPARENCY
 70
     0
  0
APPID
  2
DCO15
 70
     0
  0
APPID
  2
ACDBATTR
 70
     0
  0
ENDTAB
  0
TABLE
  2
DIMSTYLE
 70
     2
  0
DIMSTYLE
  2
STANDARD
 70
     0
  3

  4

  5

  6

  7

 40
1.0
 41
0.1875
 42
0.0625
 43
0.38
 44
0.125
 45
0.0
 46
0.0
 47
0.01
 48
0.01
140
0.15625
141
0.09
142
0.0
143
25.399999999999999
144
1.0
145
0.0
146
1.0
147
0.09
 71
     1
 72
     0
 73
     1
 74
     1
 75
     0
 76
     0
 77
     0
 78
     4
170
     0
171
     2
172
     0
173
     0
174
     0
175
     0
176
     0
177
     0
178
     0
  0
ENDTAB
  0
ENDSEC
  0
SECTION
  2
BLOCKS
  0
BLOCK
  8
0
  2
$MODEL_SPACE
 70
     0
 10
0.0
 20
0.0
 30
0.0
  3
$MODEL_SPACE
  1

  0
ENDBLK
  5
21
  8
0
  0
BLOCK
 67
     1
  8
0
  2
$PAPER_SPACE
 70
     0
 10
0.0
 20
0.0
 30
0.0
  3
$PAPER_SPACE
  1

  0
ENDBLK
  5
1D
 67
     1
  8
0
  0
ENDSEC
  0
SECTION
  2
ENTITIES
  0
ATTDEF
  5
829
  8
DEFPOINTS
 10
380.80709656913331
 20
33.450195238779052
 30
0.0
 40
0.001
  1
K-14760-4
  3

  2
MODELNUMBER
 70
     0
1001
ACDBATTR
1070
     0
1070
     1
  0
ATTDEF
  5
82A
  8
DEFPOINTS
 10
380.80709656913331
 20
33.448528572112387
 30
0.0
 40
0.001
  1
STANCE
  3

  2
TRADENAME
 70
     0
1001
ACDBATTR
1070
     0
1070
     1
  0
ATTDEF
  5
82B
  8
DEFPOINTS
 10
380.80709656913331
 20
33.446861905445722
 30
0.0
 40
0.001
  1
BATHROOM SINK FAUCET
  3

  2
PRODUCT
 70
     0
1001
ACDBATTR
1070
     0
1070
     1
  0
ATTDEF
  5
82C
  8
DEFPOINTS
 10
380.80709656913331
 20
33.445195238779057
 30
0.0
 40
0.001
  1
METAL
  3

  2
MATERIAL
 70
     0
1001
ACDBATTR
1070
     0
1070
     1
  0
LINE
  5
52BD
  8
0
 10
379.71521437115399
 20
26.89808163110763
 30
0.0
 11
381.9051858177541
 21
26.89808163110763
 31
0.0
  0
LINE
  5
52BE
  8
0
 10
379.48521182155412
 20
27.128084737000311
 30
0.0
 11
379.48521182155412
 21
34.790915871307632
 31
0.0
  0
LINE
  5
52BF
  8
0
 10
382.13518581775412
 20
34.790915865407641
 30
0.0
 11
382.13518581775412
 21
27.128084737007629
 31
0.0
  0
LINE
  5
52C0
  8
0
 10
379.71521182205407
 20
35.02091586540763
 30
0.0
 11
381.90518581725411
 21
35.02091586540763
 31
0.0
  0
ARC
  5
52C1
  8
0
 10
379.71521182159302
 20
27.128081631153421
 30
0.0
 40
0.2300000000599216
 50
179.99922629600661
 51
270.00063512646699
  0
ARC
  5
52C2
  8
0
 10
379.71521182155408
 20
34.790915865407626
 30
0.0
 40
0.2300000000000004
 50
89.999999861800475
 51
179.99999853023891
  0
ARC
  5
52C3
  8
0
 10
381.90518581773921
 20
27.128081631143431
 30
0.0
 40
0.2300000000358011
 50
270.00000000369329
 51
0.0007737083056612
  0
CIRCLE
  5
52C4
  8
0
 10
380.81019881965398
 20
33.639618700707629
 30
0.0
 40
1.0199999943999991
  0
CIRCLE
  5
52C5
  8
0
 10
380.81019881965398
 20
33.639618700707629
 30
0.0
 40
1.0
  0
CIRCLE
  5
52C6
  8
0
 10
380.81019881965398
 20
33.639618700707629
 30
0.0
 40
0.6124999949000001
  0
CIRCLE
  5
52C7
  8
0
 10
380.81019881965398
 20
33.639618700707629
 30
0.0
 40
0.5925000000000001
  0
ARC
  5
52C8
  8
0
 10
381.9051858177541
 20
34.790915865407626
 30
0.0
 40
0.2299999999999995
 50
0.0000000000010178
 51
90.000000128298595
  0
ARC
  5
52C9
  8
0
 10
380.81019881856122
 20
32.902428492001746
 30
0.0
 40
0.9888743931058845
 50
87.260546965524725
 51
92.739484516866796
  0
ARC
  5
52CA
  8
0
 10
380.76447246669358
 20
33.858057259099738
 30
0.0
 40
0.0321522601120101
 50
92.739484516870036
 51
102.24735595183159
  0
ARC
  5
52CB
  8
0
 10
380.7966509659164
 20
33.639599612235088
 30
0.0
 40
0.2529031736249758
 50
98.870716332977565
 51
261.15894637918382
  0
ARC
  5
52CC
  8
0
 10
380.79060555223617
 20
33.861093738280189
 30
0.0
 40
0.0300245258329941
 50
93.045540245522034
 51
179.77463915068699
  0
ARC
  5
52CD
  8
0
 10
437.0978549887115
 20
33.6396199211474
 30
0.0
 40
56.337709523114881
 50
179.77463915068699
 51
180.22536333151751
  0
ARC
  5
52CE
  8
0
 10
380.79058985500802
 20
33.418143704359331
 30
0.0
 40
0.0300088192877831
 50
180.2255571313928
 51
264.91622556095842
  0
ARC
  5
52CF
  8
0
 10
380.8101983138028
 20
34.166297663301009
 30
0.0
 40
0.7783633132761635
 50
266.1386302142115
 51
273.86147161854558
  0
ARC
  5
52D0
  8
0
 10
380.8559251751069
 20
33.858057273423789
 30
0.0
 40
0.0321522455852552
 50
77.752642973646786
 51
87.261490862208007
  0
ARC
  5
52D1
  8
0
 10
380.82374669432357
 20
33.639599630148801
 30
0.0
 40
0.2529031526977263
 50
278.84113406013029
 51
81.129287726639774
  0
ARC
  5
52D2
  8
0
 10
380.82979208707189
 20
33.861093738280189
 30
0.0
 40
0.0300245258329933
 50
0.2253608493060665
 51
86.954240479979077
  0
ARC
  5
52D3
  8
0
 10
324.52254265059662
 20
33.6396199211474
 30
0.0
 40
56.337709523114881
 50
359.77463666848269
 51
0.2253608493127838
  0
ARC
  5
52D4
  8
0
 10
380.82980804595832
 20
33.418143601826152
 30
0.0
 40
0.0300085572282221
 50
275.08330987872858
 51
359.77463666848257
  0
ENDSEC
  0
EOF
