  0
SECTION
  2
HEADER
  9
$ACADVER
  1
AC1009
  9
$INSBASE
 10
0.0
 20
0.0
 30
0.0
  9
$EXTMIN
 10
-2.643303918745914
 20
-12.5505137314658
 30
-6.5668758740575148
  9
$EXTMAX
 10
2.646210633664281
 20
0.0114211937771529
 30
0.0004381166309528
  9
$LIMMIN
 10
0.0
 20
0.0
  9
$LIMMAX
 10
12.0
 20
9.0
  9
$ORTHOMODE
 70
     0
  9
$REGENMODE
 70
     1
  9
$FILLMODE
 70
     1
  9
$QTEXTMODE
 70
     0
  9
$MIRRTEXT
 70
     1
  9
$DRAGMODE
 70
     2
  9
$LTSCALE
 40
1.0
  9
$OSMODE
 70
    37
  9
$ATTMODE
 70
     1
  9
$TEXTSIZE
 40
0.001
  9
$TRACEWID
 40
0.05
  9
$TEXTSTYLE
  7
STANDARD
  9
$CLAYER
  8
0
  9
$CELTYPE
  6
BYLAYER
  9
$CECOLOR
 62
   256
  9
$DIMSCALE
 40
1.0
  9
$DIMASZ
 40
0.18
  9
$DIMEXO
 40
0.0625
  9
$DIMDLI
 40
0.38
  9
$DIMRND
 40
0.0
  9
$DIMDLE
 40
0.0
  9
$DIMEXE
 40
0.18
  9
$DIMTP
 40
0.0
  9
$DIMTM
 40
0.0
  9
$DIMTXT
 40
0.18
  9
$DIMCEN
 40
0.09
  9
$DIMTSZ
 40
0.0
  9
$DIMTOL
 70
     0
  9
$DIMLIM
 70
     0
  9
$DIMTIH
 70
     1
  9
$DIMTOH
 70
     1
  9
$DIMSE1
 70
     0
  9
$DIMSE2
 70
     0
  9
$DIMTAD
 70
     0
  9
$DIMZIN
 70
     0
  9
$DIMBLK
  1

  9
$DIMASO
 70
     1
  9
$DIMSHO
 70
     1
  9
$DIMPOST
  1

  9
$DIMAPOST
  1

  9
$DIMALT
 70
     0
  9
$DIMALTD
 70
     2
  9
$DIMALTF
 40
25.399999999999999
  9
$DIMLFAC
 40
1.0
  9
$DIMTOFL
 70
     0
  9
$DIMTVP
 40
0.0
  9
$DIMTIX
 70
     0
  9
$DIMSOXD
 70
     0
  9
$DIMSAH
 70
     0
  9
$DIMBLK1
  1

  9
$DIMBLK2
  1

  9
$DIMSTYLE
  2
STANDARD
  9
$DIMCLRD
 70
     0
  9
$DIMCLRE
 70
     0
  9
$DIMCLRT
 70
     0
  9
$DIMTFAC
 40
1.0
  9
$DIMGAP
 40
0.09
  9
$LUNITS
 70
     2
  9
$LUPREC
 70
     4
  9
$SKETCHINC
 40
0.1
  9
$FILLETRAD
 40
0.03
  9
$AUNITS
 70
     0
  9
$AUPREC
 70
     3
  9
$MENU
  1
.
  9
$ELEVATION
 40
0.0
  9
$PELEVATION
 40
0.0
  9
$THICKNESS
 40
0.0
  9
$LIMCHECK
 70
     0
  9
$BLIPMODE
 70
     0
  9
$CHAMFERA
 40
0.5
  9
$CHAMFERB
 40
0.5
  9
$SKPOLY
 70
     0
  9
$TDCREATE
 40
2451380.5970990621
  9
$TDUPDATE
 40
2456545.4030485419
  9
$TDINDWG
 40
1.8552739699
  9
$TDUSRTIMER
 40
1.8552649306
  9
$USRTIMER
 70
     1
  9
$ANGBASE
 50
0.0
  9
$ANGDIR
 70
     0
  9
$PDMODE
 70
     0
  9
$PDSIZE
 40
0.0
  9
$PLINEWID
 40
0.0
  9
$COORDS
 70
     1
  9
$SPLFRAME
 70
     0
  9
$SPLINETYPE
 70
     6
  9
$SPLINESEGS
 70
     8
  9
$ATTDIA
 70
     0
  9
$ATTREQ
 70
     1
  9
$HANDLING
 70
     1
  9
$HANDSEED
  5
1F0
  9
$SURFTAB1
 70
     6
  9
$SURFTAB2
 70
     6
  9
$SURFTYPE
 70
     6
  9
$SURFU
 70
     6
  9
$SURFV
 70
     6
  9
$UCSNAME
  2

  9
$UCSORG
 10
0.0
 20
0.0
 30
0.0
  9
$UCSXDIR
 10
1.0
 20
0.0
 30
0.0
  9
$UCSYDIR
 10
0.0
 20
1.0
 30
0.0
  9
$PUCSNAME
  2

  9
$PUCSORG
 10
0.0
 20
0.0
 30
0.0
  9
$PUCSXDIR
 10
1.0
 20
0.0
 30
0.0
  9
$PUCSYDIR
 10
0.0
 20
1.0
 30
0.0
  9
$USERI1
 70
     0
  9
$USERI2
 70
     0
  9
$USERI3
 70
     0
  9
$USERI4
 70
     0
  9
$USERI5
 70
     0
  9
$USERR1
 40
0.0
  9
$USERR2
 40
0.0
  9
$USERR3
 40
0.0
  9
$USERR4
 40
0.0
  9
$USERR5
 40
0.0
  9
$WORLDVIEW
 70
     1
  9
$SHADEDGE
 70
     3
  9
$SHADEDIF
 70
    70
  9
$TILEMODE
 70
     1
  9
$MAXACTVP
 70
    64
  9
$PLIMCHECK
 70
     0
  9
$PEXTMIN
 10
1.0000000000000000E+020
 20
1.0000000000000000E+020
 30
1.0000000000000000E+020
  9
$PEXTMAX
 10
-1.0000000000000000E+020
 20
-1.0000000000000000E+020
 30
-1.0000000000000000E+020
  9
$PLIMMIN
 10
0.0
 20
0.0
  9
$PLIMMAX
 10
12.0
 20
9.0
  9
$UNITMODE
 70
     0
  9
$VISRETAIN
 70
     1
  9
$PLINEGEN
 70
     0
  9
$PSLTSCALE
 70
     1
  0
ENDSEC
  0
SECTION
  2
TABLES
  0
TABLE
  2
VPORT
 70
     1
  0
VPORT
  2
*ACTIVE
 70
     0
 10
0.0
 20
0.0
 11
1.0
 21
1.0
 12
0.0014533574591837
 22
-6.269546268844322
 13
0.0
 23
0.0
 14
0.5
 24
0.5
 15
0.5
 25
0.5
 16
0.0
 26
0.0
 36
1.0
 17
0.0
 27
0.0
 37
0.0
 40
12.639637615502179
 41
1.976264189886481
 42
50.0
 43
0.0
 44
0.0
 50
0.0
 51
0.0
 71
     0
 72
  5500
 73
     1
 74
     1
 75
     0
 76
     0
 77
     0
 78
     0
  0
ENDTAB
  0
TABLE
  2
LTYPE
 70
     2
  0
LTYPE
  2
CONTINUOUS
 70
     0
  3
Solid line
 72
    65
 73
     0
 40
0.0
  0
LTYPE
  2
PHANTOM2
 70
     0
  3
Phantom (.5x) ___ _ _ ___ _ _ ___ _ _ ___ _ _
 72
    65
 73
     6
 40
1.25
 49
0.625
 49
-0.125
 49
0.125
 49
-0.125
 49
0.125
 49
-0.125
  0
ENDTAB
  0
TABLE
  2
LAYER
 70
     2
  0
LAYER
  2
0
 70
     0
 62
     7
  6
CONTINUOUS
  0
LAYER
  2
DEFPOINTS
 70
     0
 62
     7
  6
CONTINUOUS
  0
ENDTAB
  0
TABLE
  2
STYLE
 70
     1
  0
STYLE
  2
STANDARD
 70
     0
 40
0.0
 41
1.0
 50
0.0
 71
     0
 42
0.001
  3
txt
  4

  0
ENDTAB
  0
TABLE
  2
VIEW
 70
     0
  0
ENDTAB
  0
TABLE
  2
UCS
 70
     0
  0
ENDTAB
  0
TABLE
  2
APPID
 70
     4
  0
APPID
  2
ACAD
 70
     0
  0
APPID
  2
ACAD_NAV_VCDISPLAY
 70
     0
  0
APPID
  2
AcDbAttr
 70
     0
  0
APPID
  2
ACAD_MLEADERVER
 70
     0
  0
ENDTAB
  0
TABLE
  2
DIMSTYLE
 70
     1
  0
DIMSTYLE
  2
STANDARD
 70
     0
  3

  4

  5

  6

  7

 40
1.0
 41
0.18
 42
0.0625
 43
0.38
 44
0.18
 45
0.0
 46
0.0
 47
0.0
 48
0.0
140
0.18
141
0.09
142
0.0
143
25.399999999999999
144
1.0
145
0.0
146
1.0
147
0.09
 71
     0
 72
     0
 73
     1
 74
     1
 75
     0
 76
     0
 77
     0
 78
     0
170
     0
171
     2
172
     0
173
     0
174
     0
175
     0
176
     0
177
     0
178
     0
  0
ENDTAB
  0
ENDSEC
  0
SECTION
  2
BLOCKS
  0
BLOCK
  8
0
  2
$MODEL_SPACE
 70
     2
 10
0.0
 20
0.0
 30
0.0
  3
$MODEL_SPACE
  1

  0
ENDBLK
  5
16
  8
0
  0
BLOCK
 67
     1
  8
0
  2
$PAPER_SPACE
 70
     0
 10
0.0
 20
0.0
 30
0.0
  3
$PAPER_SPACE
  1

  0
ENDBLK
  5
1D
 67
     1
  8
0
  0
ENDSEC
  0
SECTION
  2
ENTITIES
  0
POLYLINE
  5
70
  8
0
 66
     1
 10
0.0
 20
0.0
 30
-6.56665015220642
  0
VERTEX
  5
D6
  8
0
 10
-0.6874938893815356
 20
-7.9451615155343296
 30
-6.56665015220642
  0
VERTEX
  5
D7
  8
0
 10
-2.524990396931059
 20
-7.945162296295166
 30
-6.56665015220642
  0
VERTEX
  5
D8
  8
0
 10
-2.5555730633281541
 20
-7.9487698078155509
 30
-6.56665015220642
  0
VERTEX
  5
D9
  8
0
 10
-2.588421183063871
 20
-7.9625368118286133
 30
-6.56665015220642
  0
VERTEX
  5
DA
  8
0
 10
-2.5914216808818651
 20
-7.9650042057037354
 30
-6.56665015220642
  0
VERTEX
  5
DB
  8
0
 10
-2.614895182087309
 20
-7.987898349761962
 30
-6.56665015220642
  0
VERTEX
  5
DC
  8
0
 10
-2.6235888771556679
 20
-8.0165235996246338
 30
-6.56665015220642
  0
VERTEX
  5
DD
  8
0
 10
-2.6249907784007851
 20
-8.0217292308807373
 30
-6.56665015220642
  0
VERTEX
  5
DE
  8
0
 10
-2.6249926857494179
 20
-12.447908878326411
 30
-6.56665015220642
  0
VERTEX
  5
DF
  8
0
 10
-2.6219008736156288
 20
-12.462240695953369
 30
-6.56665015220642
  0
VERTEX
  5
E0
  8
0
 10
-2.6155906490825478
 20
-12.48500299453735
 30
-6.56665015220642
  0
VERTEX
  5
E1
  8
0
 10
-2.6040762238048378
 20
-12.497847080230709
 30
-6.56665015220642
  0
VERTEX
  5
E2
  8
0
 10
-2.5856858067058388
 20
-12.51747369766235
 30
-6.56665015220642
  0
VERTEX
  5
E3
  8
0
 10
-2.5576041512035199
 20
-12.531147956848139
 30
-6.56665015220642
  0
VERTEX
  5
E4
  8
0
 10
-2.5282560162090131
 20
-12.53643131256103
 30
-6.56665015220642
  0
VERTEX
  5
E5
  8
0
 10
-2.149418669178373
 20
-12.547359466552731
 30
-6.56665015220642
  0
VERTEX
  5
E6
  8
0
 10
-1.26706870122183
 20
-12.548232078552241
 30
-6.56665015220642
  0
VERTEX
  5
E7
  8
0
 10
-0.5979433826946093
 20
-12.54889392852783
 30
-6.56665015220642
  0
VERTEX
  5
E8
  8
0
 10
0.0000068711156587
 20
-12.54948568344116
 30
-6.56665015220642
  0
VERTEX
  5
E9
  8
0
 10
0.6533803768612075
 20
-12.54883909225464
 30
-6.56665015220642
  0
VERTEX
  5
EA
  8
0
 10
1.244368595645539
 20
-12.54825401306152
 30
-6.56665015220642
  0
VERTEX
  5
EB
  8
0
 10
2.1494325824237981
 20
-12.54735898971558
 30
-6.56665015220642
  0
VERTEX
  5
EC
  8
0
 10
2.5282696910358591
 20
-12.53643131256103
 30
-6.56665015220642
  0
VERTEX
  5
ED
  8
0
 10
2.5576159186817331
 20
-12.531147480010979
 30
-6.56665015220642
  0
VERTEX
  5
EE
  8
0
 10
2.5856980510212111
 20
-12.51747369766235
 30
-6.56665015220642
  0
VERTEX
  5
EF
  8
0
 10
2.604089183375947
 20
-12.497847557067869
 30
-6.56665015220642
  0
VERTEX
  5
F0
  8
0
 10
2.6156033702350778
 20
-12.48500394821167
 30
-6.56665015220642
  0
VERTEX
  5
F1
  8
0
 10
2.6219147868610539
 20
-12.462239742279049
 30
-6.56665015220642
  0
VERTEX
  5
F2
  8
0
 10
2.6250063605762639
 20
-12.447908878326411
 30
-6.56665015220642
  0
VERTEX
  5
F3
  8
0
 10
2.6250063605762639
 20
-8.1345562934875488
 30
-6.56665015220642
  0
VERTEX
  5
F4
  8
0
 10
2.6250061221576848
 20
-8.0783317089080811
 30
-6.56665015220642
  0
VERTEX
  5
F5
  8
0
 10
2.6250061221576848
 20
-8.0217289924621582
 30
-6.56665015220642
  0
VERTEX
  5
F6
  8
0
 10
2.6195835299945989
 20
-7.9987592697143546
 30
-6.56665015220642
  0
VERTEX
  5
F7
  8
0
 10
2.6182555385090041
 20
-7.9938766956329337
 30
-6.56665015220642
  0
VERTEX
  5
F8
  8
0
 10
2.597864789531342
 20
-7.969550609588623
 30
-6.56665015220642
  0
VERTEX
  5
F9
  8
0
 10
2.5945738978840041
 20
-7.9668781757354727
 30
-6.56665015220642
  0
VERTEX
  5
FA
  8
0
 10
2.56365911440622
 20
-7.9510295391082764
 30
-6.56665015220642
  0
VERTEX
  5
FB
  8
0
 10
2.525006455943696
 20
-7.9451601505279541
 30
-6.56665015220642
  0
VERTEX
  5
FC
  8
0
 10
0.6875062952019846
 20
-7.9451609312903377
 30
-6.56665015220642
  0
SEQEND
  5
FD
  8
0
  0
POLYLINE
  5
71
  8
0
 66
     1
 10
0.0
 20
0.0
 30
-2.1967294216156001
  0
VERTEX
  5
FE
  8
0
 10
2.6250037379718938
 20
-12.335079669952391
 30
-2.1967294216156001
  0
VERTEX
  5
FF
  8
0
 10
2.6161874957538771
 20
-12.36411142349243
 30
-2.1967294216156001
  0
VERTEX
  5
100
  8
0
 10
2.5923797317005319
 20
-12.387331485748289
 30
-2.1967294216156001
  0
VERTEX
  5
101
  8
0
 10
2.557487887904756
 20
-12.401955127716059
 30
-2.1967294216156001
  0
VERTEX
  5
102
  8
0
 10
2.5250043101764841
 20
-12.40579080581665
 30
-2.1967294216156001
  0
VERTEX
  5
103
  8
0
 10
2.1493667788959661
 20
-12.40579080581665
 30
-2.1967294216156001
  0
VERTEX
  5
104
  8
0
 10
0.0000052778555641
 20
-12.40579128265381
 30
-2.1967294216156001
  0
VERTEX
  5
105
  8
0
 10
-2.1493554882549111
 20
-12.40579128265381
 30
-2.1967294216156001
  0
VERTEX
  5
106
  8
0
 10
-2.5249930195354291
 20
-12.40579128265381
 30
-2.1967294216156001
  0
VERTEX
  5
107
  8
0
 10
-2.5660510830425092
 20
-12.399555683135979
 30
-2.1967294216156001
  0
VERTEX
  5
108
  8
0
 10
-2.5988894276164838
 20
-12.38272142410278
 30
-2.1967294216156001
  0
VERTEX
  5
109
  8
0
 10
-2.6195705704234911
 20
-12.358048915863041
 30
-2.1967294216156001
  0
VERTEX
  5
10A
  8
0
 10
-2.624992924167997
 20
-12.335080623626711
 30
-2.1967294216156001
  0
SEQEND
  5
10B
  8
0
  0
POLYLINE
  5
72
  8
0
 66
     1
 10
0.0
 20
0.0
 30
-1.9941256046295159
  0
VERTEX
  5
10C
  8
0
 10
-0.6874939970516039
 20
-0.3999996185302734
 30
-1.9941256046295159
  0
VERTEX
  5
10D
  8
0
 10
-0.6874938778423143
 20
-8.7537932395935059
 30
-1.9941256046295159
  0
VERTEX
  5
10E
  8
0
 10
-0.6837725214504076
 20
-8.7675881385803223
 30
-1.9941256046295159
  0
VERTEX
  5
10F
  8
0
 10
-0.6719705633663012
 20
-8.7802927494049072
 30
-1.9941256046295159
  0
VERTEX
  5
110
  8
0
 10
-0.6540028624080492
 20
-8.7886385917663574
 30
-1.9941256046295159
  0
VERTEX
  5
111
  8
0
 10
-0.6344937853359057
 20
-8.7912693023681641
 30
-1.9941256046295159
  0
VERTEX
  5
112
  8
0
 10
0.6345063276745009
 20
-8.7912693023681641
 30
-1.9941256046295159
  0
VERTEX
  5
113
  8
0
 10
0.6540153451419997
 20
-8.7886383533477783
 30
-1.9941256046295159
  0
VERTEX
  5
114
  8
0
 10
0.671982986495607
 20
-8.7802929878234863
 30
-1.9941256046295159
  0
VERTEX
  5
115
  8
0
 10
0.6837850637890029
 20
-8.7675881385803223
 30
-1.9941256046295159
  0
VERTEX
  5
116
  8
0
 10
0.6875063009716201
 20
-8.7537932395935059
 30
-1.9941256046295159
  0
VERTEX
  5
117
  8
0
 10
0.6875062413669753
 20
-0.3999996185302734
 30
-1.9941256046295159
  0
SEQEND
  5
118
  8
0
  0
POLYLINE
  5
73
  8
0
 66
     1
 10
0.0
 20
0.0
 30
-3.1208808470372729
  0
VERTEX
  5
119
  8
0
 10
0.6862510979837282
 20
-8.5394642185003349
 30
-3.1208808470372729
  0
VERTEX
  5
11A
  8
0
 10
0.6947818227268386
 20
-8.5511615276336652
 30
-3.1208808470372729
  0
VERTEX
  5
11B
  8
0
 10
0.7344806619144606
 20
-8.6494898796081543
 30
-3.1208808470372729
  0
VERTEX
  5
11C
  8
0
 10
0.7404040523029494
 20
-8.6675448417663574
 30
-3.1208808470372729
  0
VERTEX
  5
11D
  8
0
 10
0.7527141995884108
 20
-8.7634100914001465
 30
-3.1208808470372729
  0
VERTEX
  5
11E
  8
0
 10
0.7398873992420363
 20
-8.8612432479858398
 30
-3.1208808470372729
  0
VERTEX
  5
11F
  8
0
 10
0.6993419952846695
 20
-8.9602570533752441
 30
-3.1208808470372729
  0
VERTEX
  5
120
  8
0
 10
0.6292422838665175
 20
-9.0554976463317871
 30
-3.1208808470372729
  0
VERTEX
  5
121
  8
0
 10
0.5312487311817336
 20
-9.1404709815979004
 30
-3.1208808470372729
  0
VERTEX
  5
122
  8
0
 10
0.4107087381340194
 20
-9.2094435691833496
 30
-3.1208808470372729
  0
VERTEX
  5
123
  8
0
 10
0.2757570274330305
 20
-9.2586536407470703
 30
-3.1208808470372729
  0
VERTEX
  5
124
  8
0
 10
0.1355790026642012
 20
-9.2869515419006348
 30
-3.1208808470372729
  0
VERTEX
  5
125
  8
0
 10
-0.0014102301869912
 20
-9.2956552505493164
 30
-3.1208808470372729
  0
VERTEX
  5
126
  8
0
 10
-0.138350250556357
 20
-9.2865886688232422
 30
-3.1208808470372729
  0
VERTEX
  5
127
  8
0
 10
-0.2783767752193285
 20
-9.2579174041748047
 30
-3.1208808470372729
  0
VERTEX
  5
128
  8
0
 10
-0.4130661956809832
 20
-9.2083494663238525
 30
-3.1208808470372729
  0
VERTEX
  5
129
  8
0
 10
-0.5332369975589586
 20
-9.1390562057495117
 30
-3.1208808470372729
  0
VERTEX
  5
12A
  8
0
 10
-0.6307779125713182
 20
-9.0538210868835431
 30
-3.1208808470372729
  0
VERTEX
  5
12B
  8
0
 10
-0.7003701500438524
 20
-8.9583950042724592
 30
-3.1208808470372729
  0
VERTEX
  5
12C
  8
0
 10
-0.7403895430110766
 20
-8.8592739105224592
 30
-3.1208808470372729
  0
VERTEX
  5
12D
  8
0
 10
-0.7526984982036425
 20
-8.7634096145629883
 30
-3.1208808470372729
  0
VERTEX
  5
12E
  8
0
 10
-0.7398742608569933
 20
-8.6655755043029785
 30
-3.1208808470372729
  0
VERTEX
  5
12F
  8
0
 10
-0.7339549235843493
 20
-8.6475360393524152
 30
-3.1208808470372729
  0
VERTEX
  5
130
  8
0
 10
-0.6937316231273485
 20
-8.5493140220642072
 30
-3.1208808470372729
  0
VERTEX
  5
131
  8
0
 10
-0.6862916059499682
 20
-8.5392055553908701
 30
-3.1208808470372729
  0
SEQEND
  5
132
  8
0
  0
POLYLINE
  5
74
  8
0
 66
     1
 10
0.0
 20
0.0
 30
-2.9371978044509879
  0
VERTEX
  5
133
  8
0
 10
-0.7526984982036425
 20
-8.7634096145629883
 30
-2.9371978044509879
  0
VERTEX
  5
134
  8
0
 10
-0.7848791651271654
 20
-9.4083104133605957
 30
-2.9371978044509879
  0
SEQEND
  5
135
  8
0
  0
POLYLINE
  5
75
  8
0
 66
     1
 10
0.0
 20
0.0
 30
-3.0479071140289302
  0
VERTEX
  5
136
  8
0
 10
-0.001383056056909
 20
-10.050004482269291
 30
-3.0479071140289302
  0
VERTEX
  5
137
  8
0
 10
-0.1527076707065476
 20
-10.04039001464843
 30
-3.0479071140289302
  0
VERTEX
  5
138
  8
0
 10
-0.3075552330196274
 20
-10.00913095474243
 30
-3.0479071140289302
  0
VERTEX
  5
139
  8
0
 10
-0.4566294894397629
 20
-9.9547719955444336
 30
-3.0479071140289302
  0
VERTEX
  5
13A
  8
0
 10
-0.589783136624135
 20
-9.8785820007324219
 30
-3.0479071140289302
  0
VERTEX
  5
13B
  8
0
 10
-0.6980314896285904
 20
-9.7847161293029785
 30
-3.0479071140289302
  0
VERTEX
  5
13C
  8
0
 10
-0.7754663870513811
 20
-9.6795096397399902
 30
-3.0479071140289302
  0
VERTEX
  5
13D
  8
0
 10
-0.8202551648795974
 20
-9.5701339244842512
 30
-3.0479071140289302
  0
VERTEX
  5
13E
  8
0
 10
-0.8344241426170242
 20
-9.4620621204376221
 30
-3.0479071140289302
  0
VERTEX
  5
13F
  8
0
 10
-0.8208258793533219
 20
-9.3561658859252912
 30
-3.0479071140289302
  0
VERTEX
  5
140
  8
0
 10
-0.7766189024627579
 20
-9.2466723918914795
 30
-3.0479071140289302
  0
SEQEND
  5
141
  8
0
  0
POLYLINE
  5
76
  8
0
 66
     1
 10
0.0
 20
0.0
 30
-3.0270972251892081
  0
VERTEX
  5
142
  8
0
 10
-0.0014707554441316
 20
-9.9633107185363752
 30
-3.0270972251892081
  0
VERTEX
  5
143
  8
0
 10
-0.14431667782668
 20
-9.9542355537414551
 30
-3.0270972251892081
  0
VERTEX
  5
144
  8
0
 10
-0.2904878602207077
 20
-9.9247274398803711
 30
-3.0270972251892081
  0
VERTEX
  5
145
  8
0
 10
-0.4312093005359543
 20
-9.8734140396118164
 30
-3.0270972251892081
  0
VERTEX
  5
146
  8
0
 10
-0.5569027707755936
 20
-9.8014929294586182
 30
-3.0270972251892081
  0
VERTEX
  5
147
  8
0
 10
-0.6590858147323502
 20
-9.7128860950469971
 30
-3.0270972251892081
  0
VERTEX
  5
148
  8
0
 10
-0.7373231694877518
 20
-9.6361112594604492
 30
-3.0270972251892081
  0
VERTEX
  5
149
  8
0
 10
-0.7799002573669327
 20
-9.5321362018585205
 30
-3.0270972251892081
  0
VERTEX
  5
14A
  8
0
 10
-0.7848791651271654
 20
-9.4083104133605957
 30
-3.0270972251892081
  0
SEQEND
  5
14B
  8
0
  0
POLYLINE
  5
77
  8
0
 66
     1
 10
0.0
 20
0.0
 30
-2.815455317497253
  0
VERTEX
  5
14C
  8
0
 10
-0.5127902537929076
 20
-8.7912693023681641
 30
-2.815455317497253
  0
VERTEX
  5
14D
  8
0
 10
-0.4908858112834765
 20
-8.845522403717041
 30
-2.815455317497253
  0
VERTEX
  5
14E
  8
0
 10
-0.4421088866733385
 20
-8.9124066829681396
 30
-2.815455317497253
  0
VERTEX
  5
14F
  8
0
 10
-0.373742478325255
 20
-8.9721479415893555
 30
-2.815455317497253
  0
VERTEX
  5
150
  8
0
 10
-0.28951527400244
 20
-9.0207157135009766
 30
-2.815455317497253
  0
VERTEX
  5
151
  8
0
 10
-0.1951117090724779
 20
-9.055457592010498
 30
-2.815455317497253
  0
VERTEX
  5
152
  8
0
 10
-0.0969672895811869
 20
-9.0755538940429687
 30
-2.815455317497253
  0
VERTEX
  5
153
  8
0
 10
-0.0009862242808936
 20
-9.0819084644317627
 30
-2.815455317497253
  0
SEQEND
  5
154
  8
0
  0
POLYLINE
  5
78
  8
0
 66
     1
 10
0.0
 20
0.0
 30
-2.815455317497253
  0
VERTEX
  5
155
  8
0
 10
0.5108178052311274
 20
-8.7912693023681641
 30
-2.815455317497253
  0
VERTEX
  5
156
  8
0
 10
0.4889133627216893
 20
-8.845522403717041
 30
-2.815455317497253
  0
VERTEX
  5
157
  8
0
 10
0.4401364381115514
 20
-8.9124066829681396
 30
-2.815455317497253
  0
VERTEX
  5
158
  8
0
 10
0.3717700297634678
 20
-8.9721479415893555
 30
-2.815455317497253
  0
VERTEX
  5
159
  8
0
 10
0.2875428254406529
 20
-9.0207157135009766
 30
-2.815455317497253
  0
VERTEX
  5
15A
  8
0
 10
0.1931392605106907
 20
-9.055457592010498
 30
-2.815455317497253
  0
VERTEX
  5
15B
  8
0
 10
0.0949948410193997
 20
-9.0755538940429687
 30
-2.815455317497253
  0
VERTEX
  5
15C
  8
0
 10
-0.0009862242808936
 20
-9.0819084644317627
 30
-2.815455317497253
  0
SEQEND
  5
15D
  8
0
  0
POLYLINE
  5
79
  8
0
 66
     1
 10
0.0
 20
0.0
 30
-2.5415179729461661
  0
VERTEX
  5
15E
  8
0
 10
-0.0044868293993545
 20
-11.742927074432369
 30
-2.5415179729461661
  0
VERTEX
  5
15F
  8
0
 10
0.4298679657436538
 20
-11.71533107757568
 30
-2.5415179729461661
  0
VERTEX
  5
160
  8
0
 10
0.8743343182064222
 20
-11.625607013702391
 30
-2.5415179729461661
  0
VERTEX
  5
161
  8
0
 10
1.302229923770539
 20
-11.46957874298095
 30
-2.5415179729461661
  0
VERTEX
  5
162
  8
0
 10
1.6844280190921941
 20
-11.25088691711426
 30
-2.5415179729461661
  0
VERTEX
  5
163
  8
0
 10
1.9951376147724309
 20
-10.98145818710327
 30
-2.5415179729461661
  0
VERTEX
  5
164
  8
0
 10
2.2174038119770212
 20
-10.67947912216186
 30
-2.5415179729461661
  0
VERTEX
  5
165
  8
0
 10
2.3459624476886911
 20
-10.36553382873535
 30
-2.5415179729461661
  0
VERTEX
  5
166
  8
0
 10
2.3866321273304152
 20
-10.0553297996521
 30
-2.5415179729461661
  0
VERTEX
  5
167
  8
0
 10
2.347601813838593
 20
-9.7513709068298322
 30
-2.5415179729461661
  0
VERTEX
  5
168
  8
0
 10
2.2207106776691599
 20
-9.4370865821838361
 30
-2.5415179729461661
  0
VERTEX
  5
169
  8
0
 10
2.000053567454926
 20
-9.1345176696777344
 30
-2.5415179729461661
  0
VERTEX
  5
16A
  8
0
 10
1.6907787747837231
 20
-8.8642618656158447
 30
-2.5415179729461661
  0
VERTEX
  5
16B
  8
0
 10
1.3512437768436589
 20
-8.6614491939544678
 30
-2.5415179729461661
  0
VERTEX
  5
16C
  8
0
 10
0.8970388002849745
 20
-8.4826483726501465
 30
-2.5415179729461661
  0
VERTEX
  5
16D
  8
0
 10
0.6772596933226254
 20
-8.4376477542716461
 30
-2.5415179729461661
  0
SEQEND
  5
16E
  8
0
  0
POLYLINE
  5
7A
  8
0
 66
     1
 10
0.0
 20
0.0
 30
-2.5622923374176021
  0
VERTEX
  5
16F
  8
0
 10
-0.0047244042002035
 20
-11.94114255905151
 30
-2.5622923374176021
  0
VERTEX
  5
170
  8
0
 10
0.4524651892639327
 20
-11.91209602355957
 30
-2.5622923374176021
  0
VERTEX
  5
171
  8
0
 10
0.920298082397096
 20
-11.817654132843019
 30
-2.5622923374176021
  0
VERTEX
  5
172
  8
0
 10
1.3706905074573681
 20
-11.65342330932617
 30
-2.5622923374176021
  0
VERTEX
  5
173
  8
0
 10
1.7729809709049389
 20
-11.42323446273803
 30
-2.5622923374176021
  0
VERTEX
  5
174
  8
0
 10
2.100029391811006
 20
-11.13964128494262
 30
-2.5622923374176021
  0
VERTEX
  5
175
  8
0
 10
2.3339802451587839
 20
-10.821786403656001
 30
-2.5622923374176021
  0
VERTEX
  5
176
  8
0
 10
2.4693004317737741
 20
-10.491336345672609
 30
-2.5622923374176021
  0
VERTEX
  5
177
  8
0
 10
2.5121037192798781
 20
-10.16482496261597
 30
-2.5622923374176021
  0
VERTEX
  5
178
  8
0
 10
2.4561945624805608
 20
-9.8448123931884766
 30
-2.5622923374176021
  0
VERTEX
  5
179
  8
0
 10
2.3374613948322458
 20
-9.5140800476074219
 30
-2.5622923374176021
  0
VERTEX
  5
17A
  8
0
 10
2.1052045054889841
 20
-9.1956050395965576
 30
-2.5622923374176021
  0
VERTEX
  5
17B
  8
0
 10
1.7796677775837111
 20
-8.9111423492431641
 30
-2.5622923374176021
  0
VERTEX
  5
17C
  8
0
 10
1.479583770905335
 20
-8.7381098540766047
 30
-2.5622923374176021
  0
SEQEND
  5
17D
  8
0
  0
POLYLINE
  5
7B
  8
0
 66
     1
 10
0.0
 20
0.0
 30
-2.9371978044509879
  0
VERTEX
  5
17E
  8
0
 10
0.7527141995884108
 20
-8.7634100914001465
 30
-2.9371978044509879
  0
VERTEX
  5
17F
  8
0
 10
0.7820587047531831
 20
-9.4083104133605957
 30
-2.9371978044509879
  0
SEQEND
  5
180
  8
0
  0
POLYLINE
  5
7C
  8
0
 66
     1
 10
0.0
 20
0.0
 30
-3.0479071140289302
  0
VERTEX
  5
181
  8
0
 10
-0.0014374043170733
 20
-10.050004482269291
 30
-3.0479071140289302
  0
VERTEX
  5
182
  8
0
 10
0.1498872103325652
 20
-10.04039001464843
 30
-3.0479071140289302
  0
VERTEX
  5
183
  8
0
 10
0.3047347726456451
 20
-10.00913095474243
 30
-3.0479071140289302
  0
VERTEX
  5
184
  8
0
 10
0.4538090290657806
 20
-9.9547719955444336
 30
-3.0479071140289302
  0
VERTEX
  5
185
  8
0
 10
0.5869626762501526
 20
-9.8785820007324219
 30
-3.0479071140289302
  0
VERTEX
  5
186
  8
0
 10
0.6952110292546081
 20
-9.7847161293029785
 30
-3.0479071140289302
  0
VERTEX
  5
187
  8
0
 10
0.7726459266773987
 20
-9.6795096397399902
 30
-3.0479071140289302
  0
VERTEX
  5
188
  8
0
 10
0.8174347045056151
 20
-9.5701339244842512
 30
-3.0479071140289302
  0
VERTEX
  5
189
  8
0
 10
0.8316036822430419
 20
-9.4620621204376221
 30
-3.0479071140289302
  0
VERTEX
  5
18A
  8
0
 10
0.8180054189793395
 20
-9.3561658859252912
 30
-3.0479071140289302
  0
VERTEX
  5
18B
  8
0
 10
0.7737984420887756
 20
-9.2466723918914795
 30
-3.0479071140289302
  0
SEQEND
  5
18C
  8
0
  0
POLYLINE
  5
7D
  8
0
 66
     1
 10
0.0
 20
0.0
 30
-3.0270972251892081
  0
VERTEX
  5
18D
  8
0
 10
-0.0013497049298508
 20
-9.9633107185363752
 30
-3.0270972251892081
  0
VERTEX
  5
18E
  8
0
 10
0.1414962174526977
 20
-9.9542355537414551
 30
-3.0270972251892081
  0
VERTEX
  5
18F
  8
0
 10
0.2876673998467254
 20
-9.9247274398803711
 30
-3.0270972251892081
  0
VERTEX
  5
190
  8
0
 10
0.428388840161972
 20
-9.8734140396118164
 30
-3.0270972251892081
  0
VERTEX
  5
191
  8
0
 10
0.5540823104016113
 20
-9.8014929294586182
 30
-3.0270972251892081
  0
VERTEX
  5
192
  8
0
 10
0.6562653543583679
 20
-9.7128860950469971
 30
-3.0270972251892081
  0
VERTEX
  5
193
  8
0
 10
0.7345027091137695
 20
-9.6361112594604492
 30
-3.0270972251892081
  0
VERTEX
  5
194
  8
0
 10
0.7770797969929504
 20
-9.5321362018585205
 30
-3.0270972251892081
  0
VERTEX
  5
195
  8
0
 10
0.7820587047531831
 20
-9.4083104133605957
 30
-3.0270972251892081
  0
SEQEND
  5
196
  8
0
  0
POLYLINE
  5
7E
  8
0
 66
     1
 10
0.0
 20
0.0
 30
-2.5415179729461661
  0
VERTEX
  5
197
  8
0
 10
-0.0044868293993545
 20
-11.742927074432369
 30
-2.5415179729461661
  0
VERTEX
  5
198
  8
0
 10
-0.4388416245423628
 20
-11.71533107757568
 30
-2.5415179729461661
  0
VERTEX
  5
199
  8
0
 10
-0.8833079770051313
 20
-11.625607013702391
 30
-2.5415179729461661
  0
VERTEX
  5
19A
  8
0
 10
-1.3112035825692481
 20
-11.46957874298095
 30
-2.5415179729461661
  0
VERTEX
  5
19B
  8
0
 10
-1.693401677890904
 20
-11.25088691711426
 30
-2.5415179729461661
  0
VERTEX
  5
19C
  8
0
 10
-2.0041112735711399
 20
-10.98145818710327
 30
-2.5415179729461661
  0
VERTEX
  5
19D
  8
0
 10
-2.2263774707757298
 20
-10.67947912216186
 30
-2.5415179729461661
  0
VERTEX
  5
19E
  8
0
 10
-2.3549361064874001
 20
-10.36553382873535
 30
-2.5415179729461661
  0
VERTEX
  5
19F
  8
0
 10
-2.3956057861291238
 20
-10.0553297996521
 30
-2.5415179729461661
  0
VERTEX
  5
1A0
  8
0
 10
-2.356575472637302
 20
-9.7513709068298322
 30
-2.5415179729461661
  0
VERTEX
  5
1A1
  8
0
 10
-2.2296843364678689
 20
-9.4370865821838361
 30
-2.5415179729461661
  0
VERTEX
  5
1A2
  8
0
 10
-2.0090272262536351
 20
-9.1345176696777344
 30
-2.5415179729461661
  0
VERTEX
  5
1A3
  8
0
 10
-1.6997524335824321
 20
-8.8642618656158447
 30
-2.5415179729461661
  0
VERTEX
  5
1A4
  8
0
 10
-1.360217435642368
 20
-8.6614491939544678
 30
-2.5415179729461661
  0
VERTEX
  5
1A5
  8
0
 10
-0.9060124590836836
 20
-8.4826483726501465
 30
-2.5415179729461661
  0
VERTEX
  5
1A6
  8
0
 10
-0.6862333521213273
 20
-8.4376477542716461
 30
-2.5415179729461661
  0
SEQEND
  5
1A7
  8
0
  0
POLYLINE
  5
7F
  8
0
 66
     1
 10
0.0
 20
0.0
 30
-2.5622923374176021
  0
VERTEX
  5
1A8
  8
0
 10
-0.0042492545985056
 20
-11.94114255905151
 30
-2.5622923374176021
  0
VERTEX
  5
1A9
  8
0
 10
-0.4614388480626417
 20
-11.91209602355957
 30
-2.5622923374176021
  0
VERTEX
  5
1AA
  8
0
 10
-0.9292717411958051
 20
-11.817654132843019
 30
-2.5622923374176021
  0
VERTEX
  5
1AB
  8
0
 10
-1.3796641662560769
 20
-11.65342330932617
 30
-2.5622923374176021
  0
VERTEX
  5
1AC
  8
0
 10
-1.7819546297036479
 20
-11.42323446273803
 30
-2.5622923374176021
  0
VERTEX
  5
1AD
  8
0
 10
-2.109003050609715
 20
-11.13964128494262
 30
-2.5622923374176021
  0
VERTEX
  5
1AE
  8
0
 10
-2.3429539039574929
 20
-10.821786403656001
 30
-2.5622923374176021
  0
VERTEX
  5
1AF
  8
0
 10
-2.4782740905724832
 20
-10.491336345672609
 30
-2.5622923374176021
  0
VERTEX
  5
1B0
  8
0
 10
-2.5210773780785871
 20
-10.16482496261597
 30
-2.5622923374176021
  0
VERTEX
  5
1B1
  8
0
 10
-2.4651682212792698
 20
-9.8448123931884766
 30
-2.5622923374176021
  0
VERTEX
  5
1B2
  8
0
 10
-2.3464350536309548
 20
-9.5140800476074219
 30
-2.5622923374176021
  0
VERTEX
  5
1B3
  8
0
 10
-2.1141781642876931
 20
-9.1956050395965576
 30
-2.5622923374176021
  0
VERTEX
  5
1B4
  8
0
 10
-1.7886414363824199
 20
-8.9111423492431641
 30
-2.5622923374176021
  0
VERTEX
  5
1B5
  8
0
 10
-1.4885574297040369
 20
-8.7381098540766047
 30
-2.5622923374176021
  0
SEQEND
  5
1B6
  8
0
  0
POLYLINE
  5
80
  8
0
 66
     1
 10
0.0
 20
0.0
 30
0.0
 70
     1
  0
VERTEX
  5
1B7
  8
0
 10
1.25
 20
-0.0300000000000011
 30
0.0
  0
VERTEX
  5
1B8
  8
0
 10
1.25
 20
-0.3711395560550841
 30
0.0
 42
-0.4142135623730951
  0
VERTEX
  5
1B9
  8
0
 10
1.219999999999998
 20
-0.4011395560550853
 30
0.0
  0
VERTEX
  5
1BA
  8
0
 10
-1.219999999999998
 20
-0.4011395560550853
 30
0.0
 42
-0.4142135623730973
  0
VERTEX
  5
1BB
  8
0
 10
-1.25
 20
-0.3711395560550841
 30
0.0
  0
VERTEX
  5
1BC
  8
0
 10
-1.25
 20
-0.0300000000000011
 30
0.0
 42
-0.4142135623730886
  0
VERTEX
  5
1BD
  8
0
 10
-1.219999999999998
 20
0.0
 30
0.0
  0
VERTEX
  5
1BE
  8
0
 10
1.219999999999998
 20
0.0
 30
0.0
 42
-0.4142135623730951
  0
SEQEND
  5
1BF
  8
0
  0
ATTDEF
  5
81
  8
DEFPOINTS
 10
0.0
 20
-0.005
 30
0.0
 40
0.001
  1
BRASS
  3

  2
MATERIAL
 70
     8
1001
AcDbAttr
1070
     0
1070
     1
  0
ATTDEF
  5
83
  8
DEFPOINTS
 10
0.0
 20
-0.0033333333333333
 30
0.0
 40
0.001
  1
SHOWERHEAD AND ARM
  3

  2
PRODUCT
 70
     8
1001
AcDbAttr
1070
     0
1070
     1
  0
ATTDEF
  5
84
  8
DEFPOINTS
 10
0.0
 20
-0.0016666666666667
 30
0.0
 40
0.001
  1
LOURE
  3

  2
TRADENAME
 70
     8
1001
AcDbAttr
1070
     0
1070
     1
  0
ATTDEF
  5
85
  8
DEFPOINTS
 10
0.0
 20
0.0
 30
0.0
 40
0.001
  1
K-14681
  3

  2
MODELNUMBER
 70
     8
1001
AcDbAttr
1070
     0
1070
     1
  0
ENDSEC
  0
EOF
