  0
SECTION
  2
HEADER
  9
$ACADVER
  1
AC1009
  9
$INSBASE
 10
413.8692428669918968
 20
67.5135498002939443
 30
0.0
  9
$EXTMIN
 10
404.0655948483429256
 20
65.5452929260923725
 30
-0.0000000000112498
  9
$EXTMAX
 10
413.8865015297469085
 20
69.2546261186802212
 30
0.0000000000002956
  9
$LIMMIN
 10
0.0
 20
0.0
  9
$LIMMAX
 10
11.6929133858000007
 20
8.2677165353999982
  9
$ORTHOMODE
 70
     0
  9
$REGENMODE
 70
     1
  9
$FILLMODE
 70
     1
  9
$QTEXTMODE
 70
     0
  9
$MIRRTEXT
 70
     0
  9
$DRAGMODE
 70
     2
  9
$LTSCALE
 40
0.6431102362
  9
$OSMODE
 70
   575
  9
$ATTMODE
 70
     1
  9
$TEXTSIZE
 40
0.2
  9
$TRACEWID
 40
0.05
  9
$TEXTSTYLE
  7
STANDARD
  9
$CLAYER
  8
0
  9
$CELTYPE
  6
BYLAYER
  9
$CECOLOR
 62
   256
  9
$DIMSCALE
 40
1.0
  9
$DIMASZ
 40
0.1875
  9
$DIMEXO
 40
0.0625
  9
$DIMDLI
 40
0.4443307087
  9
$DIMRND
 40
0.0
  9
$DIMDLE
 40
0.0
  9
$DIMEXE
 40
0.125
  9
$DIMTP
 40
0.01
  9
$DIMTM
 40
0.01
  9
$DIMTXT
 40
1.0
  9
$DIMCEN
 40
0.1052362205
  9
$DIMTSZ
 40
0.0
  9
$DIMTOL
 70
     1
  9
$DIMLIM
 70
     0
  9
$DIMTIH
 70
     0
  9
$DIMTOH
 70
     1
  9
$DIMSE1
 70
     0
  9
$DIMSE2
 70
     0
  9
$DIMTAD
 70
     0
  9
$DIMZIN
 70
     0
  9
$DIMBLK
  1

  9
$DIMASO
 70
     1
  9
$DIMSHO
 70
     1
  9
$DIMPOST
  1
\X
  9
$DIMAPOST
  1

  9
$DIMALT
 70
     1
  9
$DIMALTD
 70
     2
  9
$DIMALTF
 40
25.3999999999999986
  9
$DIMLFAC
 40
1.0
  9
$DIMTOFL
 70
     0
  9
$DIMTVP
 40
0.0
  9
$DIMTIX
 70
     0
  9
$DIMSOXD
 70
     0
  9
$DIMSAH
 70
     0
  9
$DIMBLK1
  1

  9
$DIMBLK2
  1

  9
$DIMSTYLE
  2
STANDARD
  9
$DIMCLRD
 70
     0
  9
$DIMCLRE
 70
     0
  9
$DIMCLRT
 70
     0
  9
$DIMTFAC
 40
1.0
  9
$DIMGAP
 40
0.09
  9
$LUNITS
 70
     2
  9
$LUPREC
 70
     4
  9
$SKETCHINC
 40
0.1
  9
$FILLETRAD
 40
0.0
  9
$AUNITS
 70
     0
  9
$AUPREC
 70
     0
  9
$MENU
  1
.
  9
$ELEVATION
 40
0.0
  9
$PELEVATION
 40
0.0
  9
$THICKNESS
 40
0.0
  9
$LIMCHECK
 70
     0
  9
$BLIPMODE
 70
     0
  9
$CHAMFERA
 40
0.0
  9
$CHAMFERB
 40
0.0
  9
$SKPOLY
 70
     0
  9
$TDCREATE
 40
2458172.5207638889551163
  9
$TDUPDATE
 40
2459505.053576388861984
  9
$TDINDWG
 40
0.2678212731
  9
$TDUSRTIMER
 40
0.2678212731
  9
$USRTIMER
 70
     1
  9
$ANGBASE
 50
0.0
  9
$ANGDIR
 70
     0
  9
$PDMODE
 70
     0
  9
$PDSIZE
 40
0.3125
  9
$PLINEWID
 40
0.0
  9
$COORDS
 70
     1
  9
$SPLFRAME
 70
     0
  9
$SPLINETYPE
 70
     6
  9
$SPLINESEGS
 70
     8
  9
$ATTDIA
 70
     1
  9
$ATTREQ
 70
     1
  9
$HANDLING
 70
     1
  9
$HANDSEED
  5
DE3B
  9
$SURFTAB1
 70
     6
  9
$SURFTAB2
 70
     6
  9
$SURFTYPE
 70
     6
  9
$SURFU
 70
     6
  9
$SURFV
 70
     6
  9
$UCSNAME
  2

  9
$UCSORG
 10
0.0
 20
0.0
 30
0.0
  9
$UCSXDIR
 10
1.0
 20
0.0
 30
0.0
  9
$UCSYDIR
 10
0.0
 20
1.0
 30
0.0
  9
$PUCSNAME
  2

  9
$PUCSORG
 10
0.0
 20
0.0
 30
0.0
  9
$PUCSXDIR
 10
1.0
 20
0.0
 30
0.0
  9
$PUCSYDIR
 10
0.0
 20
1.0
 30
0.0
  9
$USERI1
 70
     0
  9
$USERI2
 70
     0
  9
$USERI3
 70
     0
  9
$USERI4
 70
     0
  9
$USERI5
 70
     0
  9
$USERR1
 40
0.0
  9
$USERR2
 40
0.0
  9
$USERR3
 40
0.0
  9
$USERR4
 40
0.0
  9
$USERR5
 40
0.0
  9
$WORLDVIEW
 70
     1
  9
$SHADEDGE
 70
     3
  9
$SHADEDIF
 70
    70
  9
$TILEMODE
 70
     1
  9
$MAXACTVP
 70
    64
  9
$PLIMCHECK
 70
     0
  9
$PEXTMIN
 10
1.0000000000000000E+20
 20
1.0000000000000000E+20
 30
1.0000000000000000E+20
  9
$PEXTMAX
 10
-1.0000000000000000E+20
 20
-1.0000000000000000E+20
 30
-1.0000000000000000E+20
  9
$PLIMMIN
 10
0.0
 20
0.0
  9
$PLIMMAX
 10
12.0
 20
9.0
  9
$UNITMODE
 70
     0
  9
$VISRETAIN
 70
     1
  9
$PLINEGEN
 70
     0
  9
$PSLTSCALE
 70
     1
  0
ENDSEC
  0
SECTION
  2
TABLES
  0
TABLE
  2
VPORT
 70
     1
  0
VPORT
  2
*ACTIVE
 70
     0
 10
0.0
 20
0.0
 11
1.0
 21
1.0
 12
-20.6532409304659801
 22
-2.3025819812736779
 13
0.0
 23
0.0
 14
1.0
 24
1.0
 15
0.0
 25
0.0
 16
0.0
 26
0.0
 36
14.6338572656650907
 17
429.6292891080536833
 27
69.7025415122186871
 37
0.0
 40
5.5640016022484682
 41
2.4983870967741928
 42
50.0
 43
0.0
 44
0.0
 50
0.0
 51
0.0
 71
     0
 72
   100
 73
     1
 74
     1
 75
     0
 76
     0
 77
     0
 78
     0
  0
ENDTAB
  0
TABLE
  2
LTYPE
 70
     2
  0
LTYPE
  2
CONTINUOUS
 70
     0
  3
Solid line
 72
    65
 73
     0
 40
0.0
  0
LTYPE
  2
PHANTOM2
 70
     0
  3
___ _ _ ___ _ _ ___ _ _ ___ _ _
 72
    65
 73
     6
 40
1.25
 49
0.625
 49
-0.125
 49
0.125
 49
-0.125
 49
0.125
 49
-0.125
  0
ENDTAB
  0
TABLE
  2
LAYER
 70
     2
  0
LAYER
  2
0
 70
     0
 62
   255
  6
CONTINUOUS
  0
LAYER
  2
DEFPOINTS
 70
     0
 62
     7
  6
CONTINUOUS
  0
ENDTAB
  0
TABLE
  2
STYLE
 70
     1
  0
STYLE
  2
STANDARD
 70
     0
 40
0.0
 41
0.8
 50
0.0
 71
     0
 42
0.2
  3
txt
  4

  0
ENDTAB
  0
TABLE
  2
VIEW
 70
     0
  0
ENDTAB
  0
TABLE
  2
UCS
 70
     0
  0
ENDTAB
  0
TABLE
  2
APPID
 70
    10
  0
APPID
  2
ACAD
 70
     0
  0
APPID
  2
ACAD_MLEADERVER
 70
     0
  0
APPID
  2
ACAD_EXEMPT_FROM_CAD_STANDARDS
 70
     0
  0
APPID
  2
ACAD_DSTYLE_DIMJAG
 70
     0
  0
APPID
  2
ACAD_DSTYLE_DIMTALN
 70
     0
  0
APPID
  2
ACAD_NAV_VCDISPLAY
 70
     0
  0
APPID
  2
ACAECLAYERSTANDARD
 70
     0
  0
APPID
  2
ACCMTRANSPARENCY
 70
     0
  0
APPID
  2
DCO15
 70
     0
  0
APPID
  2
ACDBATTR
 70
     0
  0
ENDTAB
  0
TABLE
  2
DIMSTYLE
 70
     1
  0
DIMSTYLE
  2
STANDARD
 70
     0
  3

  4

  5

  6

  7

 40
1.0
 41
0.1875
 42
0.0625
 43
0.38
 44
0.125
 45
0.0
 46
0.0
 47
0.01
 48
0.01
140
0.15625
141
0.09
142
0.0
143
25.3999999999999986
144
1.0
145
0.0
146
1.0
147
0.09
 71
     1
 72
     0
 73
     1
 74
     1
 75
     0
 76
     0
 77
     0
 78
     4
170
     0
171
     2
172
     0
173
     0
174
     0
175
     0
176
     0
177
     0
178
     0
  0
ENDTAB
  0
ENDSEC
  0
SECTION
  2
BLOCKS
  0
BLOCK
  8
0
  2
$MODEL_SPACE
 70
     0
 10
0.0
 20
0.0
 30
0.0
  3
$MODEL_SPACE
  1

  0
ENDBLK
  5
21
  8
0
  0
BLOCK
 67
     1
  8
0
  2
$PAPER_SPACE
 70
     0
 10
0.0
 20
0.0
 30
0.0
  3
$PAPER_SPACE
  1

  0
ENDBLK
  5
1D
 67
     1
  8
0
  0
ENDSEC
  0
SECTION
  2
ENTITIES
  0
ATTDEF
  5
B1E1
  8
DEFPOINTS
 10
413.8695174326268216
 20
67.5172874317647711
 30
0.0
 40
0.001
  1
K-14676
  3

  2
MODELNUMBER
 70
     0
1001
ACDBATTR
1070
     0
1070
     1
  0
ATTDEF
  5
B1E2
  8
DEFPOINTS
 10
413.8695174326268216
 20
67.5156207650981059
 30
0.0
 40
0.001
  1
LOURE
  3

  2
TRADENAME
 70
     0
1001
ACDBATTR
1070
     0
1070
     1
  0
ATTDEF
  5
B1E3
  8
DEFPOINTS
 10
413.8695174326268216
 20
67.5139540984314408
 30
0.0
 40
0.001
  1
BATHROOM SINK FAUCET
  3

  2
PRODUCT
 70
     0
1001
ACDBATTR
1070
     0
1070
     1
  0
LINE
  5
DAD9
  8
0
 10
413.1492428669919263
 20
69.2535498002939391
 30
0.0
 11
413.8692428669918968
 21
69.2535498002939391
 31
0.0
  0
LINE
  5
DADA
  8
0
 10
413.8692428669918968
 20
69.2535498002939391
 30
0.0
 11
413.8692428669918968
 21
65.7735498002939494
 31
0.0
  0
LINE
  5
DADB
  8
0
 10
413.8692428669918968
 20
65.7735498002939494
 30
0.0
 11
413.1492428669919263
 21
65.7735498002939494
 31
0.0
  0
ARC
  5
DADC
  8
0
 10
413.1492428669919263
 20
65.8035498002939363
 30
0.0
 40
0.0299999999999976
 50
179.9999999999951115
 51
270.0
  0
LINE
  5
DADD
  8
0
 10
413.1192428669918968
 20
65.8035498002939505
 30
0.0
 11
413.119242866992181
 21
69.2235498002939238
 31
0.0
  0
ARC
  5
DADE
  8
0
 10
413.1492428669922106
 20
69.2235498002939238
 30
0.0
 40
0.0300000000000011
 50
90.0000000005829861
 51
179.9999999999917861
  0
ARC
  5
DADF
  8
0
 10
413.1042428669919104
 20
67.8529004666939386
 30
0.0
 40
0.0149999999999935
 50
0.0
 51
90.0000000000260485
  0
LINE
  5
DAE0
  8
0
 10
413.1042428669919104
 20
67.8679004666939392
 30
0.0
 11
406.8992428669919263
 21
67.8679004666909975
 31
0.0
  0
ARC
  5
DAE1
  8
0
 10
406.8992428669930064
 20
65.6010498002809754
 30
0.0
 40
2.2668506664100239
 50
90.0000000000260485
 51
134.3360539627070125
  0
LINE
  5
DAE2
  8
0
 10
405.3150191330852863
 20
67.2224217825007173
 30
0.0
 11
404.0961191262073271
 21
66.0314487415624427
 31
0.0
  0
ARC
  5
DAE3
  8
0
 10
404.1170850913335926
 20
66.0099911483523698
 30
0.0
 40
0.0300000000007533
 50
134.3360539627063872
 51
224.3360536906851905
  0
LINE
  5
DAE4
  8
0
 10
404.0956274980238732
 20
65.9890251833279535
 30
0.0
 11
404.5193581708409738
 21
65.5553585030900052
 31
0.0
  0
ARC
  5
DAE5
  8
0
 10
404.5408157640388254
 20
65.5763244680052111
 30
0.0
 40
0.0299999998445072
 50
224.3360536906857874
 51
314.3360596661917157
  0
LINE
  5
DAE6
  8
0
 10
404.5617817311918998
 20
65.5548668769939411
 30
0.0
 11
405.780681619557015
 21
66.7458400393082627
 31
0.0
  0
ARC
  5
DAE7
  8
0
 10
406.899242291266205
 20
65.6010506174992116
 30
0.0
 40
1.600537658594841
 50
89.9999793902662191
 51
134.336059666191602
  0
LINE
  5
DAE8
  8
0
 10
406.8992428669919263
 20
67.2015882760939434
 30
0.0
 11
413.1042428669915125
 21
67.2015860441076853
 31
0.0
  0
ARC
  5
DAE9
  8
0
 10
413.1042428723870898
 20
67.2165860388794556
 30
0.0
 40
0.0149999947717539
 50
269.9999793902662191
 51
0.00854553289863
  0
LINE
  5
DAEA
  8
0
 10
413.1192428669918968
 20
67.8055225666939378
 30
0.0
 11
406.8992428669919263
 21
67.8055225666939378
 31
0.0
  0
ARC
  5
DAEB
  8
0
 10
406.8992428669919263
 20
65.6010498005341702
 30
0.0
 40
2.2044727661597801
 50
90.0
 51
134.3360539663815985
  0
LINE
  5
DAEC
  8
0
 10
405.3586128956919197
 20
67.1778057956939421
 30
0.0
 11
404.1182548932019927
 21
65.9658663962918439
 31
0.0
  0
ENDSEC
  0
EOF
